  0
SECTION
  2
HEADER
  9
$ACADVER
  1
AC1009
  9
$INSBASE
 10
5921.1505325167627234
 20
284.3024853871198161
 30
0.0
  9
$EXTMIN
 10
5911.0344517675866882
 20
281.1345888267837267
 30
-0.0015258207003583
  9
$EXTMAX
 10
5931.3447964001243236
 20
284.3224044444777974
 30
0.0000000349246037
  9
$LIMMIN
 10
0.0
 20
0.0
  9
$LIMMAX
 10
11.6929133858000007
 20
8.2677165353999982
  9
$ORTHOMODE
 70
     0
  9
$REGENMODE
 70
     1
  9
$FILLMODE
 70
     1
  9
$QTEXTMODE
 70
     0
  9
$MIRRTEXT
 70
     0
  9
$DRAGMODE
 70
     2
  9
$LTSCALE
 40
0.6431102362
  9
$OSMODE
 70
  4095
  9
$ATTMODE
 70
     1
  9
$TEXTSIZE
 40
0.2
  9
$TRACEWID
 40
0.05
  9
$TEXTSTYLE
  7
STANDARD
  9
$CLAYER
  8
0
  9
$CELTYPE
  6
BYLAYER
  9
$CECOLOR
 62
   256
  9
$DIMSCALE
 40
1.0
  9
$DIMASZ
 40
0.1875
  9
$DIMEXO
 40
0.0625
  9
$DIMDLI
 40
0.4443307087
  9
$DIMRND
 40
0.0
  9
$DIMDLE
 40
0.0
  9
$DIMEXE
 40
0.125
  9
$DIMTP
 40
0.01
  9
$DIMTM
 40
0.01
  9
$DIMTXT
 40
2.0
  9
$DIMCEN
 40
0.1052362205
  9
$DIMTSZ
 40
0.0
  9
$DIMTOL
 70
     1
  9
$DIMLIM
 70
     0
  9
$DIMTIH
 70
     1
  9
$DIMTOH
 70
     1
  9
$DIMSE1
 70
     0
  9
$DIMSE2
 70
     0
  9
$DIMTAD
 70
     0
  9
$DIMZIN
 70
     0
  9
$DIMBLK
  1

  9
$DIMASO
 70
     1
  9
$DIMSHO
 70
     1
  9
$DIMPOST
  1
\X
  9
$DIMAPOST
  1

  9
$DIMALT
 70
     1
  9
$DIMALTD
 70
     2
  9
$DIMALTF
 40
25.3999999999999986
  9
$DIMLFAC
 40
1.0
  9
$DIMTOFL
 70
     0
  9
$DIMTVP
 40
0.0
  9
$DIMTIX
 70
     0
  9
$DIMSOXD
 70
     0
  9
$DIMSAH
 70
     0
  9
$DIMBLK1
  1

  9
$DIMBLK2
  1

  9
$DIMSTYLE
  2
STANDARD
  9
$DIMCLRD
 70
     0
  9
$DIMCLRE
 70
     0
  9
$DIMCLRT
 70
     0
  9
$DIMTFAC
 40
1.0
  9
$DIMGAP
 40
0.09
  9
$LUNITS
 70
     2
  9
$LUPREC
 70
     4
  9
$SKETCHINC
 40
0.1
  9
$FILLETRAD
 40
0.0
  9
$AUNITS
 70
     0
  9
$AUPREC
 70
     0
  9
$MENU
  1
.
  9
$ELEVATION
 40
0.0
  9
$PELEVATION
 40
0.0
  9
$THICKNESS
 40
0.0
  9
$LIMCHECK
 70
     0
  9
$BLIPMODE
 70
     0
  9
$CHAMFERA
 40
0.0
  9
$CHAMFERB
 40
0.0
  9
$SKPOLY
 70
     0
  9
$TDCREATE
 40
2458060.468368056230247
  9
$TDUPDATE
 40
2460234.7724884259514511
  9
$TDINDWG
 40
0.7409561343
  9
$TDUSRTIMER
 40
0.7409561343
  9
$USRTIMER
 70
     1
  9
$ANGBASE
 50
0.0
  9
$ANGDIR
 70
     0
  9
$PDMODE
 70
     0
  9
$PDSIZE
 40
0.3125
  9
$PLINEWID
 40
0.0
  9
$COORDS
 70
     1
  9
$SPLFRAME
 70
     0
  9
$SPLINETYPE
 70
     6
  9
$SPLINESEGS
 70
     8
  9
$ATTDIA
 70
     1
  9
$ATTREQ
 70
     1
  9
$HANDLING
 70
     1
  9
$HANDSEED
  5
2CF6A
  9
$SURFTAB1
 70
     6
  9
$SURFTAB2
 70
     6
  9
$SURFTYPE
 70
     6
  9
$SURFU
 70
     6
  9
$SURFV
 70
     6
  9
$UCSNAME
  2

  9
$UCSORG
 10
0.0
 20
0.0
 30
0.0
  9
$UCSXDIR
 10
1.0
 20
0.0
 30
0.0
  9
$UCSYDIR
 10
0.0
 20
1.0
 30
0.0
  9
$PUCSNAME
  2

  9
$PUCSORG
 10
0.0
 20
0.0
 30
0.0
  9
$PUCSXDIR
 10
1.0
 20
0.0
 30
0.0
  9
$PUCSYDIR
 10
0.0
 20
1.0
 30
0.0
  9
$USERI1
 70
     0
  9
$USERI2
 70
     0
  9
$USERI3
 70
     0
  9
$USERI4
 70
     0
  9
$USERI5
 70
     0
  9
$USERR1
 40
0.0
  9
$USERR2
 40
0.0
  9
$USERR3
 40
0.0
  9
$USERR4
 40
0.0
  9
$USERR5
 40
0.0
  9
$WORLDVIEW
 70
     1
  9
$SHADEDGE
 70
     3
  9
$SHADEDIF
 70
    70
  9
$TILEMODE
 70
     1
  9
$MAXACTVP
 70
    64
  9
$PLIMCHECK
 70
     0
  9
$PEXTMIN
 10
1.0000000000000000E+20
 20
1.0000000000000000E+20
 30
1.0000000000000000E+20
  9
$PEXTMAX
 10
-1.0000000000000000E+20
 20
-1.0000000000000000E+20
 30
-1.0000000000000000E+20
  9
$PLIMMIN
 10
0.0
 20
0.0
  9
$PLIMMAX
 10
12.0
 20
9.0
  9
$UNITMODE
 70
     0
  9
$VISRETAIN
 70
     1
  9
$PLINEGEN
 70
     0
  9
$PSLTSCALE
 70
     1
  0
ENDSEC
  0
SECTION
  2
TABLES
  0
TABLE
  2
VPORT
 70
     1
  0
VPORT
  2
*ACTIVE
 70
     0
 10
0.0
 20
0.0
 11
1.0
 21
1.0
 12
2009.8242676385439154
 22
150.1488915330915859
 13
0.0
 23
0.0
 14
1.0
 24
1.0
 15
0.0
 25
0.0
 16
0.0
 26
0.0
 36
60.4960186965801583
 17
3911.3653564453120453
 27
132.5796051025390057
 37
0.0
 40
8.1552217928684261
 41
2.498684210526315
 42
50.0
 43
0.0
 44
0.0
 50
0.0
 51
0.0
 71
     0
 72
   100
 73
     1
 74
     1
 75
     0
 76
     0
 77
     0
 78
     0
  0
ENDTAB
  0
TABLE
  2
LTYPE
 70
     2
  0
LTYPE
  2
CONTINUOUS
 70
     0
  3
Solid line
 72
    65
 73
     0
 40
0.0
  0
LTYPE
  2
PHANTOM2
 70
     0
  3
___ _ _ ___ _ _ ___ _ _ ___ _ _
 72
    65
 73
     6
 40
1.25
 49
0.625
 49
-0.125
 49
0.125
 49
-0.125
 49
0.125
 49
-0.125
  0
ENDTAB
  0
TABLE
  2
LAYER
 70
     2
  0
LAYER
  2
0
 70
     0
 62
   255
  6
CONTINUOUS
  0
LAYER
  2
DEFPOINTS
 70
     0
 62
     7
  6
CONTINUOUS
  0
ENDTAB
  0
TABLE
  2
STYLE
 70
     1
  0
STYLE
  2
STANDARD
 70
     0
 40
0.0
 41
0.8
 50
0.0
 71
     0
 42
0.2
  3
txt
  4

  0
ENDTAB
  0
TABLE
  2
VIEW
 70
     0
  0
ENDTAB
  0
TABLE
  2
UCS
 70
     0
  0
ENDTAB
  0
TABLE
  2
APPID
 70
    11
  0
APPID
  2
ACAD
 70
     0
  0
APPID
  2
ACAD_MLEADERVER
 70
     0
  0
APPID
  2
ACAD_EXEMPT_FROM_CAD_STANDARDS
 70
     0
  0
APPID
  2
ACAD_NAV_VCDISPLAY
 70
     0
  0
APPID
  2
ACAECLAYERSTANDARD
 70
     0
  0
APPID
  2
ACCMTRANSPARENCY
 70
     0
  0
APPID
  2
ACAD_DSTYLE_DIMJAG
 70
     0
  0
APPID
  2
ACAD_DSTYLE_DIMTALN
 70
     0
  0
APPID
  2
ACDBATTR
 70
     0
  0
APPID
  2
ACADANNOTATIVE
 70
     0
  0
APPID
  2
DCO15
 70
     0
  0
ENDTAB
  0
TABLE
  2
DIMSTYLE
 70
     1
  0
DIMSTYLE
  2
STANDARD
 70
     0
  3

  4

  5

  6

  7

 40
1.0
 41
0.1875
 42
0.0625
 43
0.38
 44
0.125
 45
0.0
 46
0.0
 47
0.01
 48
0.01
140
0.15625
141
0.09
142
0.0
143
25.3999999999999986
144
1.0
145
0.0
146
1.0
147
0.09
 71
     1
 72
     0
 73
     1
 74
     1
 75
     0
 76
     0
 77
     0
 78
     4
170
     0
171
     2
172
     0
173
     0
174
     0
175
     0
176
     0
177
     0
178
     0
  0
ENDTAB
  0
ENDSEC
  0
SECTION
  2
BLOCKS
  0
BLOCK
  8
0
  2
$MODEL_SPACE
 70
     0
 10
0.0
 20
0.0
 30
0.0
  3
$MODEL_SPACE
  1

  0
ENDBLK
  5
21
  8
0
  0
BLOCK
 67
     1
  8
0
  2
$PAPER_SPACE
 70
     0
 10
0.0
 20
0.0
 30
0.0
  3
$PAPER_SPACE
  1

  0
ENDBLK
  5
1D
 67
     1
  8
0
  0
BLOCK
  8
0
  2
_FILLED
 70
     0
 10
0.0
 20
0.0
 30
0.0
  3
_FILLED
  1

  0
SOLID
  5
2CAEA
  8
0
  6
BYBLOCK
 62
     0
 10
0.0
 20
0.0
 30
0.0
 11
-1.0
 21
0.1666666667
 31
0.0
 12
-1.0
 22
-0.1666666667
 32
0.0
 13
-1.0
 23
-0.1666666667
 33
0.0
  0
ENDBLK
  5
2CAEB
  8
0
  6
BYBLOCK
 62
     0
  0
ENDSEC
  0
SECTION
  2
ENTITIES
  0
ATTDEF
  5
26A5B
  8
DEFPOINTS
 10
5921.1450588446668917
 20
284.3010371311763151
 30
0.0
 40
0.001
  1
P80245-00
  3

  2
MODELNUMBER
 70
     0
1001
ACDBATTR
1070
     0
1070
     1
  0
ATTDEF
  5
26A5C
  8
DEFPOINTS
 10
5921.1449330350096716
 20
284.2993702907971283
 30
0.0
 40
0.001
  1
VIR STIL
  3

  2
TRADENAME
 70
     0
1001
ACDBATTR
1070
     0
1070
     1
  0
ATTDEF
  5
26A5D
  8
DEFPOINTS
 10
5921.1450588446668917
 20
284.297703797842928
 30
0.0
 40
0.001
  1
TOWEL BAR
  3

  2
PRODUCT
 70
     0
1001
ACDBATTR
1070
     0
1070
     1
  0
LINE
  5
2CDAD
  8
0
 10
5930.6505325167627234
 20
281.8615405052198071
 30
0.0
 11
5930.6505325167627234
 21
281.156540505219823
 31
0.0
  0
LINE
  5
2CDAE
  8
0
 10
5931.1111325167648829
 20
281.156540505219823
 30
0.0
 11
5911.1899325167632924
 21
281.156540505219823
 31
0.0
  0
LINE
  5
2CDAF
  8
0
 10
5931.1111325167648829
 20
281.8615405052198071
 30
0.0
 11
5911.1899325167632924
 21
281.8615405052198071
 31
0.0
  0
LINE
  5
2CDB0
  8
0
 10
5931.1505325167627234
 20
281.8221405052198065
 30
0.0
 11
5931.1505325167627234
 21
281.1959405052198235
 31
0.0
  0
ARC
  5
2CDB1
  8
0
 10
5931.1111325167648829
 20
281.8221405052198065
 30
0.0
 40
0.0394
 50
359.9999999999968168
 51
90.0
  0
ARC
  5
2CDB2
  8
0
 10
5931.1111325167648829
 20
281.1959405052198235
 30
0.0
 40
0.0394
 50
270.0
 51
0.0000000000065138
  0
LINE
  5
2CDB3
  8
0
 10
5929.0678553513625957
 20
284.3024853871198161
 30
0.0
 11
5931.2332096820637162
 21
284.3024853871198161
 31
0.0
  0
LINE
  5
2CDB4
  8
0
 10
5929.0678553513625957
 20
283.9875247572197736
 30
0.0
 11
5931.2332096820637162
 21
283.9875247572197736
 31
0.0
  0
LINE
  5
2CDB5
  8
0
 10
5929.2489577135638683
 20
283.8890995604198224
 30
0.0
 11
5931.0521073198642625
 21
283.8890995604198224
 31
0.0
  0
LINE
  5
2CDB6
  8
0
 10
5929.1899025954644458
 20
283.940280662719772
 30
0.0
 11
5931.1111624379627756
 21
283.940280662719772
 31
0.0
  0
LINE
  5
2CDB7
  8
0
 10
5929.0678553513625957
 20
284.3024853871198161
 30
0.0
 11
5929.0678553513625957
 21
283.9875247572197736
 31
0.0
  0
LINE
  5
2CDB8
  8
0
 10
5929.658406532463232
 20
281.9205956233197981
 30
0.0
 11
5930.6426585009639894
 21
281.9205956233197981
 31
0.0
  0
LINE
  5
2CDB9
  8
0
 10
5929.6290952493636723
 20
281.9796507415197766
 30
0.0
 11
5930.6719697840626395
 21
281.9796507415197766
 31
0.0
  0
ARC
  5
2CDBA
  8
0
 10
5930.6719697840626395
 20
281.9896507415198244
 30
0.0
 40
0.01
 50
270.0
 51
0.0
  0
LINE
  5
2CDBB
  8
0
 10
5929.6190952493643636
 20
283.7609893241198051
 30
0.0
 11
5929.6190952493643636
 21
281.9896507415198244
 31
0.0
  0
LINE
  5
2CDBC
  8
0
 10
5929.6290952493636723
 20
283.770989324119796
 30
0.0
 11
5930.6719697840626395
 21
283.770989324119796
 31
0.0
  0
LINE
  5
2CDBD
  8
0
 10
5929.2489577135638683
 20
283.8890995604198224
 30
0.0
 11
5929.2489577135638683
 21
283.940280662719772
 31
0.0
  0
LINE
  5
2CDBE
  8
0
 10
5929.1899025954644458
 20
283.940280662719772
 30
0.0
 11
5929.1899025954644458
 21
283.9875247572197736
 31
0.0
  0
ARC
  5
2CDBF
  8
0
 10
5929.6290952493636723
 20
283.7609893241198051
 30
0.0
 40
0.01
 50
90.0
 51
180.0000000000391083
  0
LINE
  5
2CDC0
  8
0
 10
5929.658406532463232
 20
283.770989324119796
 30
0.0
 11
5929.658406532463232
 21
283.8890995604198224
 31
0.0
  0
ARC
  5
2CDC1
  8
0
 10
5929.6290952493636723
 20
281.9896507415198244
 30
0.0
 40
0.01
 50
180.0000000000194973
 51
270.0
  0
LINE
  5
2CDC2
  8
0
 10
5929.77651676876485
 20
281.8615405052198071
 30
0.0
 11
5929.77651676876485
 21
281.9205956233197981
 31
0.0
  0
LINE
  5
2CDC3
  8
0
 10
5929.658406532463232
 20
281.9796507415197766
 30
0.0
 11
5929.658406532463232
 21
281.9205956233197981
 31
0.0
  0
LINE
  5
2CDC4
  8
0
 10
5931.2332096820637162
 20
284.3024853871198161
 30
0.0
 11
5931.2332096820637162
 21
283.9875247572197736
 31
0.0
  0
LINE
  5
2CDC5
  8
0
 10
5930.6819697840637673
 20
283.7609893241198051
 30
0.0
 11
5930.6819697840637673
 21
281.9896507415198244
 31
0.0
  0
LINE
  5
2CDC6
  8
0
 10
5931.0521073198642625
 20
283.8890995604198224
 30
0.0
 11
5931.0521073198642625
 21
283.940280662719772
 31
0.0
  0
LINE
  5
2CDC7
  8
0
 10
5931.1111624379627756
 20
283.940280662719772
 30
0.0
 11
5931.1111624379627756
 21
283.9875247572197736
 31
0.0
  0
ARC
  5
2CDC8
  8
0
 10
5930.6719697840626395
 20
283.7609893241198051
 30
0.0
 40
0.01
 50
359.9999999999575948
 51
90.0
  0
LINE
  5
2CDC9
  8
0
 10
5930.6426585009639894
 20
283.770989324119796
 30
0.0
 11
5930.6426585009639894
 21
283.8890995604198224
 31
0.0
  0
LINE
  5
2CDCA
  8
0
 10
5930.6426585009639894
 20
281.9796507415197766
 30
0.0
 11
5930.6426585009639894
 21
281.9205956233197981
 31
0.0
  0
LINE
  5
2CDCB
  8
0
 10
5929.7480094030634064
 20
281.989650741519597
 30
0.0
 11
5929.7480094030634064
 21
283.760989324120203
 31
0.0
  0
LINE
  5
2CDCC
  8
0
 10
5929.7141207415643294
 20
281.9896507415198244
 30
0.0
 11
5929.7141207415643294
 21
283.7609893241198051
 31
0.0
  0
ARC
  5
2CDCD
  8
0
 10
5929.7241207415636381
 20
281.9896507415198244
 30
0.0
 40
0.0100000000000025
 50
180.0000000000194973
 51
269.9999999989057073
  0
ARC
  5
2CDCE
  8
0
 10
5929.7369115301171405
 20
281.9896932452587066
 30
0.0
 40
0.0110979543387495
 50
295.1906081562270856
 51
359.7805639909789761
  0
ARC
  5
2CDCF
  8
0
 10
5929.7241207415636381
 20
283.7609893241198051
 30
0.0
 40
0.0100000000000025
 50
90.0000000010943069
 51
179.999999999980389
  0
ARC
  5
2CDD0
  8
0
 10
5929.7369115301171405
 20
283.7609468203809229
 30
0.0
 40
0.0110979543387495
 50
0.2194360090210042
 51
64.8093918437729144
  0
LINE
  5
2CDD1
  8
0
 10
5929.7889991414640463
 20
281.989650741519597
 30
0.0
 11
5929.7889991414640463
 21
283.760989324120203
 31
0.0
  0
LINE
  5
2CDD2
  8
0
 10
5929.7551104799640598
 20
281.9896507415198244
 30
0.0
 11
5929.7551104799640598
 21
283.7609893241198051
 31
0.0
  0
ARC
  5
2CDD3
  8
0
 10
5929.7651104799633686
 20
281.9896507415198244
 30
0.0
 40
0.0100000000000025
 50
180.0000000000194973
 51
269.9999999989057073
  0
ARC
  5
2CDD4
  8
0
 10
5929.7779012685168709
 20
281.9896932452587066
 30
0.0
 40
0.0110979543387495
 50
295.1906081562270856
 51
359.7805639909789761
  0
ARC
  5
2CDD5
  8
0
 10
5929.7651104799633686
 20
283.7609893241198051
 30
0.0
 40
0.0100000000000025
 50
90.0000000010943069
 51
179.999999999980389
  0
ARC
  5
2CDD6
  8
0
 10
5929.7779012685168709
 20
283.7609468203809229
 30
0.0
 40
0.0110979543387495
 50
0.2194360090210042
 51
64.8093918437729144
  0
LINE
  5
2CDD7
  8
0
 10
5929.8360672154649365
 20
281.989650741519597
 30
0.0
 11
5929.8360672154649365
 21
283.760989324120203
 31
0.0
  0
LINE
  5
2CDD8
  8
0
 10
5929.8021785539640405
 20
281.9896507415198244
 30
0.0
 11
5929.8021785539640405
 21
283.7609893241198051
 31
0.0
  0
ARC
  5
2CDD9
  8
0
 10
5929.8121785539633493
 20
281.9896507415198244
 30
0.0
 40
0.0100000000000025
 50
180.0000000000194973
 51
269.9999999989057073
  0
ARC
  5
2CDDA
  8
0
 10
5929.8249693425168516
 20
281.9896932452587066
 30
0.0
 40
0.0110979543387495
 50
295.1906081562270856
 51
359.7805639909789761
  0
ARC
  5
2CDDB
  8
0
 10
5929.8121785539633493
 20
283.7609893241198051
 30
0.0
 40
0.0100000000000025
 50
90.0000000010943069
 51
179.999999999980389
  0
ARC
  5
2CDDC
  8
0
 10
5929.8249693425168516
 20
283.7609468203809229
 30
0.0
 40
0.0110979543387495
 50
0.2194360090210042
 51
64.8093918437729144
  0
LINE
  5
2CDDD
  8
0
 10
5929.8884713436627862
 20
281.989650741519597
 30
0.0
 11
5929.8884713436627862
 21
283.760989324120203
 31
0.0
  0
LINE
  5
2CDDE
  8
0
 10
5929.8545826821637093
 20
281.9896507415198244
 30
0.0
 11
5929.8545826821637093
 21
283.7609893241198051
 31
0.0
  0
ARC
  5
2CDDF
  8
0
 10
5929.8645826821639275
 20
281.9896507415198244
 30
0.0
 40
0.0100000000000025
 50
180.0000000000194973
 51
269.9999999989057073
  0
ARC
  5
2CDE0
  8
0
 10
5929.8773734707174299
 20
281.9896932452587066
 30
0.0
 40
0.0110979543387495
 50
295.1906081562270856
 51
359.7805639909789761
  0
ARC
  5
2CDE1
  8
0
 10
5929.8645826821639275
 20
283.7609893241198051
 30
0.0
 40
0.0100000000000025
 50
90.0000000010943069
 51
179.999999999980389
  0
ARC
  5
2CDE2
  8
0
 10
5929.8773734707174299
 20
283.7609468203809229
 30
0.0
 40
0.0110979543387495
 50
0.2194360090210042
 51
64.8093918437729144
  0
LINE
  5
2CDE3
  8
0
 10
5929.9453850517629689
 20
281.989650741519597
 30
0.0
 11
5929.9453850517629689
 21
283.760989324120203
 31
0.0
  0
LINE
  5
2CDE4
  8
0
 10
5929.911496390263892
 20
281.9896507415198244
 30
0.0
 11
5929.911496390263892
 21
283.7609893241198051
 31
0.0
  0
ARC
  5
2CDE5
  8
0
 10
5929.9214963902641102
 20
281.9896507415198244
 30
0.0
 40
0.0100000000000025
 50
180.0000000000194973
 51
269.9999999989057073
  0
ARC
  5
2CDE6
  8
0
 10
5929.9342871788157936
 20
281.9896932452587066
 30
0.0
 40
0.0110979543387495
 50
295.1906081562270856
 51
359.7805639909789761
  0
ARC
  5
2CDE7
  8
0
 10
5929.9214963902641102
 20
283.7609893241198051
 30
0.0
 40
0.0100000000000025
 50
90.0000000010943069
 51
179.999999999980389
  0
ARC
  5
2CDE8
  8
0
 10
5929.9342871788157936
 20
283.7609468203809229
 30
0.0
 40
0.0110979543387495
 50
0.2194360090210042
 51
64.8093918437729144
  0
LINE
  5
2CDE9
  8
0
 10
5930.0050077843479812
 20
281.9896507415223823
 30
0.0
 11
5930.0050077843479812
 21
283.7609893241229884
 31
0.0
  0
LINE
  5
2CDEA
  8
0
 10
5929.9711191228479947
 20
281.9896507415227234
 30
0.0
 11
5929.9711191228479947
 21
283.7609893241225905
 31
0.0
  0
ARC
  5
2CDEB
  8
0
 10
5929.9811191228491225
 20
281.9896507415227234
 30
0.0
 40
0.0100000000000025
 50
180.0000000000194973
 51
269.9999999989057073
  0
ARC
  5
2CDEC
  8
0
 10
5929.9939099114017154
 20
281.9896932452616056
 30
0.0
 40
0.0110979543387495
 50
295.1906081562270856
 51
359.7805639909789761
  0
ARC
  5
2CDED
  8
0
 10
5929.9811191228491225
 20
283.7609893241225905
 30
0.0
 40
0.0100000000000025
 50
90.0000000010943069
 51
179.999999999980389
  0
ARC
  5
2CDEE
  8
0
 10
5929.9939099114017154
 20
283.7609468203837082
 30
0.0
 40
0.0110979543387495
 50
0.2194360090210042
 51
64.8093918437729144
  0
LINE
  5
2CDEF
  8
0
 10
5930.0690940702643275
 20
281.989650741519597
 30
0.0
 11
5930.0690940702643275
 21
283.760989324120203
 31
0.0
  0
LINE
  5
2CDF0
  8
0
 10
5930.0352054087634315
 20
281.9896507415198244
 30
0.0
 11
5930.0352054087634315
 21
283.7609893241198051
 31
0.0
  0
ARC
  5
2CDF1
  8
0
 10
5930.0452054087627403
 20
281.9896507415198244
 30
0.0
 40
0.0100000000000025
 50
180.0000000000194973
 51
269.9999999989057073
  0
ARC
  5
2CDF2
  8
0
 10
5930.0579961973171521
 20
281.9896932452587066
 30
0.0
 40
0.0110979543387495
 50
295.1906081562270856
 51
359.7805639909789761
  0
ARC
  5
2CDF3
  8
0
 10
5930.0452054087627403
 20
283.7609893241198051
 30
0.0
 40
0.0100000000000025
 50
90.0000000010943069
 51
179.999999999980389
  0
ARC
  5
2CDF4
  8
0
 10
5930.0579961973171521
 20
283.7609468203809229
 30
0.0
 40
0.0110979543387495
 50
0.2194360090210042
 51
64.8093918437729144
  0
LINE
  5
2CDF5
  8
0
 10
5930.1339384054635957
 20
281.989650741519597
 30
0.0
 11
5930.1339384054635957
 21
283.760989324120203
 31
0.0
  0
LINE
  5
2CDF6
  8
0
 10
5930.1000497439626997
 20
281.9896507415198244
 30
0.0
 11
5930.1000497439626997
 21
283.7609893241198051
 31
0.0
  0
ARC
  5
2CDF7
  8
0
 10
5930.1100497439638275
 20
281.9896507415198244
 30
0.0
 40
0.0100000000000025
 50
180.0000000000194973
 51
269.9999999989057073
  0
ARC
  5
2CDF8
  8
0
 10
5930.1228405325182393
 20
281.9896932452587066
 30
0.0
 40
0.0110979543387495
 50
295.1906081562270856
 51
359.7805639909789761
  0
ARC
  5
2CDF9
  8
0
 10
5930.1100497439638275
 20
283.7609893241198051
 30
0.0
 40
0.0100000000000025
 50
90.0000000010943069
 51
179.999999999980389
  0
ARC
  5
2CDFA
  8
0
 10
5930.1228405325182393
 20
283.7609468203809229
 30
0.0
 40
0.0110979543387495
 50
0.2194360090210042
 51
64.8093918437729144
  0
LINE
  5
2CDFB
  8
0
 10
5930.1994211782639468
 20
281.989650741519597
 30
0.0
 11
5930.1994211782639468
 21
283.760989324120203
 31
0.0
  0
LINE
  5
2CDFC
  8
0
 10
5930.1655325167639603
 20
281.9896507415198244
 30
0.0
 11
5930.1655325167639603
 21
283.7609893241198051
 31
0.0
  0
ARC
  5
2CDFD
  8
0
 10
5930.1755325167632691
 20
281.9896507415198244
 30
0.0
 40
0.0100000000000025
 50
180.0000000000194973
 51
269.9999999989057073
  0
ARC
  5
2CDFE
  8
0
 10
5930.1883233053158619
 20
281.9896932452587066
 30
0.0
 40
0.0110979543387495
 50
295.1906081562270856
 51
359.7805639909789761
  0
ARC
  5
2CDFF
  8
0
 10
5930.1755325167632691
 20
283.7609893241198051
 30
0.0
 40
0.0100000000000025
 50
90.0000000010943069
 51
179.999999999980389
  0
ARC
  5
2CE00
  8
0
 10
5930.1883233053158619
 20
283.7609468203809229
 30
0.0
 40
0.0110979543387495
 50
0.2194360090210042
 51
64.8093918437729144
  0
LINE
  5
2CE01
  8
0
 10
5930.2632231645366119
 20
281.9896507412237838
 30
0.0
 11
5930.2632231645366119
 21
283.7609893238243899
 31
0.0
  0
LINE
  5
2CE02
  8
0
 10
5930.2293345030384444
 20
281.9896507412241817
 30
0.0
 11
5930.2293345030384444
 21
283.7609893238242194
 31
0.0
  0
ARC
  5
2CE03
  8
0
 10
5930.2393345030377532
 20
281.9896507412241817
 30
0.0
 40
0.0100000000000025
 50
180.0000000000194973
 51
269.9999999989057073
  0
ARC
  5
2CE04
  8
0
 10
5930.2521252915912555
 20
281.9896932449631208
 30
0.0
 40
0.0110979543387495
 50
295.1906081562270856
 51
359.7805639909789761
  0
ARC
  5
2CE05
  8
0
 10
5930.2393345030377532
 20
283.7609893238242194
 30
0.0
 40
0.0100000000000025
 50
90.0000000010943069
 51
179.999999999980389
  0
ARC
  5
2CE06
  8
0
 10
5930.2521252915912555
 20
283.7609468200852234
 30
0.0
 40
0.0110979543387495
 50
0.2194360090210042
 51
64.8093918437729144
  0
LINE
  5
2CE07
  8
0
 10
5930.3257817681633242
 20
281.989650741519597
 30
0.0
 11
5930.3257817681633242
 21
283.760989324120203
 31
0.0
  0
LINE
  5
2CE08
  8
0
 10
5930.2918931066633377
 20
281.9896507415198812
 30
0.0
 11
5930.2918931066633377
 21
283.7609893241199188
 31
0.0
  0
ARC
  5
2CE09
  8
0
 10
5930.301893106663556
 20
281.9896507415198812
 30
0.0
 40
0.0100000000000025
 50
180.0000000000194973
 51
269.9999999989057073
  0
ARC
  5
2CE0A
  8
0
 10
5930.3146838952170583
 20
281.9896932452588203
 30
0.0
 40
0.0110979543387495
 50
295.1906081562270856
 51
359.7805639909789761
  0
ARC
  5
2CE0B
  8
0
 10
5930.301893106663556
 20
283.7609893241199188
 30
0.0
 40
0.0100000000000025
 50
90.0000000010943069
 51
179.999999999980389
  0
ARC
  5
2CE0C
  8
0
 10
5930.3146838952170583
 20
283.7609468203809229
 30
0.0
 40
0.0110979543387495
 50
0.2194360090210042
 51
64.8093918437729144
  0
LINE
  5
2CE0D
  8
0
 10
5930.3901226095640595
 20
281.989650741519597
 30
0.0
 11
5930.3901226095640595
 21
283.760989324120203
 31
0.0
  0
LINE
  5
2CE0E
  8
0
 10
5930.356233948064073
 20
281.9896507415198244
 30
0.0
 11
5930.356233948064073
 21
283.7609893241198051
 31
0.0
  0
ARC
  5
2CE0F
  8
0
 10
5930.3662339480633818
 20
281.9896507415198244
 30
0.0
 40
0.0100000000000025
 50
180.0000000000194973
 51
269.9999999989057073
  0
ARC
  5
2CE10
  8
0
 10
5930.3790247366168842
 20
281.9896932452587066
 30
0.0
 40
0.0110979543387495
 50
295.1906081562270856
 51
359.7805639909789761
  0
ARC
  5
2CE11
  8
0
 10
5930.3662339480633818
 20
283.7609893241198051
 30
0.0
 40
0.0100000000000025
 50
90.0000000010943069
 51
179.999999999980389
  0
ARC
  5
2CE12
  8
0
 10
5930.3790247366168842
 20
283.7609468203809229
 30
0.0
 40
0.0110979543387495
 50
0.2194360090210042
 51
64.8093918437729144
  0
LINE
  5
2CE13
  8
0
 10
5930.4485095718628145
 20
281.9896507415197107
 30
0.0
 11
5930.4485095718628145
 21
283.7609893241203167
 31
0.0
  0
LINE
  5
2CE14
  8
0
 10
5930.414620910362828
 20
281.9896507415199949
 30
0.0
 11
5930.414620910362828
 21
283.7609893241199757
 31
0.0
  0
ARC
  5
2CE15
  8
0
 10
5930.4246209103639558
 20
281.9896507415199949
 30
0.0
 40
0.0100000000000025
 50
180.0000000000194973
 51
269.9999999989057073
  0
ARC
  5
2CE16
  8
0
 10
5930.4374116989183676
 20
281.9896932452588771
 30
0.0
 40
0.0110979543387495
 50
295.1906081562270856
 51
359.7805639909789761
  0
ARC
  5
2CE17
  8
0
 10
5930.4246209103639558
 20
283.7609893241199757
 30
0.0
 40
0.0100000000000025
 50
90.0000000010943069
 51
179.999999999980389
  0
ARC
  5
2CE18
  8
0
 10
5930.4374116989183676
 20
283.7609468203809797
 30
0.0
 40
0.0110979543387495
 50
0.2194360090210042
 51
64.8093918437729144
  0
LINE
  5
2CE19
  8
0
 10
5930.4963269118643439
 20
281.989650741519597
 30
0.0
 11
5930.4963269118643439
 21
283.760989324120203
 31
0.0
  0
LINE
  5
2CE1A
  8
0
 10
5930.4624382503634479
 20
281.9896507415198812
 30
0.0
 11
5930.4624382503634479
 21
283.7609893241199188
 31
0.0
  0
ARC
  5
2CE1B
  8
0
 10
5930.4724382503627567
 20
281.9896507415198812
 30
0.0
 40
0.0100000000000025
 50
180.0000000000194973
 51
269.9999999989057073
  0
ARC
  5
2CE1C
  8
0
 10
5930.4852290389171685
 20
281.9896932452588203
 30
0.0
 40
0.0110979543387495
 50
295.1906081562270856
 51
359.7805639909789761
  0
ARC
  5
2CE1D
  8
0
 10
5930.4724382503627567
 20
283.7609893241199188
 30
0.0
 40
0.0100000000000025
 50
90.0000000010943069
 51
179.999999999980389
  0
ARC
  5
2CE1E
  8
0
 10
5930.4852290389171685
 20
283.7609468203809229
 30
0.0
 40
0.0110979543387495
 50
0.2194360090210042
 51
64.8093918437729144
  0
LINE
  5
2CE1F
  8
0
 10
5930.5444747316641951
 20
281.989650741519597
 30
0.0
 11
5930.5444747316641951
 21
283.760989324120203
 31
0.0
  0
LINE
  5
2CE20
  8
0
 10
5930.5105860701632992
 20
281.9896507415198244
 30
0.0
 11
5930.5105860701632992
 21
283.7609893241198051
 31
0.0
  0
ARC
  5
2CE21
  8
0
 10
5930.5205860701626079
 20
281.9896507415198244
 30
0.0
 40
0.0100000000000025
 50
180.0000000000194973
 51
269.9999999989057073
  0
ARC
  5
2CE22
  8
0
 10
5930.5333768587170198
 20
281.9896932452587066
 30
0.0
 40
0.0110979543387495
 50
295.1906081562270856
 51
359.7805639909789761
  0
ARC
  5
2CE23
  8
0
 10
5930.5205860701626079
 20
283.7609893241198051
 30
0.0
 40
0.0100000000000025
 50
90.0000000010943069
 51
179.999999999980389
  0
ARC
  5
2CE24
  8
0
 10
5930.5333768587170198
 20
283.7609468203809229
 30
0.0
 40
0.0110979543387495
 50
0.2194360090210042
 51
64.8093918437729144
  0
LINE
  5
2CE25
  8
0
 10
5930.5869442918638015
 20
281.989650741519597
 30
0.0
 11
5930.5869442918638015
 21
283.760989324120203
 31
0.0
  0
LINE
  5
2CE26
  8
0
 10
5930.553055630363815
 20
281.9896507415198244
 30
0.0
 11
5930.553055630363815
 21
283.7609893241198051
 31
0.0
  0
ARC
  5
2CE27
  8
0
 10
5930.5630556303640333
 20
281.9896507415198244
 30
0.0
 40
0.0100000000000025
 50
180.0000000000194973
 51
269.9999999989057073
  0
ARC
  5
2CE28
  8
0
 10
5930.5758464189184451
 20
281.9896932452587066
 30
0.0
 40
0.0110979543387495
 50
295.1906081562270856
 51
359.7805639909789761
  0
ARC
  5
2CE29
  8
0
 10
5930.5630556303640333
 20
283.7609893241198051
 30
0.0
 40
0.0100000000000025
 50
90.0000000010943069
 51
179.999999999980389
  0
ARC
  5
2CE2A
  8
0
 10
5930.5758464189184451
 20
283.7609468203809229
 30
0.0
 40
0.0110979543387495
 50
0.2194360090210042
 51
64.8093918437729144
  0
LINE
  5
2CE2B
  8
0
 10
5930.6230658221638805
 20
281.989650741519597
 30
0.0
 11
5930.6230658221638805
 21
283.760989324120203
 31
0.0
  0
LINE
  5
2CE2C
  8
0
 10
5930.589177160663894
 20
281.9896507415198244
 30
0.0
 11
5930.589177160663894
 21
283.7609893241198051
 31
0.0
  0
ARC
  5
2CE2D
  8
0
 10
5930.5991771606641123
 20
281.9896507415198244
 30
0.0
 40
0.0100000000000025
 50
180.0000000000194973
 51
269.9999999989057073
  0
ARC
  5
2CE2E
  8
0
 10
5930.6119679492167052
 20
281.9896932452587066
 30
0.0
 40
0.0110979543387495
 50
295.1906081562270856
 51
359.7805639909789761
  0
ARC
  5
2CE2F
  8
0
 10
5930.5991771606641123
 20
283.7609893241198051
 30
0.0
 40
0.0100000000000025
 50
90.0000000010943069
 51
179.999999999980389
  0
ARC
  5
2CE30
  8
0
 10
5930.6119679492167052
 20
283.7609468203809229
 30
0.0
 40
0.0110979543387495
 50
0.2194360090210042
 51
64.8093918437729144
  0
LINE
  5
2CE31
  8
0
 10
5929.7137444331638108
 20
281.989650741519597
 30
0.0
 11
5929.7137444331638108
 21
283.760989324120203
 31
0.0
  0
LINE
  5
2CE32
  8
0
 10
5929.6798557716638243
 20
281.9896507415198244
 30
0.0
 11
5929.6798557716638243
 21
283.7609893241198051
 31
0.0
  0
ARC
  5
2CE33
  8
0
 10
5929.6898557716640425
 20
281.9896507415198244
 30
0.0
 40
0.0100000000000025
 50
180.0000000000194973
 51
269.9999999989057073
  0
ARC
  5
2CE34
  8
0
 10
5929.7026465602184544
 20
281.9896932452587066
 30
0.0
 40
0.0110979543387495
 50
295.1906081562270856
 51
359.7805639909789761
  0
ARC
  5
2CE35
  8
0
 10
5929.6898557716640425
 20
283.7609893241198051
 30
0.0
 40
0.0100000000000025
 50
90.0000000010943069
 51
179.999999999980389
  0
ARC
  5
2CE36
  8
0
 10
5929.7026465602184544
 20
283.7609468203809229
 30
0.0
 40
0.0110979543387495
 50
0.2194360090210042
 51
64.8093918437729144
  0
LINE
  5
2CE37
  8
0
 10
5929.652855949264449
 20
281.9896507415198244
 30
0.0
 11
5929.652855949264449
 21
283.7609893241198051
 31
0.0
  0
ARC
  5
2CE38
  8
0
 10
5929.6628559492628483
 20
281.9896507415198244
 30
0.0
 40
0.0100000000000025
 50
180.0000000000194973
 51
269.9999999989057073
  0
ARC
  5
2CE39
  8
0
 10
5929.6628559492628483
 20
283.7609893241198051
 30
0.0
 40
0.0100000000000025
 50
90.0000000010943069
 51
179.999999999980389
  0
LINE
  5
2CE3A
  8
0
 10
5929.6335470775638896
 20
281.9896507415198244
 30
0.0
 11
5929.6335470775638896
 21
283.7609893241198051
 31
0.0
  0
ARC
  5
2CE3B
  8
0
 10
5929.6435470775641079
 20
281.9896507415198244
 30
0.0
 40
0.0100000000000025
 50
180.0000000000194973
 51
269.9999999989057073
  0
ARC
  5
2CE3C
  8
0
 10
5929.6435470775641079
 20
283.7609893241198051
 30
0.0
 40
0.0100000000000025
 50
90.0000000010943069
 51
179.999999999980389
  0
LINE
  5
2CE3D
  8
0
 10
5929.6222949776638416
 20
281.9896507415198244
 30
0.0
 11
5929.6222949776638416
 21
283.7609893241198051
 31
0.0
  0
ARC
  5
2CE3E
  8
0
 10
5929.6322949776649693
 20
281.9896507415198244
 30
0.0
 40
0.0100000000000025
 50
180.0000000000194973
 51
269.9999999989057073
  0
ARC
  5
2CE3F
  8
0
 10
5929.6322949776649693
 20
283.7609893241198051
 30
0.0
 40
0.0100000000000025
 50
90.0000000010943069
 51
179.999999999980389
  0
LINE
  5
2CE40
  8
0
 10
5930.6482090842637263
 20
281.989650741519597
 30
0.0
 11
5930.6482090842637263
 21
283.760989324120203
 31
0.0
  0
ARC
  5
2CE41
  8
0
 10
5930.6371112113183699
 20
281.9896932452587066
 30
0.0
 40
0.0110979543387495
 50
295.1906081562270856
 51
359.7805639909789761
  0
ARC
  5
2CE42
  8
0
 10
5930.6371112113183699
 20
283.7609468203809229
 30
0.0
 40
0.0110979543387495
 50
0.2194360090210042
 51
64.8093918437729144
  0
LINE
  5
2CE43
  8
0
 10
5930.6675179559642856
 20
281.989650741519597
 30
0.0
 11
5930.6675179559642856
 21
283.760989324120203
 31
0.0
  0
ARC
  5
2CE44
  8
0
 10
5930.6564200830180198
 20
281.9896932452587066
 30
0.0
 40
0.0110979543387495
 50
295.1906081562270856
 51
359.7805639909789761
  0
ARC
  5
2CE45
  8
0
 10
5930.6564200830180198
 20
283.7609468203809229
 30
0.0
 40
0.0110979543387495
 50
0.2194360090210042
 51
64.8093918437729144
  0
LINE
  5
2CE46
  8
0
 10
5930.6788313643637593
 20
281.989650741519597
 30
0.0
 11
5930.6788313643637593
 21
283.760989324120203
 31
0.0
  0
ARC
  5
2CE47
  8
0
 10
5930.667733491418403
 20
281.9896932452587066
 30
0.0
 40
0.0110979543387495
 50
295.1906081562270856
 51
359.7805639909789761
  0
ARC
  5
2CE48
  8
0
 10
5930.667733491418403
 20
283.7609468203809229
 30
0.0
 40
0.0110979543387495
 50
0.2194360090210042
 51
64.8093918437729144
  0
LINE
  5
2CE49
  8
0
 10
5930.5245482646641904
 20
281.8615405052198071
 30
0.0
 11
5930.5245482646641904
 21
281.9205956233197981
 31
0.0
  0
LINE
  5
2CE4A
  8
0
 10
5911.6505325167627234
 20
281.8615405052198071
 30
0.0
 11
5911.6505325167627234
 21
281.156540505219823
 31
0.0
  0
LINE
  5
2CE4B
  8
0
 10
5911.1505325167636329
 20
281.8221405052198065
 30
0.0
 11
5911.1505325167636329
 21
281.1959405052198235
 31
0.0
  0
ARC
  5
2CE4C
  8
0
 10
5911.1899325167632924
 20
281.8221405052198065
 30
0.0
 40
0.0394
 50
90.0
 51
180.0000000000032117
  0
ARC
  5
2CE4D
  8
0
 10
5911.1899325167632924
 20
281.1959405052198235
 30
0.0
 40
0.0394
 50
179.9999999999934914
 51
270.0
  0
LINE
  5
2CE4E
  8
0
 10
5913.2332096821637606
 20
284.3024853871198161
 30
0.0
 11
5911.0678553514635496
 21
284.3024853871198161
 31
0.0
  0
LINE
  5
2CE4F
  8
0
 10
5913.2332096821637606
 20
283.9875247572197736
 30
0.0
 11
5911.0678553514635496
 21
283.9875247572197736
 31
0.0
  0
LINE
  5
2CE50
  8
0
 10
5913.052107319964307
 20
283.8890995604198224
 30
0.0
 11
5911.2489577136639127
 21
283.8890995604198224
 31
0.0
  0
LINE
  5
2CE51
  8
0
 10
5913.11116243806282
 20
283.940280662719772
 30
0.0
 11
5911.1899025955626712
 21
283.940280662719772
 31
0.0
  0
LINE
  5
2CE52
  8
0
 10
5913.2332096821637606
 20
284.3024853871198161
 30
0.0
 11
5913.2332096821637606
 21
283.9875247572197736
 31
0.0
  0
LINE
  5
2CE53
  8
0
 10
5912.6426585010640338
 20
281.9205956233197981
 30
0.0
 11
5911.6584065325632764
 21
281.9205956233197981
 31
0.0
  0
LINE
  5
2CE54
  8
0
 10
5912.6719697841626839
 20
281.9796507415197766
 30
0.0
 11
5911.6290952494628073
 21
281.9796507415197766
 31
0.0
  0
ARC
  5
2CE55
  8
0
 10
5911.6290952494628073
 20
281.9896507415198244
 30
0.0
 40
0.01
 50
180.0
 51
270.0
  0
LINE
  5
2CE56
  8
0
 10
5912.6819697841638117
 20
283.7609893241198051
 30
0.0
 11
5912.6819697841638117
 21
281.9896507415198244
 31
0.0
  0
LINE
  5
2CE57
  8
0
 10
5912.6719697841626839
 20
283.770989324119796
 30
0.0
 11
5911.6290952494628073
 21
283.770989324119796
 31
0.0
  0
LINE
  5
2CE58
  8
0
 10
5913.052107319964307
 20
283.8890995604198224
 30
0.0
 11
5913.052107319964307
 21
283.940280662719772
 31
0.0
  0
LINE
  5
2CE59
  8
0
 10
5913.11116243806282
 20
283.940280662719772
 30
0.0
 11
5913.11116243806282
 21
283.9875247572197736
 31
0.0
  0
ARC
  5
2CE5A
  8
0
 10
5912.6719697841626839
 20
283.7609893241198051
 30
0.0
 40
0.01
 50
359.9999999999575948
 51
90.0
  0
LINE
  5
2CE5B
  8
0
 10
5912.6426585010640338
 20
283.770989324119796
 30
0.0
 11
5912.6426585010640338
 21
283.8890995604198224
 31
0.0
  0
ARC
  5
2CE5C
  8
0
 10
5912.6719697841626839
 20
281.9896507415198244
 30
0.0
 40
0.01
 50
270.0
 51
359.9999999999805027
  0
LINE
  5
2CE5D
  8
0
 10
5912.5245482647633253
 20
281.8615405052198071
 30
0.0
 11
5912.5245482647633253
 21
281.9205956233197981
 31
0.0
  0
LINE
  5
2CE5E
  8
0
 10
5912.6426585010640338
 20
281.9796507415197766
 30
0.0
 11
5912.6426585010640338
 21
281.9205956233197981
 31
0.0
  0
LINE
  5
2CE5F
  8
0
 10
5911.0678553514635496
 20
284.3024853871198161
 30
0.0
 11
5911.0678553514635496
 21
283.9875247572197736
 31
0.0
  0
LINE
  5
2CE60
  8
0
 10
5911.619095249462589
 20
283.7609893241198051
 30
0.0
 11
5911.619095249462589
 21
281.9896507415198244
 31
0.0
  0
LINE
  5
2CE61
  8
0
 10
5911.2489577136639127
 20
283.8890995604198224
 30
0.0
 11
5911.2489577136639127
 21
283.940280662719772
 31
0.0
  0
LINE
  5
2CE62
  8
0
 10
5911.1899025955626712
 20
283.940280662719772
 30
0.0
 11
5911.1899025955626712
 21
283.9875247572197736
 31
0.0
  0
ARC
  5
2CE63
  8
0
 10
5911.6290952494628073
 20
283.7609893241198051
 30
0.0
 40
0.01
 50
90.0
 51
180.0000000000391083
  0
LINE
  5
2CE64
  8
0
 10
5911.6584065325632764
 20
283.770989324119796
 30
0.0
 11
5911.6584065325632764
 21
283.8890995604198224
 31
0.0
  0
LINE
  5
2CE65
  8
0
 10
5911.6584065325632764
 20
281.9796507415197766
 30
0.0
 11
5911.6584065325632764
 21
281.9205956233197981
 31
0.0
  0
LINE
  5
2CE66
  8
0
 10
5912.5530556304638594
 20
281.989650741519597
 30
0.0
 11
5912.5530556304638594
 21
283.760989324120203
 31
0.0
  0
LINE
  5
2CE67
  8
0
 10
5912.5869442919629364
 20
281.9896507415198244
 30
0.0
 11
5912.5869442919629364
 21
283.7609893241198051
 31
0.0
  0
ARC
  5
2CE68
  8
0
 10
5912.5769442919636276
 20
281.9896507415198244
 30
0.0
 40
0.0100000000000025
 50
270.0000000010942927
 51
359.9999999999805027
  0
ARC
  5
2CE69
  8
0
 10
5912.5641535034101253
 20
281.9896932452587066
 30
0.0
 40
0.0110979543387495
 50
180.2194360090209955
 51
244.809391843772886
  0
ARC
  5
2CE6A
  8
0
 10
5912.5769442919636276
 20
283.7609893241198051
 30
0.0
 40
0.0100000000000025
 50
0.0000000000195413
 51
89.9999999989056647
  0
ARC
  5
2CE6B
  8
0
 10
5912.5641535034101253
 20
283.7609468203809229
 30
0.0
 40
0.0110979543387495
 50
115.1906081562270998
 51
179.7805639909790045
  0
LINE
  5
2CE6C
  8
0
 10
5912.5120658920632195
 20
281.989650741519597
 30
0.0
 11
5912.5120658920632195
 21
283.760989324120203
 31
0.0
  0
LINE
  5
2CE6D
  8
0
 10
5912.545954553563206
 20
281.9896507415198244
 30
0.0
 11
5912.545954553563206
 21
283.7609893241198051
 31
0.0
  0
ARC
  5
2CE6E
  8
0
 10
5912.5359545535638972
 20
281.9896507415198244
 30
0.0
 40
0.0100000000000025
 50
270.0000000010942927
 51
359.9999999999805027
  0
ARC
  5
2CE6F
  8
0
 10
5912.5231637650103949
 20
281.9896932452587066
 30
0.0
 40
0.0110979543387495
 50
180.2194360090209955
 51
244.809391843772886
  0
ARC
  5
2CE70
  8
0
 10
5912.5359545535638972
 20
283.7609893241198051
 30
0.0
 40
0.0100000000000025
 50
0.0000000000195413
 51
89.9999999989056647
  0
ARC
  5
2CE71
  8
0
 10
5912.5231637650103949
 20
283.7609468203809229
 30
0.0
 40
0.0110979543387495
 50
115.1906081562270998
 51
179.7805639909790045
  0
LINE
  5
2CE72
  8
0
 10
5912.4649978180632388
 20
281.989650741519597
 30
0.0
 11
5912.4649978180632388
 21
283.760989324120203
 31
0.0
  0
LINE
  5
2CE73
  8
0
 10
5912.4988864795632253
 20
281.9896507415198244
 30
0.0
 11
5912.4988864795632253
 21
283.7609893241198051
 31
0.0
  0
ARC
  5
2CE74
  8
0
 10
5912.488886479564826
 20
281.9896507415198244
 30
0.0
 40
0.0100000000000025
 50
270.0000000010942927
 51
359.9999999999805027
  0
ARC
  5
2CE75
  8
0
 10
5912.4760956910113237
 20
281.9896932452587066
 30
0.0
 40
0.0110979543387495
 50
180.2194360090209955
 51
244.809391843772886
  0
ARC
  5
2CE76
  8
0
 10
5912.488886479564826
 20
283.7609893241198051
 30
0.0
 40
0.0100000000000025
 50
0.0000000000195413
 51
89.9999999989056647
  0
ARC
  5
2CE77
  8
0
 10
5912.4760956910113237
 20
283.7609468203809229
 30
0.0
 40
0.0110979543387495
 50
115.1906081562270998
 51
179.7805639909790045
  0
LINE
  5
2CE78
  8
0
 10
5912.41259368986357
 20
281.989650741519597
 30
0.0
 11
5912.41259368986357
 21
283.760989324120203
 31
0.0
  0
LINE
  5
2CE79
  8
0
 10
5912.446482351362647
 20
281.9896507415198244
 30
0.0
 11
5912.446482351362647
 21
283.7609893241198051
 31
0.0
  0
ARC
  5
2CE7A
  8
0
 10
5912.4364823513633382
 20
281.9896507415198244
 30
0.0
 40
0.0100000000000025
 50
270.0000000010942927
 51
359.9999999999805027
  0
ARC
  5
2CE7B
  8
0
 10
5912.4236915628107454
 20
281.9896932452587066
 30
0.0
 40
0.0110979543387495
 50
180.2194360090209955
 51
244.809391843772886
  0
ARC
  5
2CE7C
  8
0
 10
5912.4364823513633382
 20
283.7609893241198051
 30
0.0
 40
0.0100000000000025
 50
0.0000000000195413
 51
89.9999999989056647
  0
ARC
  5
2CE7D
  8
0
 10
5912.4236915628107454
 20
283.7609468203809229
 30
0.0
 40
0.0110979543387495
 50
115.1906081562270998
 51
179.7805639909790045
  0
LINE
  5
2CE7E
  8
0
 10
5912.3556799817642968
 20
281.989650741519597
 30
0.0
 11
5912.3556799817642968
 21
283.760989324120203
 31
0.0
  0
LINE
  5
2CE7F
  8
0
 10
5912.3895686432633738
 20
281.9896507415198244
 30
0.0
 11
5912.3895686432633738
 21
283.7609893241198051
 31
0.0
  0
ARC
  5
2CE80
  8
0
 10
5912.379568643264065
 20
281.9896507415198244
 30
0.0
 40
0.0100000000000025
 50
270.0000000010942927
 51
359.9999999999805027
  0
ARC
  5
2CE81
  8
0
 10
5912.3667778547096532
 20
281.9896932452587066
 30
0.0
 40
0.0110979543387495
 50
180.2194360090209955
 51
244.809391843772886
  0
ARC
  5
2CE82
  8
0
 10
5912.379568643264065
 20
283.7609893241198051
 30
0.0
 40
0.0100000000000025
 50
0.0000000000195413
 51
89.9999999989056647
  0
ARC
  5
2CE83
  8
0
 10
5912.3667778547096532
 20
283.7609468203809229
 30
0.0
 40
0.0110979543387495
 50
115.1906081562270998
 51
179.7805639909790045
  0
LINE
  5
2CE84
  8
0
 10
5912.2960572491792846
 20
281.9896507415223823
 30
0.0
 11
5912.2960572491792846
 21
283.7609893241229884
 31
0.0
  0
LINE
  5
2CE85
  8
0
 10
5912.3299459106801805
 20
281.9896507415227234
 30
0.0
 11
5912.3299459106801805
 21
283.7609893241225905
 31
0.0
  0
ARC
  5
2CE86
  8
0
 10
5912.3199459106790528
 20
281.9896507415227234
 30
0.0
 40
0.0100000000000025
 50
270.0000000010942927
 51
359.9999999999805027
  0
ARC
  5
2CE87
  8
0
 10
5912.3071551221255504
 20
281.9896932452616056
 30
0.0
 40
0.0110979543387495
 50
180.2194360090209955
 51
244.809391843772886
  0
ARC
  5
2CE88
  8
0
 10
5912.3199459106790528
 20
283.7609893241225905
 30
0.0
 40
0.0100000000000025
 50
0.0000000000195413
 51
89.9999999989056647
  0
ARC
  5
2CE89
  8
0
 10
5912.3071551221255504
 20
283.7609468203837082
 30
0.0
 40
0.0110979543387495
 50
115.1906081562270998
 51
179.7805639909790045
  0
LINE
  5
2CE8A
  8
0
 10
5912.2319709632638478
 20
281.989650741519597
 30
0.0
 11
5912.2319709632638478
 21
283.760989324120203
 31
0.0
  0
LINE
  5
2CE8B
  8
0
 10
5912.2658596247629248
 20
281.9896507415198244
 30
0.0
 11
5912.2658596247629248
 21
283.7609893241198051
 31
0.0
  0
ARC
  5
2CE8C
  8
0
 10
5912.255859624763616
 20
281.9896507415198244
 30
0.0
 40
0.0100000000000025
 50
270.0000000010942927
 51
359.9999999999805027
  0
ARC
  5
2CE8D
  8
0
 10
5912.2430688362101137
 20
281.9896932452587066
 30
0.0
 40
0.0110979543387495
 50
180.2194360090209955
 51
244.809391843772886
  0
ARC
  5
2CE8E
  8
0
 10
5912.255859624763616
 20
283.7609893241198051
 30
0.0
 40
0.0100000000000025
 50
0.0000000000195413
 51
89.9999999989056647
  0
ARC
  5
2CE8F
  8
0
 10
5912.2430688362101137
 20
283.7609468203809229
 30
0.0
 40
0.0110979543387495
 50
115.1906081562270998
 51
179.7805639909790045
  0
LINE
  5
2CE90
  8
0
 10
5912.1671266280627606
 20
281.989650741519597
 30
0.0
 11
5912.1671266280627606
 21
283.760989324120203
 31
0.0
  0
LINE
  5
2CE91
  8
0
 10
5912.2010152895636566
 20
281.9896507415198244
 30
0.0
 11
5912.2010152895636566
 21
283.7609893241198051
 31
0.0
  0
ARC
  5
2CE92
  8
0
 10
5912.1910152895643478
 20
281.9896507415198244
 30
0.0
 40
0.0100000000000025
 50
270.0000000010942927
 51
359.9999999999805027
  0
ARC
  5
2CE93
  8
0
 10
5912.1782245010099359
 20
281.9896932452587066
 30
0.0
 40
0.0110979543387495
 50
180.2194360090209955
 51
244.809391843772886
  0
ARC
  5
2CE94
  8
0
 10
5912.1910152895643478
 20
283.7609893241198051
 30
0.0
 40
0.0100000000000025
 50
0.0000000000195413
 51
89.9999999989056647
  0
ARC
  5
2CE95
  8
0
 10
5912.1782245010099359
 20
283.7609468203809229
 30
0.0
 40
0.0110979543387495
 50
115.1906081562270998
 51
179.7805639909790045
  0
LINE
  5
2CE96
  8
0
 10
5912.1016438552642285
 20
281.989650741519597
 30
0.0
 11
5912.1016438552642285
 21
283.760989324120203
 31
0.0
  0
LINE
  5
2CE97
  8
0
 10
5912.135532516764215
 20
281.9896507415198244
 30
0.0
 11
5912.135532516764215
 21
283.7609893241198051
 31
0.0
  0
ARC
  5
2CE98
  8
0
 10
5912.1255325167639967
 20
281.9896507415198244
 30
0.0
 40
0.0100000000000025
 50
270.0000000010942927
 51
359.9999999999805027
  0
ARC
  5
2CE99
  8
0
 10
5912.1127417282095848
 20
281.9896932452587066
 30
0.0
 40
0.0110979543387495
 50
180.2194360090209955
 51
244.809391843772886
  0
ARC
  5
2CE9A
  8
0
 10
5912.1255325167639967
 20
283.7609893241198051
 30
0.0
 40
0.0100000000000025
 50
0.0000000000195413
 51
89.9999999989056647
  0
ARC
  5
2CE9B
  8
0
 10
5912.1127417282095848
 20
283.7609468203809229
 30
0.0
 40
0.0110979543387495
 50
115.1906081562270998
 51
179.7805639909790045
  0
LINE
  5
2CE9C
  8
0
 10
5912.0378418689897444
 20
281.9896507412237838
 30
0.0
 11
5912.0378418689897444
 21
283.7609893238243899
 31
0.0
  0
LINE
  5
2CE9D
  8
0
 10
5912.0717305304897309
 20
281.9896507412241817
 30
0.0
 11
5912.0717305304897309
 21
283.7609893238242194
 31
0.0
  0
ARC
  5
2CE9E
  8
0
 10
5912.0617305304886031
 20
281.9896507412241817
 30
0.0
 40
0.0100000000000025
 50
270.0000000010942927
 51
359.9999999999805027
  0
ARC
  5
2CE9F
  8
0
 10
5912.0489397419360103
 20
281.9896932449631208
 30
0.0
 40
0.0110979543387495
 50
180.2194360090209955
 51
244.809391843772886
  0
ARC
  5
2CEA0
  8
0
 10
5912.0617305304886031
 20
283.7609893238242194
 30
0.0
 40
0.0100000000000025
 50
0.0000000000195413
 51
89.9999999989056647
  0
ARC
  5
2CEA1
  8
0
 10
5912.0489397419360103
 20
283.7609468200852234
 30
0.0
 40
0.0110979543387495
 50
115.1906081562270998
 51
179.7805639909790045
  0
LINE
  5
2CEA2
  8
0
 10
5911.9752832653639416
 20
281.989650741519597
 30
0.0
 11
5911.9752832653639416
 21
283.760989324120203
 31
0.0
  0
LINE
  5
2CEA3
  8
0
 10
5912.0091719268648376
 20
281.9896507415198812
 30
0.0
 11
5912.0091719268648376
 21
283.7609893241199188
 31
0.0
  0
ARC
  5
2CEA4
  8
0
 10
5911.9991719268637098
 20
281.9896507415198812
 30
0.0
 40
0.0100000000000025
 50
270.0000000010942927
 51
359.9999999999805027
  0
ARC
  5
2CEA5
  8
0
 10
5911.9863811383102075
 20
281.9896932452588203
 30
0.0
 40
0.0110979543387495
 50
180.2194360090209955
 51
244.809391843772886
  0
ARC
  5
2CEA6
  8
0
 10
5911.9991719268637098
 20
283.7609893241199188
 30
0.0
 40
0.0100000000000025
 50
0.0000000000195413
 51
89.9999999989056647
  0
ARC
  5
2CEA7
  8
0
 10
5911.9863811383102075
 20
283.7609468203809229
 30
0.0
 40
0.0110979543387495
 50
115.1906081562270998
 51
179.7805639909790045
  0
LINE
  5
2CEA8
  8
0
 10
5911.9109424239632062
 20
281.989650741519597
 30
0.0
 11
5911.9109424239632062
 21
283.760989324120203
 31
0.0
  0
LINE
  5
2CEA9
  8
0
 10
5911.9448310854641022
 20
281.9896507415198244
 30
0.0
 11
5911.9448310854641022
 21
283.7609893241198051
 31
0.0
  0
ARC
  5
2CEAA
  8
0
 10
5911.9348310854638839
 20
281.9896507415198244
 30
0.0
 40
0.0100000000000025
 50
270.0000000010942927
 51
359.9999999999805027
  0
ARC
  5
2CEAB
  8
0
 10
5911.9220402969112911
 20
281.9896932452587066
 30
0.0
 40
0.0110979543387495
 50
180.2194360090209955
 51
244.809391843772886
  0
ARC
  5
2CEAC
  8
0
 10
5911.9348310854638839
 20
283.7609893241198051
 30
0.0
 40
0.0100000000000025
 50
0.0000000000195413
 51
89.9999999989056647
  0
ARC
  5
2CEAD
  8
0
 10
5911.9220402969112911
 20
283.7609468203809229
 30
0.0
 40
0.0110979543387495
 50
115.1906081562270998
 51
179.7805639909790045
  0
LINE
  5
2CEAE
  8
0
 10
5911.8525554616626323
 20
281.9896507415197107
 30
0.0
 11
5911.8525554616626323
 21
283.7609893241203167
 31
0.0
  0
LINE
  5
2CEAF
  8
0
 10
5911.8864441231626188
 20
281.9896507415199949
 30
0.0
 11
5911.8864441231626188
 21
283.7609893241199757
 31
0.0
  0
ARC
  5
2CEB0
  8
0
 10
5911.87644412316331
 20
281.9896507415199949
 30
0.0
 40
0.0100000000000025
 50
270.0000000010942927
 51
359.9999999999805027
  0
ARC
  5
2CEB1
  8
0
 10
5911.8636533346088981
 20
281.9896932452588771
 30
0.0
 40
0.0110979543387495
 50
180.2194360090209955
 51
244.809391843772886
  0
ARC
  5
2CEB2
  8
0
 10
5911.87644412316331
 20
283.7609893241199757
 30
0.0
 40
0.0100000000000025
 50
0.0000000000195413
 51
89.9999999989056647
  0
ARC
  5
2CEB3
  8
0
 10
5911.8636533346088981
 20
283.7609468203809797
 30
0.0
 40
0.0110979543387495
 50
115.1906081562270998
 51
179.7805639909790045
  0
LINE
  5
2CEB4
  8
0
 10
5911.8047381216638314
 20
281.989650741519597
 30
0.0
 11
5911.8047381216638314
 21
283.760989324120203
 31
0.0
  0
LINE
  5
2CEB5
  8
0
 10
5911.8386267831638179
 20
281.9896507415198812
 30
0.0
 11
5911.8386267831638179
 21
283.7609893241199188
 31
0.0
  0
ARC
  5
2CEB6
  8
0
 10
5911.8286267831626901
 20
281.9896507415198812
 30
0.0
 40
0.0100000000000025
 50
270.0000000010942927
 51
359.9999999999805027
  0
ARC
  5
2CEB7
  8
0
 10
5911.8158359946100973
 20
281.9896932452588203
 30
0.0
 40
0.0110979543387495
 50
180.2194360090209955
 51
244.809391843772886
  0
ARC
  5
2CEB8
  8
0
 10
5911.8286267831626901
 20
283.7609893241199188
 30
0.0
 40
0.0100000000000025
 50
0.0000000000195413
 51
89.9999999989056647
  0
ARC
  5
2CEB9
  8
0
 10
5911.8158359946100973
 20
283.7609468203809229
 30
0.0
 40
0.0110979543387495
 50
115.1906081562270998
 51
179.7805639909790045
  0
LINE
  5
2CEBA
  8
0
 10
5911.7565903018639801
 20
281.989650741519597
 30
0.0
 11
5911.7565903018639801
 21
283.760989324120203
 31
0.0
  0
LINE
  5
2CEBB
  8
0
 10
5911.7904789633639666
 20
281.9896507415198244
 30
0.0
 11
5911.7904789633639666
 21
283.7609893241198051
 31
0.0
  0
ARC
  5
2CEBC
  8
0
 10
5911.7804789633637483
 20
281.9896507415198244
 30
0.0
 40
0.0100000000000025
 50
270.0000000010942927
 51
359.9999999999805027
  0
ARC
  5
2CEBD
  8
0
 10
5911.767688174810246
 20
281.9896932452587066
 30
0.0
 40
0.0110979543387495
 50
180.2194360090209955
 51
244.809391843772886
  0
ARC
  5
2CEBE
  8
0
 10
5911.7804789633637483
 20
283.7609893241198051
 30
0.0
 40
0.0100000000000025
 50
0.0000000000195413
 51
89.9999999989056647
  0
ARC
  5
2CEBF
  8
0
 10
5911.767688174810246
 20
283.7609468203809229
 30
0.0
 40
0.0110979543387495
 50
115.1906081562270998
 51
179.7805639909790045
  0
LINE
  5
2CEC0
  8
0
 10
5911.7141207416625548
 20
281.989650741519597
 30
0.0
 11
5911.7141207416625548
 21
283.760989324120203
 31
0.0
  0
LINE
  5
2CEC1
  8
0
 10
5911.7480094031634508
 20
281.9896507415198244
 30
0.0
 11
5911.7480094031634508
 21
283.7609893241198051
 31
0.0
  0
ARC
  5
2CEC2
  8
0
 10
5911.7380094031632325
 20
281.9896507415198244
 30
0.0
 40
0.0100000000000025
 50
270.0000000010942927
 51
359.9999999999805027
  0
ARC
  5
2CEC3
  8
0
 10
5911.7252186146088206
 20
281.9896932452587066
 30
0.0
 40
0.0110979543387495
 50
180.2194360090209955
 51
244.809391843772886
  0
ARC
  5
2CEC4
  8
0
 10
5911.7380094031632325
 20
283.7609893241198051
 30
0.0
 40
0.0100000000000025
 50
0.0000000000195413
 51
89.9999999989056647
  0
ARC
  5
2CEC5
  8
0
 10
5911.7252186146088206
 20
283.7609468203809229
 30
0.0
 40
0.0110979543387495
 50
115.1906081562270998
 51
179.7805639909790045
  0
LINE
  5
2CEC6
  8
0
 10
5911.6779992113633853
 20
281.989650741519597
 30
0.0
 11
5911.6779992113633853
 21
283.760989324120203
 31
0.0
  0
LINE
  5
2CEC7
  8
0
 10
5911.7118878728633717
 20
281.9896507415198244
 30
0.0
 11
5911.7118878728633717
 21
283.7609893241198051
 31
0.0
  0
ARC
  5
2CEC8
  8
0
 10
5911.701887872864063
 20
281.9896507415198244
 30
0.0
 40
0.0100000000000025
 50
270.0000000010942927
 51
359.9999999999805027
  0
ARC
  5
2CEC9
  8
0
 10
5911.6890970843105606
 20
281.9896932452587066
 30
0.0
 40
0.0110979543387495
 50
180.2194360090209955
 51
244.809391843772886
  0
ARC
  5
2CECA
  8
0
 10
5911.701887872864063
 20
283.7609893241198051
 30
0.0
 40
0.0100000000000025
 50
0.0000000000195413
 51
89.9999999989056647
  0
ARC
  5
2CECB
  8
0
 10
5911.6890970843105606
 20
283.7609468203809229
 30
0.0
 40
0.0110979543387495
 50
115.1906081562270998
 51
179.7805639909790045
  0
LINE
  5
2CECC
  8
0
 10
5912.5873206003625455
 20
281.989650741519597
 30
0.0
 11
5912.5873206003625455
 21
283.760989324120203
 31
0.0
  0
LINE
  5
2CECD
  8
0
 10
5912.621209261864351
 20
281.9896507415198244
 30
0.0
 11
5912.621209261864351
 21
283.7609893241198051
 31
0.0
  0
ARC
  5
2CECE
  8
0
 10
5912.6112092618632232
 20
281.9896507415198244
 30
0.0
 40
0.0100000000000025
 50
270.0000000010942927
 51
359.9999999999805027
  0
ARC
  5
2CECF
  8
0
 10
5912.5984184733097209
 20
281.9896932452587066
 30
0.0
 40
0.0110979543387495
 50
180.2194360090209955
 51
244.809391843772886
  0
ARC
  5
2CED0
  8
0
 10
5912.6112092618632232
 20
283.7609893241198051
 30
0.0
 40
0.0100000000000025
 50
0.0000000000195413
 51
89.9999999989056647
  0
ARC
  5
2CED1
  8
0
 10
5912.5984184733097209
 20
283.7609468203809229
 30
0.0
 40
0.0110979543387495
 50
115.1906081562270998
 51
179.7805639909790045
  0
LINE
  5
2CED2
  8
0
 10
5912.6482090842628168
 20
281.9896507415198244
 30
0.0
 11
5912.6482090842628168
 21
283.7609893241198051
 31
0.0
  0
ARC
  5
2CED3
  8
0
 10
5912.6382090842625985
 20
281.9896507415198244
 30
0.0
 40
0.0100000000000025
 50
270.0000000010942927
 51
359.9999999999805027
  0
ARC
  5
2CED4
  8
0
 10
5912.6382090842625985
 20
283.7609893241198051
 30
0.0
 40
0.0100000000000025
 50
0.0000000000195413
 51
89.9999999989056647
  0
LINE
  5
2CED5
  8
0
 10
5912.6675179559633762
 20
281.9896507415198244
 30
0.0
 11
5912.6675179559633762
 21
283.7609893241198051
 31
0.0
  0
ARC
  5
2CED6
  8
0
 10
5912.6575179559640674
 20
281.9896507415198244
 30
0.0
 40
0.0100000000000025
 50
270.0000000010942927
 51
359.9999999999805027
  0
ARC
  5
2CED7
  8
0
 10
5912.6575179559640674
 20
283.7609893241198051
 30
0.0
 40
0.0100000000000025
 50
0.0000000000195413
 51
89.9999999989056647
  0
LINE
  5
2CED8
  8
0
 10
5912.6787700558643337
 20
281.9896507415198244
 30
0.0
 11
5912.6787700558643337
 21
283.7609893241198051
 31
0.0
  0
ARC
  5
2CED9
  8
0
 10
5912.6687700558632059
 20
281.9896507415198244
 30
0.0
 40
0.0100000000000025
 50
270.0000000010942927
 51
359.9999999999805027
  0
ARC
  5
2CEDA
  8
0
 10
5912.6687700558632059
 20
283.7609893241198051
 30
0.0
 40
0.0100000000000025
 50
0.0000000000195413
 51
89.9999999989056647
  0
LINE
  5
2CEDB
  8
0
 10
5911.65285594926263
 20
281.989650741519597
 30
0.0
 11
5911.65285594926263
 21
283.760989324120203
 31
0.0
  0
ARC
  5
2CEDC
  8
0
 10
5911.6639538222098054
 20
281.9896932452587066
 30
0.0
 40
0.0110979543387495
 50
180.2194360090209955
 51
244.809391843772886
  0
ARC
  5
2CEDD
  8
0
 10
5911.6639538222098054
 20
283.7609468203809229
 30
0.0
 40
0.0110979543387495
 50
115.1906081562270998
 51
179.7805639909790045
  0
LINE
  5
2CEDE
  8
0
 10
5911.6335470775629801
 20
281.989650741519597
 30
0.0
 11
5911.6335470775629801
 21
283.760989324120203
 31
0.0
  0
ARC
  5
2CEDF
  8
0
 10
5911.6446449505101555
 20
281.9896932452587066
 30
0.0
 40
0.0110979543387495
 50
180.2194360090209955
 51
244.809391843772886
  0
ARC
  5
2CEE0
  8
0
 10
5911.6446449505101555
 20
283.7609468203809229
 30
0.0
 40
0.0110979543387495
 50
115.1906081562270998
 51
179.7805639909790045
  0
LINE
  5
2CEE1
  8
0
 10
5911.6222336691625969
 20
281.989650741519597
 30
0.0
 11
5911.6222336691625969
 21
283.760989324120203
 31
0.0
  0
ARC
  5
2CEE2
  8
0
 10
5911.6333315421097723
 20
281.9896932452587066
 30
0.0
 40
0.0110979543387495
 50
180.2194360090209955
 51
244.809391843772886
  0
ARC
  5
2CEE3
  8
0
 10
5911.6333315421097723
 20
283.7609468203809229
 30
0.0
 40
0.0110979543387495
 50
115.1906081562270998
 51
179.7805639909790045
  0
LINE
  5
2CEE4
  8
0
 10
5911.7765167688630754
 20
281.8615405052198071
 30
0.0
 11
5911.7765167688630754
 21
281.9205956233197981
 31
0.0
  0
ENDSEC
  0
EOF
