  0
SECTION
  2
HEADER
  9
$ACADVER
  1
AC1009
  9
$INSBASE
 10
4501.4777821588004372
 20
140.6322596763872923
 30
0.0
  9
$EXTMIN
 10
4498.1507821587993021
 20
137.7533363242374094
 30
0.0
  9
$EXTMAX
 10
4501.4777821588004372
 20
142.505174023037398
 30
0.0
  9
$LIMMIN
 10
0.0
 20
0.0
  9
$LIMMAX
 10
11.6929133858000007
 20
8.2677165353999982
  9
$ORTHOMODE
 70
     0
  9
$REGENMODE
 70
     1
  9
$FILLMODE
 70
     1
  9
$QTEXTMODE
 70
     0
  9
$MIRRTEXT
 70
     0
  9
$DRAGMODE
 70
     2
  9
$LTSCALE
 40
0.6431102362
  9
$OSMODE
 70
  3999
  9
$ATTMODE
 70
     1
  9
$TEXTSIZE
 40
0.2
  9
$TRACEWID
 40
0.05
  9
$TEXTSTYLE
  7
STANDARD
  9
$CLAYER
  8
0
  9
$CELTYPE
  6
BYLAYER
  9
$CECOLOR
 62
   256
  9
$DIMSCALE
 40
1.0
  9
$DIMASZ
 40
0.1875
  9
$DIMEXO
 40
0.0625
  9
$DIMDLI
 40
0.4443307087
  9
$DIMRND
 40
0.0
  9
$DIMDLE
 40
0.0
  9
$DIMEXE
 40
0.125
  9
$DIMTP
 40
0.01
  9
$DIMTM
 40
0.01
  9
$DIMTXT
 40
2.0
  9
$DIMCEN
 40
0.1052362205
  9
$DIMTSZ
 40
0.0
  9
$DIMTOL
 70
     1
  9
$DIMLIM
 70
     0
  9
$DIMTIH
 70
     1
  9
$DIMTOH
 70
     1
  9
$DIMSE1
 70
     0
  9
$DIMSE2
 70
     0
  9
$DIMTAD
 70
     0
  9
$DIMZIN
 70
     0
  9
$DIMBLK
  1

  9
$DIMASO
 70
     1
  9
$DIMSHO
 70
     1
  9
$DIMPOST
  1
\X
  9
$DIMAPOST
  1

  9
$DIMALT
 70
     1
  9
$DIMALTD
 70
     2
  9
$DIMALTF
 40
25.3999999999999986
  9
$DIMLFAC
 40
1.0
  9
$DIMTOFL
 70
     0
  9
$DIMTVP
 40
0.0
  9
$DIMTIX
 70
     0
  9
$DIMSOXD
 70
     0
  9
$DIMSAH
 70
     0
  9
$DIMBLK1
  1

  9
$DIMBLK2
  1

  9
$DIMSTYLE
  2
STANDARD
  9
$DIMCLRD
 70
     0
  9
$DIMCLRE
 70
     0
  9
$DIMCLRT
 70
     0
  9
$DIMTFAC
 40
1.0
  9
$DIMGAP
 40
0.09
  9
$LUNITS
 70
     2
  9
$LUPREC
 70
     4
  9
$SKETCHINC
 40
0.1
  9
$FILLETRAD
 40
0.0
  9
$AUNITS
 70
     0
  9
$AUPREC
 70
     0
  9
$MENU
  1
.
  9
$ELEVATION
 40
0.0
  9
$PELEVATION
 40
0.0
  9
$THICKNESS
 40
0.0
  9
$LIMCHECK
 70
     0
  9
$BLIPMODE
 70
     0
  9
$CHAMFERA
 40
0.0
  9
$CHAMFERB
 40
0.0
  9
$SKPOLY
 70
     0
  9
$TDCREATE
 40
2458060.468368056230247
  9
$TDUPDATE
 40
2460235.5572453709319234
  9
$TDINDWG
 40
0.5037107639
  9
$TDUSRTIMER
 40
0.5037107639
  9
$USRTIMER
 70
     1
  9
$ANGBASE
 50
0.0
  9
$ANGDIR
 70
     0
  9
$PDMODE
 70
     0
  9
$PDSIZE
 40
0.3125
  9
$PLINEWID
 40
0.0
  9
$COORDS
 70
     1
  9
$SPLFRAME
 70
     0
  9
$SPLINETYPE
 70
     6
  9
$SPLINESEGS
 70
     8
  9
$ATTDIA
 70
     1
  9
$ATTREQ
 70
     1
  9
$HANDLING
 70
     1
  9
$HANDSEED
  5
11CDB
  9
$SURFTAB1
 70
     6
  9
$SURFTAB2
 70
     6
  9
$SURFTYPE
 70
     6
  9
$SURFU
 70
     6
  9
$SURFV
 70
     6
  9
$UCSNAME
  2

  9
$UCSORG
 10
0.0
 20
0.0
 30
0.0
  9
$UCSXDIR
 10
1.0
 20
0.0
 30
0.0
  9
$UCSYDIR
 10
0.0
 20
1.0
 30
0.0
  9
$PUCSNAME
  2

  9
$PUCSORG
 10
0.0
 20
0.0
 30
0.0
  9
$PUCSXDIR
 10
1.0
 20
0.0
 30
0.0
  9
$PUCSYDIR
 10
0.0
 20
1.0
 30
0.0
  9
$USERI1
 70
     0
  9
$USERI2
 70
     0
  9
$USERI3
 70
     0
  9
$USERI4
 70
     0
  9
$USERI5
 70
     0
  9
$USERR1
 40
0.0
  9
$USERR2
 40
0.0
  9
$USERR3
 40
0.0
  9
$USERR4
 40
0.0
  9
$USERR5
 40
0.0
  9
$WORLDVIEW
 70
     1
  9
$SHADEDGE
 70
     3
  9
$SHADEDIF
 70
    70
  9
$TILEMODE
 70
     1
  9
$MAXACTVP
 70
    64
  9
$PLIMCHECK
 70
     0
  9
$PEXTMIN
 10
1.0000000000000000E+20
 20
1.0000000000000000E+20
 30
1.0000000000000000E+20
  9
$PEXTMAX
 10
-1.0000000000000000E+20
 20
-1.0000000000000000E+20
 30
-1.0000000000000000E+20
  9
$PLIMMIN
 10
0.0
 20
0.0
  9
$PLIMMAX
 10
12.0
 20
9.0
  9
$UNITMODE
 70
     0
  9
$VISRETAIN
 70
     1
  9
$PLINEGEN
 70
     0
  9
$PSLTSCALE
 70
     1
  0
ENDSEC
  0
SECTION
  2
TABLES
  0
TABLE
  2
VPORT
 70
     1
  0
VPORT
  2
*ACTIVE
 70
     0
 10
0.0
 20
0.0
 11
1.0
 21
1.0
 12
696.2702147759869149
 22
14.1339929768874697
 13
0.0
 23
0.0
 14
1.0
 24
1.0
 15
0.0
 25
0.0
 16
0.0
 26
0.0
 36
17.1152628219792007
 17
3803.5440673828129547
 27
125.9952621967499056
 37
0.0
 40
4.7927430448442081
 41
2.193965517241379
 42
50.0
 43
0.0
 44
0.0
 50
0.0
 51
0.0
 71
     0
 72
   100
 73
     1
 74
     1
 75
     0
 76
     0
 77
     0
 78
     0
  0
ENDTAB
  0
TABLE
  2
LTYPE
 70
     2
  0
LTYPE
  2
CONTINUOUS
 70
     0
  3
Solid line
 72
    65
 73
     0
 40
0.0
  0
LTYPE
  2
PHANTOM2
 70
     0
  3
___ _ _ ___ _ _ ___ _ _ ___ _ _
 72
    65
 73
     6
 40
1.25
 49
0.625
 49
-0.125
 49
0.125
 49
-0.125
 49
0.125
 49
-0.125
  0
ENDTAB
  0
TABLE
  2
LAYER
 70
     2
  0
LAYER
  2
0
 70
     0
 62
   255
  6
CONTINUOUS
  0
LAYER
  2
DEFPOINTS
 70
     0
 62
     7
  6
CONTINUOUS
  0
ENDTAB
  0
TABLE
  2
STYLE
 70
     1
  0
STYLE
  2
STANDARD
 70
     0
 40
0.0
 41
0.8
 50
0.0
 71
     0
 42
0.2
  3
txt
  4

  0
ENDTAB
  0
TABLE
  2
VIEW
 70
     0
  0
ENDTAB
  0
TABLE
  2
UCS
 70
     0
  0
ENDTAB
  0
TABLE
  2
APPID
 70
     9
  0
APPID
  2
ACAD
 70
     0
  0
APPID
  2
ACAD_MLEADERVER
 70
     0
  0
APPID
  2
ACAD_EXEMPT_FROM_CAD_STANDARDS
 70
     0
  0
APPID
  2
ACAD_NAV_VCDISPLAY
 70
     0
  0
APPID
  2
ACAECLAYERSTANDARD
 70
     0
  0
APPID
  2
ACCMTRANSPARENCY
 70
     0
  0
APPID
  2
ACAD_DSTYLE_DIMJAG
 70
     0
  0
APPID
  2
ACAD_DSTYLE_DIMTALN
 70
     0
  0
APPID
  2
ACDBATTR
 70
     0
  0
ENDTAB
  0
TABLE
  2
DIMSTYLE
 70
     1
  0
DIMSTYLE
  2
STANDARD
 70
     0
  3

  4

  5

  6

  7

 40
1.0
 41
0.1875
 42
0.0625
 43
0.38
 44
0.125
 45
0.0
 46
0.0
 47
0.01
 48
0.01
140
0.15625
141
0.09
142
0.0
143
25.3999999999999986
144
1.0
145
0.0
146
1.0
147
0.09
 71
     1
 72
     0
 73
     1
 74
     1
 75
     0
 76
     0
 77
     0
 78
     4
170
     0
171
     2
172
     0
173
     0
174
     0
175
     0
176
     0
177
     0
178
     0
  0
ENDTAB
  0
ENDSEC
  0
SECTION
  2
BLOCKS
  0
BLOCK
  8
0
  2
$MODEL_SPACE
 70
     0
 10
0.0
 20
0.0
 30
0.0
  3
$MODEL_SPACE
  1

  0
ENDBLK
  5
21
  8
0
  0
BLOCK
 67
     1
  8
0
  2
$PAPER_SPACE
 70
     0
 10
0.0
 20
0.0
 30
0.0
  3
$PAPER_SPACE
  1

  0
ENDBLK
  5
1D
 67
     1
  8
0
  0
BLOCK
  8
0
  2
_FILLED
 70
     0
 10
0.0
 20
0.0
 30
0.0
  3
_FILLED
  1

  0
SOLID
  5
10CA9
  8
0
  6
BYBLOCK
 62
     0
 10
0.0
 20
0.0
 30
0.0
 11
-1.0
 21
0.1666666667
 31
0.0
 12
-1.0
 22
-0.1666666667
 32
0.0
 13
-1.0
 23
-0.1666666667
 33
0.0
  0
ENDBLK
  5
10CAA
  8
0
  6
BYBLOCK
 62
     0
  0
ENDSEC
  0
SECTION
  2
ENTITIES
  0
LINE
  5
117F6
  8
0
 10
4498.7937821587993312
 20
141.0818363242372868
 30
0.0
 11
4498.7937821587993312
 21
137.7683363242373105
 31
0.0
  0
LINE
  5
117F7
  8
0
 10
4498.7787821587999133
 20
141.0968363242373869
 30
0.0
 11
4498.7307821587992294
 21
141.0968363242373869
 31
0.0
  0
LINE
  5
117F8
  8
0
 10
4498.3007821587989383
 20
141.1593363242373869
 30
0.0
 11
4498.7007821587985745
 21
141.1593363242373869
 31
0.0
  0
LINE
  5
117F9
  8
0
 10
4498.270782158799193
 20
141.1293363242374141
 30
0.0
 11
4498.270782158799193
 21
137.7833363242374105
 31
0.0
  0
LINE
  5
117FA
  8
0
 10
4498.2307821587992294
 20
141.0033363242374094
 30
0.0
 11
4498.2307821587992294
 21
137.9083363242374105
 31
0.0
  0
LINE
  5
117FB
  8
0
 10
4498.2207821587981016
 20
140.9736740230372902
 30
0.0
 11
4498.2207821587990111
 21
140.2866740230373921
 31
0.0
  0
LINE
  5
117FC
  8
0
 10
4498.2207821587981016
 20
140.9736740230372902
 30
0.0
 11
4498.1507821587993021
 21
140.9736740230372902
 31
0.0
  0
LINE
  5
117FD
  8
0
 10
4498.1507821587993021
 20
140.9736740230372902
 30
0.0
 11
4498.1507821587993021
 21
140.2866740230373921
 31
0.0
  0
LINE
  5
117FE
  8
0
 10
4498.2457821587986473
 20
141.0183363242373105
 30
0.0
 11
4498.270782158799193
 21
141.0183363242373105
 31
0.0
  0
LINE
  5
117FF
  8
0
 10
4498.2457821587986473
 20
141.0183363242373105
 30
0.0
 11
4498.2307821587992294
 21
141.0033363242374094
 31
0.0
  0
LINE
  5
11800
  8
0
 10
4498.2457821587986473
 20
141.0183363242373105
 30
0.0
 11
4498.2457821587986473
 21
137.8933363242373105
 31
0.0
  0
LINE
  5
11801
  8
0
 10
4498.270782158799193
 20
141.1293363242374141
 30
0.0
 11
4498.3007821587989383
 21
141.1593363242373869
 31
0.0
  0
LINE
  5
11802
  8
0
 10
4498.7307821587992294
 20
141.1293363242374141
 30
0.0
 11
4498.7007821587985745
 21
141.1593363242373869
 31
0.0
  0
LINE
  5
11803
  8
0
 10
4498.7307821587992294
 20
141.1293363242374141
 30
0.0
 11
4498.7307821587992294
 21
137.7533363242374094
 31
0.0
  0
LINE
  5
11804
  8
0
 10
4498.7787821587999133
 20
141.0968363242373869
 30
0.0
 11
4498.7937821587993312
 21
141.0818363242372868
 31
0.0
  0
LINE
  5
11805
  8
0
 10
4498.2207821587981016
 20
140.2866740230373921
 30
0.0
 11
4498.1507821587993021
 21
140.2866740230373921
 31
0.0
  0
LINE
  5
11806
  8
0
 10
4498.2207821587981016
 20
140.34267402303729
 30
0.0
 11
4498.2307821587992294
 21
140.34267402303729
 31
0.0
  0
LINE
  5
11807
  8
0
 10
4498.3007821587989383
 20
137.7533363242374094
 30
0.0
 11
4498.7787821587999133
 21
137.7533363242374094
 31
0.0
  0
LINE
  5
11808
  8
0
 10
4498.2457821587986473
 20
137.8933363242373105
 30
0.0
 11
4498.270782158799193
 21
137.8933363242373105
 31
0.0
  0
LINE
  5
11809
  8
0
 10
4498.2457821587986473
 20
137.8933363242373105
 30
0.0
 11
4498.2307821587992294
 21
137.9083363242374105
 31
0.0
  0
LINE
  5
1180A
  8
0
 10
4498.270782158799193
 20
137.7833363242374105
 30
0.0
 11
4498.3007821587989383
 21
137.7533363242374094
 31
0.0
  0
LINE
  5
1180B
  8
0
 10
4498.7937821587993312
 20
137.7683363242373105
 30
0.0
 11
4498.7787821587999133
 21
137.7533363242374094
 31
0.0
  0
LINE
  5
1180C
  8
0
 10
4498.3007821587989383
 20
141.1593363242373869
 30
0.0
 11
4498.3007821587989383
 21
137.7533363242374094
 31
0.0
  0
LINE
  5
1180D
  8
0
 10
4498.7007821587985745
 20
141.1593363242373869
 30
0.0
 11
4498.7007821587985745
 21
137.7533363242374094
 31
0.0
  0
LINE
  5
1180E
  8
0
 10
4498.7787821587999133
 20
137.7533363242374094
 30
0.0
 11
4498.7787821587999133
 21
141.0968363242373869
 31
0.0
  0
LINE
  5
1180F
  8
0
 10
4498.7307821588210572
 20
140.2811238834040921
 30
0.0
 11
4498.7787821587780854
 21
140.2811238834705989
 31
0.0
  0
LINE
  5
11810
  8
0
 10
4498.7787821587780854
 20
140.2811238834705989
 30
0.0
 11
4498.7937821588211591
 21
140.2878934365012071
 31
0.0
  0
LINE
  5
11811
  8
0
 10
4498.7937821587993312
 20
140.2301740230373923
 30
0.0
 11
4498.8137821587997678
 21
140.2301740230373923
 31
0.0
  0
LINE
  5
11812
  8
0
 10
4498.8137821587997678
 20
140.1583363242372968
 30
0.0
 11
4498.8137821587997678
 21
141.0983363236373975
 31
0.0
  0
ARC
  5
11813
  8
0
 10
4498.8287821593994522
 20
141.0983363236373975
 30
0.0
 40
0.0150000006000006
 50
90.0000022918069362
 51
180.0000000000032117
  0
LINE
  5
11814
  8
0
 10
4498.8287821587991857
 20
141.1133363242373946
 30
0.0
 11
4498.8767821587998696
 21
141.1133363261573948
 31
0.0
  0
LINE
  5
11815
  8
0
 10
4498.939782158799062
 20
141.1883363242374116
 30
0.0
 11
4498.8917821587992876
 21
141.1883363242374116
 31
0.0
  0
ARC
  5
11816
  8
0
 10
4498.8917821587992876
 20
141.1733363242373116
 30
0.0
 40
0.0150000000000015
 50
90.0
 51
180.0000240642220035
  0
LINE
  5
11817
  8
0
 10
4498.8767821587998696
 20
141.1733363179374123
 30
0.0
 11
4498.8767826166003942
 21
140.0833363242375071
 31
0.0
  0
ARC
  5
11818
  8
0
 10
4498.8917826229062484
 20
140.0833363305374917
 30
0.0
 40
0.0150000063072766
 50
180.0000240642268921
 51
269.9982272418887987
  0
LINE
  5
11819
  8
0
 10
4498.8917821587992876
 20
140.0683363242374071
 30
0.0
 11
4498.9397821587763246
 21
140.0683348390950016
 31
0.0
  0
LINE
  5
1181A
  8
0
 10
4498.8767821587998696
 20
140.1433363242373105
 30
0.0
 11
4498.8287821587991857
 21
140.1433363242373105
 31
0.0
  0
ARC
  5
1181B
  8
0
 10
4498.8287821587991857
 20
140.1583363242372968
 30
0.0
 40
0.0150000000000006
 50
180.0000000000032117
 51
270.0
  0
LINE
  5
1181C
  8
0
 10
4498.939782158799062
 20
140.0333363245374017
 30
0.0
 11
4498.939782158799062
 21
141.2233363239373887
 31
0.0
  0
ARC
  5
1181D
  8
0
 10
4498.9560410791182221
 20
141.2228148621989874
 30
0.0
 40
0.0162672804205017
 50
94.4385425533160401
 51
178.1630195518974062
  0
LINE
  5
1181E
  8
0
 10
4498.9547821588002989
 20
141.2390333557144118
 30
0.0
 11
4499.4377821587986546
 21
141.2390333557144118
 31
0.0
  0
LINE
  5
1181F
  8
0
 10
4500.6777821587993458
 20
141.6301757116044087
 30
0.0
 11
4499.5527821587993458
 21
141.6301757116044087
 31
0.0
  0
ARC
  5
11820
  8
0
 10
4499.5527821587993458
 20
141.6151757116043939
 30
0.0
 40
0.0150000000000015
 50
90.0
 51
179.9999999999934914
  0
LINE
  5
11821
  8
0
 10
4499.5377821587999279
 20
141.6151757116043939
 30
0.0
 11
4499.5377821587990184
 21
139.6433363236371008
 31
0.0
  0
ARC
  5
11822
  8
0
 10
4499.5527821581990793
 20
139.6433363236371008
 30
0.0
 40
0.0149999993996914
 50
179.9999999999967031
 51
270.0000022938913276
  0
LINE
  5
11823
  8
0
 10
4499.5527821587993458
 20
139.6283363242374094
 30
0.0
 11
4500.6777821587993458
 21
139.6283363700786992
 31
0.0
  0
LINE
  5
11824
  8
0
 10
4499.5377821587999279
 20
139.7483363242374139
 30
0.0
 11
4499.5027821587982544
 21
139.7483363242374139
 31
0.0
  0
ARC
  5
11825
  8
0
 10
4499.5027821587982544
 20
139.7633363242372866
 30
0.0
 40
0.015000000000001
 50
180.0000012078039049
 51
270.0
  0
LINE
  5
11826
  8
0
 10
4499.487782158799746
 20
139.7633363239210951
 30
0.0
 11
4499.4877821223308274
 21
141.49333632423739
 31
0.0
  0
ARC
  5
11827
  8
0
 10
4499.5027821220137412
 20
141.49333632455361
 30
0.0
 40
0.0149999996838428
 50
89.9998594923803807
 51
180.0000012078039049
  0
LINE
  5
11828
  8
0
 10
4499.5027821587982544
 20
141.5083363242374048
 30
0.0
 11
4499.5377821587990184
 21
141.5083362384060877
 31
0.0
  0
LINE
  5
11829
  8
0
 10
4499.487782158799746
 20
141.4533363242373127
 30
0.0
 11
4499.4527821587998915
 21
141.4533363242373127
 31
0.0
  0
ARC
  5
1182A
  8
0
 10
4499.4527821587998915
 20
141.4383363242374116
 30
0.0
 40
0.0150000000000006
 50
90.0
 51
179.9999999999934914
  0
LINE
  5
1182B
  8
0
 10
4499.4377821587986546
 20
141.4383363242374116
 30
0.0
 11
4499.4377821587986546
 21
139.8183363232332113
 31
0.0
  0
ARC
  5
1182C
  8
0
 10
4499.4527821577948998
 20
139.8183363232332113
 30
0.0
 40
0.0149999989958936
 50
179.9999999999917861
 51
270.0000038361450834
  0
LINE
  5
1182D
  8
0
 10
4499.4527821587998915
 20
139.8033363242373923
 30
0.0
 11
4499.4877821579557349
 21
139.8033363265807054
 31
0.0
  0
LINE
  5
1182E
  8
0
 10
4499.4377821587986546
 20
140.0183363242373105
 30
0.0
 11
4498.9547821588002989
 21
140.0183363242373105
 31
0.0
  0
ARC
  5
1182F
  8
0
 10
4498.9547821588002989
 20
140.0333363242372968
 30
0.0
 40
0.0149999999999997
 50
179.9999988540834863
 51
270.0
  0
LINE
  5
11830
  8
0
 10
4498.8137821587997678
 20
141.0283363242373866
 30
0.0
 11
4498.7937821587993312
 21
141.0283363242373866
 31
0.0
  0
LINE
  5
118CA
  8
0
 10
4500.8527821588004372
 20
138.7551740230373127
 30
0.0
 11
4501.4277821587993458
 21
138.7551740230373127
 31
0.0
  0
LINE
  5
118CB
  8
0
 10
4501.4277821587993458
 20
138.7551740230373127
 30
0.0
 11
4501.4277821587993458
 21
138.759345329737414
 31
0.0
  0
LINE
  5
118CC
  8
0
 10
4501.4277821587993458
 20
138.759345329737414
 30
0.0
 11
4501.4777821588004372
 21
138.759345329737414
 31
0.0
  0
LINE
  5
118CD
  8
0
 10
4501.4777821588004372
 20
138.759345329737414
 30
0.0
 11
4501.4777821588004372
 21
142.5051740230373127
 31
0.0
  0
LINE
  5
118CE
  8
0
 10
4501.4777821588004372
 20
142.5051740230373127
 30
0.0
 11
4500.8527821588004372
 21
142.5051740230373127
 31
0.0
  0
ARC
  5
118CF
  8
0
 10
4500.8527821588004372
 20
142.4901740230374116
 30
0.0
 40
0.0150000000000006
 50
90.0
 51
179.9999999999967031
  0
LINE
  5
118D0
  8
0
 10
4500.8377821587992003
 20
142.4901740230374116
 30
0.0
 11
4500.8377821587992003
 21
138.7701740230374128
 31
0.0
  0
ARC
  5
118D1
  8
0
 10
4500.8527821588004372
 20
138.7701740230374128
 30
0.0
 40
0.0150000000000255
 50
180.0000000000993055
 51
270.0000000007294716
  0
LINE
  5
118D2
  8
0
 10
4500.8377821587992003
 20
138.8801740230373127
 30
0.0
 11
4500.7727821587996004
 21
138.8801740230373127
 31
0.0
  0
ARC
  5
118D3
  8
0
 10
4500.7727821587996004
 20
138.8951740230374128
 30
0.0
 40
0.0150000000000006
 50
180.0000050458021121
 51
270.0
  0
LINE
  5
118D4
  8
0
 10
4500.757782158799273
 20
138.8951740217164001
 30
0.0
 11
4500.7577818532108722
 21
142.365174023037298
 31
0.0
  0
ARC
  5
118D5
  8
0
 10
4500.7727818518933418
 20
142.3651740243583959
 30
0.0
 40
0.0149999986821641
 50
89.9988277040106368
 51
180.0000050457971952
  0
LINE
  5
118D6
  8
0
 10
4500.7727821587996004
 20
142.3801740230373127
 30
0.0
 11
4500.8377821587992003
 21
142.3801726931098131
 31
0.0
  0
LINE
  5
118D7
  8
0
 10
4500.757782158799273
 20
142.2656740230372918
 30
0.0
 11
4500.6927821587987637
 21
142.2656740230372918
 31
0.0
  0
ARC
  5
118D8
  8
0
 10
4500.6927821587987637
 20
142.2506740230373907
 30
0.0
 40
0.0150000000000006
 50
90.0
 51
179.9999999999967031
  0
LINE
  5
118D9
  8
0
 10
4500.6777821587993458
 20
142.2506740230373907
 30
0.0
 11
4500.6777821587993458
 21
139.0096740230374053
 31
0.0
  0
ARC
  5
118DA
  8
0
 10
4500.6927821587987637
 20
139.0096740230374053
 30
0.0
 40
0.0149999999999988
 50
179.9999999999984084
 51
270.0000000007294716
  0
LINE
  5
118DB
  8
0
 10
4500.6927821587987637
 20
138.9946740230373905
 30
0.0
 11
4500.757782158799273
 21
138.9946740230381863
 31
0.0
  0
LINE
  5
11912
  8
0
 10
4498.2207821587981016
 20
140.6446405082373872
 30
0.0
 11
4498.1507821587993021
 21
140.6446405082373872
 31
0.0
  0
LINE
  5
11913
  8
0
 10
4498.1507821587993021
 20
140.6728076326373866
 30
0.0
 11
4498.2207821587981016
 21
140.6728076326373866
 31
0.0
  0
LINE
  5
11914
  8
0
 10
4498.2207821587981016
 20
140.7040159573373899
 30
0.0
 11
4498.1507821587993021
 21
140.7040159573373899
 31
0.0
  0
LINE
  5
11915
  8
0
 10
4498.1507821587993021
 20
140.7258974154372879
 30
0.0
 11
4498.2207821587981016
 21
140.7258974154372879
 31
0.0
  0
LINE
  5
11916
  8
0
 10
4498.2207821587981016
 20
140.7339596579373904
 30
0.0
 11
4498.1507821587993021
 21
140.7339596579373904
 31
0.0
  0
LINE
  5
11917
  8
0
 10
4498.1507821587993021
 20
140.7611477566373139
 30
0.0
 11
4498.2207821587981016
 21
140.7611477566373139
 31
0.0
  0
LINE
  5
11918
  8
0
 10
4498.2207821587981016
 20
140.7760786914373909
 30
0.0
 11
4498.1507821587993021
 21
140.7760786914373909
 31
0.0
  0
LINE
  5
11919
  8
0
 10
4498.1507821587993021
 20
140.7892432980372917
 30
0.0
 11
4498.2207821587981016
 21
140.7892432980372917
 31
0.0
  0
LINE
  5
1191A
  8
0
 10
4498.2207821587981016
 20
140.8142999853374135
 30
0.0
 11
4498.1507821587993021
 21
140.8142999853374135
 31
0.0
  0
LINE
  5
1191B
  8
0
 10
4498.2207821587981016
 20
140.8218267279372924
 30
0.0
 11
4498.1507821587993021
 21
140.8218267279372924
 31
0.0
  0
LINE
  5
1191C
  8
0
 10
4498.1507821587993021
 20
140.8396936986374044
 30
0.0
 11
4498.2207821587981016
 21
140.8396936986374044
 31
0.0
  0
LINE
  5
1191D
  8
0
 10
4498.2207821587981016
 20
140.861857639737309
 30
0.0
 11
4498.1507821587993021
 21
140.861857639737309
 31
0.0
  0
LINE
  5
1191E
  8
0
 10
4498.1507821587993021
 20
140.8837779500373131
 30
0.0
 11
4498.2207821587981016
 21
140.8837779500373131
 31
0.0
  0
LINE
  5
1191F
  8
0
 10
4498.2207821587981016
 20
140.9023757048373113
 30
0.0
 11
4498.1507821587993021
 21
140.9023757048373113
 31
0.0
  0
LINE
  5
11920
  8
0
 10
4498.1507821587993021
 20
140.9201565743373123
 30
0.0
 11
4498.2207821587981016
 21
140.9201565743373123
 31
0.0
  0
LINE
  5
11921
  8
0
 10
4498.2207821587981016
 20
140.9346230595373868
 30
0.0
 11
4498.1507821587993021
 21
140.9346230595373868
 31
0.0
  0
LINE
  5
11922
  8
0
 10
4498.1507821587993021
 20
140.947724225637387
 30
0.0
 11
4498.2207821587981016
 21
140.947724225637387
 31
0.0
  0
LINE
  5
11923
  8
0
 10
4498.2207821587981016
 20
140.9576198842374026
 30
0.0
 11
4498.1507821587993021
 21
140.9576198842374026
 31
0.0
  0
LINE
  5
11924
  8
0
 10
4498.1507821587993021
 20
140.9656432746373866
 30
0.0
 11
4498.2207821587981016
 21
140.9656432746373866
 31
0.0
  0
LINE
  5
11925
  8
0
 10
4498.2307821587992294
 20
140.9176740230373923
 30
0.0
 11
4498.2207821587981016
 21
140.9176740230373923
 31
0.0
  0
LINE
  5
11926
  8
0
 10
4498.7307821587992294
 20
140.2915139919373928
 30
0.0
 11
4498.7007821587985745
 21
140.2712349481373906
 31
0.0
  0
LINE
  5
11927
  8
0
 10
4498.7007821587985745
 20
140.2712349481373906
 30
0.0
 11
4498.3007821587989383
 21
140.2712349481373053
 31
0.0
  0
LINE
  5
11928
  8
0
 10
4498.3007821587989383
 20
140.2712349481373053
 30
0.0
 11
4498.270782158799193
 21
140.2915139919373075
 31
0.0
  0
LINE
  5
11929
  8
0
 10
4498.2207821587981016
 20
140.6157075378374088
 30
0.0
 11
4498.1507821587993021
 21
140.6157075378374088
 31
0.0
  0
LINE
  5
1192A
  8
0
 10
4498.1507821587993021
 20
140.5875404134372957
 30
0.0
 11
4498.2207821587981016
 21
140.5875404134372957
 31
0.0
  0
LINE
  5
1192B
  8
0
 10
4498.2207821587981016
 20
140.5563320887374061
 30
0.0
 11
4498.1507821587993021
 21
140.5563320887374061
 31
0.0
  0
LINE
  5
1192C
  8
0
 10
4498.1507821587993021
 20
140.5344506306373091
 30
0.0
 11
4498.2207821587981016
 21
140.5344506306373091
 31
0.0
  0
LINE
  5
1192D
  8
0
 10
4498.2207821587981016
 20
140.5263883881374056
 30
0.0
 11
4498.1507821587993021
 21
140.5263883881374056
 31
0.0
  0
LINE
  5
1192E
  8
0
 10
4498.1507821587993021
 20
140.4992002894373115
 30
0.0
 11
4498.2207821587981016
 21
140.4992002894373115
 31
0.0
  0
LINE
  5
1192F
  8
0
 10
4498.2207821587981016
 20
140.4842693546374051
 30
0.0
 11
4498.1507821587993021
 21
140.4842693546374051
 31
0.0
  0
LINE
  5
11930
  8
0
 10
4498.1507821587993021
 20
140.4711047480373907
 30
0.0
 11
4498.2207821587981016
 21
140.4711047480373907
 31
0.0
  0
LINE
  5
11931
  8
0
 10
4498.2207821587981016
 20
140.4460480607374109
 30
0.0
 11
4498.1507821587993021
 21
140.4460480607374109
 31
0.0
  0
LINE
  5
11932
  8
0
 10
4498.2207821587981016
 20
140.4385213181373899
 30
0.0
 11
4498.1507821587993021
 21
140.4385213181373899
 31
0.0
  0
LINE
  5
11933
  8
0
 10
4498.1507821587993021
 20
140.4206543474373916
 30
0.0
 11
4498.2207821587981016
 21
140.4206543474373916
 31
0.0
  0
LINE
  5
11934
  8
0
 10
4498.2207821587981016
 20
140.3984904063374017
 30
0.0
 11
4498.1507821587993021
 21
140.3984904063374017
 31
0.0
  0
LINE
  5
11935
  8
0
 10
4498.1507821587993021
 20
140.3765700960373124
 30
0.0
 11
4498.2207821587981016
 21
140.3765700960373124
 31
0.0
  0
LINE
  5
11936
  8
0
 10
4498.2207821587981016
 20
140.3579723412373141
 30
0.0
 11
4498.1507821587993021
 21
140.3579723412373141
 31
0.0
  0
LINE
  5
11937
  8
0
 10
4498.1507821587993021
 20
140.3401914717373131
 30
0.0
 11
4498.2207821587981016
 21
140.3401914717373131
 31
0.0
  0
LINE
  5
11938
  8
0
 10
4498.2207821587981016
 20
140.3257249865374092
 30
0.0
 11
4498.1507821587993021
 21
140.3257249865374092
 31
0.0
  0
LINE
  5
11939
  8
0
 10
4498.1507821587993021
 20
140.312623820437409
 30
0.0
 11
4498.2207821587981016
 21
140.312623820437409
 31
0.0
  0
LINE
  5
1193A
  8
0
 10
4498.2207821587981016
 20
140.3027281618373934
 30
0.0
 11
4498.1507821587993021
 21
140.3027281618373934
 31
0.0
  0
LINE
  5
1193B
  8
0
 10
4498.1507821587993021
 20
140.2947047714372957
 30
0.0
 11
4498.2207821587981016
 21
140.2947047714372957
 31
0.0
  0
ATTDEF
  5
1193E
  8
DEFPOINTS
 10
4501.4663272276948192
 20
140.6302893515853043
 30
0.0
 40
0.001
  1
P80242-LV
  3

  2
MODELNUMBER
 70
     0
1001
ACDBATTR
1070
     0
1070
     1
  0
ATTDEF
  5
1193F
  8
DEFPOINTS
 10
4501.4663272276948192
 20
140.628622684918696
 30
0.0
 40
0.001
  1
VIR STIL
  3

  2
TRADENAME
 70
     0
1001
ACDBATTR
1070
     0
1070
     1
  0
ATTDEF
  5
11940
  8
DEFPOINTS
 10
4501.4663272276948192
 20
140.6269560182520024
 30
0.0
 40
0.001
  1
VALVE TRIM
  3

  2
PRODUCT
 70
     0
1001
ACDBATTR
1070
     0
1070
     1
  0
ENDSEC
  0
EOF
