  0
SECTION
  2
HEADER
  9
$ACADVER
  1
AC1009
  9
$INSBASE
 10
306.9063073260933834
 20
7.6900666134522657
 30
0.0
  9
$EXTMIN
 10
300.0150552889817845
 20
1.6590150076952981
 30
-0.0000000000112498
  9
$EXTMAX
 10
313.8028009214702934
 20
8.7480932023015221
 30
0.0000000000002956
  9
$LIMMIN
 10
0.0
 20
0.0
  9
$LIMMAX
 10
11.6929133858000007
 20
8.2677165353999982
  9
$ORTHOMODE
 70
     0
  9
$REGENMODE
 70
     1
  9
$FILLMODE
 70
     1
  9
$QTEXTMODE
 70
     0
  9
$MIRRTEXT
 70
     0
  9
$DRAGMODE
 70
     2
  9
$LTSCALE
 40
0.6431102362
  9
$OSMODE
 70
  4095
  9
$ATTMODE
 70
     1
  9
$TEXTSIZE
 40
0.2
  9
$TRACEWID
 40
0.05
  9
$TEXTSTYLE
  7
STANDARD
  9
$CLAYER
  8
0
  9
$CELTYPE
  6
BYLAYER
  9
$CECOLOR
 62
   256
  9
$DIMSCALE
 40
1.0
  9
$DIMASZ
 40
0.1875
  9
$DIMEXO
 40
0.0625
  9
$DIMDLI
 40
0.4443307087
  9
$DIMRND
 40
0.0
  9
$DIMDLE
 40
0.0
  9
$DIMEXE
 40
0.125
  9
$DIMTP
 40
0.01
  9
$DIMTM
 40
0.01
  9
$DIMTXT
 40
0.15625
  9
$DIMCEN
 40
0.1052362205
  9
$DIMTSZ
 40
0.0
  9
$DIMTOL
 70
     1
  9
$DIMLIM
 70
     0
  9
$DIMTIH
 70
     1
  9
$DIMTOH
 70
     1
  9
$DIMSE1
 70
     0
  9
$DIMSE2
 70
     0
  9
$DIMTAD
 70
     0
  9
$DIMZIN
 70
     0
  9
$DIMBLK
  1

  9
$DIMASO
 70
     1
  9
$DIMSHO
 70
     1
  9
$DIMPOST
  1
\X
  9
$DIMAPOST
  1

  9
$DIMALT
 70
     1
  9
$DIMALTD
 70
     2
  9
$DIMALTF
 40
25.3999999999999986
  9
$DIMLFAC
 40
1.0
  9
$DIMTOFL
 70
     0
  9
$DIMTVP
 40
0.0
  9
$DIMTIX
 70
     0
  9
$DIMSOXD
 70
     0
  9
$DIMSAH
 70
     0
  9
$DIMBLK1
  1

  9
$DIMBLK2
  1

  9
$DIMSTYLE
  2
STANDARD
  9
$DIMCLRD
 70
     0
  9
$DIMCLRE
 70
     0
  9
$DIMCLRT
 70
     0
  9
$DIMTFAC
 40
1.0
  9
$DIMGAP
 40
0.09
  9
$LUNITS
 70
     2
  9
$LUPREC
 70
     4
  9
$SKETCHINC
 40
0.1
  9
$FILLETRAD
 40
0.0
  9
$AUNITS
 70
     0
  9
$AUPREC
 70
     0
  9
$MENU
  1
.
  9
$ELEVATION
 40
0.0
  9
$PELEVATION
 40
0.0
  9
$THICKNESS
 40
0.0
  9
$LIMCHECK
 70
     0
  9
$BLIPMODE
 70
     0
  9
$CHAMFERA
 40
0.0
  9
$CHAMFERB
 40
0.0
  9
$SKPOLY
 70
     0
  9
$TDCREATE
 40
2458018.639108797069639
  9
$TDUPDATE
 40
2460202.5545601849444211
  9
$TDINDWG
 40
0.3642819444
  9
$TDUSRTIMER
 40
0.3642819444
  9
$USRTIMER
 70
     1
  9
$ANGBASE
 50
0.0
  9
$ANGDIR
 70
     0
  9
$PDMODE
 70
     0
  9
$PDSIZE
 40
0.3125
  9
$PLINEWID
 40
0.0
  9
$COORDS
 70
     1
  9
$SPLFRAME
 70
     0
  9
$SPLINETYPE
 70
     6
  9
$SPLINESEGS
 70
     8
  9
$ATTDIA
 70
     1
  9
$ATTREQ
 70
     1
  9
$HANDLING
 70
     1
  9
$HANDSEED
  5
B4D9
  9
$SURFTAB1
 70
     6
  9
$SURFTAB2
 70
     6
  9
$SURFTYPE
 70
     6
  9
$SURFU
 70
     6
  9
$SURFV
 70
     6
  9
$UCSNAME
  2

  9
$UCSORG
 10
0.0
 20
0.0
 30
0.0
  9
$UCSXDIR
 10
1.0
 20
0.0
 30
0.0
  9
$UCSYDIR
 10
0.0
 20
1.0
 30
0.0
  9
$PUCSNAME
  2

  9
$PUCSORG
 10
0.0
 20
0.0
 30
0.0
  9
$PUCSXDIR
 10
1.0
 20
0.0
 30
0.0
  9
$PUCSYDIR
 10
0.0
 20
1.0
 30
0.0
  9
$USERI1
 70
     0
  9
$USERI2
 70
     0
  9
$USERI3
 70
     0
  9
$USERI4
 70
     0
  9
$USERI5
 70
     0
  9
$USERR1
 40
0.0
  9
$USERR2
 40
0.0
  9
$USERR3
 40
0.0
  9
$USERR4
 40
0.0
  9
$USERR5
 40
0.0
  9
$WORLDVIEW
 70
     1
  9
$SHADEDGE
 70
     3
  9
$SHADEDIF
 70
    70
  9
$TILEMODE
 70
     1
  9
$MAXACTVP
 70
    64
  9
$PLIMCHECK
 70
     0
  9
$PEXTMIN
 10
1.0000000000000000E+20
 20
1.0000000000000000E+20
 30
1.0000000000000000E+20
  9
$PEXTMAX
 10
-1.0000000000000000E+20
 20
-1.0000000000000000E+20
 30
-1.0000000000000000E+20
  9
$PLIMMIN
 10
0.0
 20
0.0
  9
$PLIMMAX
 10
12.0
 20
9.0
  9
$UNITMODE
 70
     0
  9
$VISRETAIN
 70
     1
  9
$PLINEGEN
 70
     0
  9
$PSLTSCALE
 70
     1
  0
ENDSEC
  0
SECTION
  2
TABLES
  0
TABLE
  2
VPORT
 70
     1
  0
VPORT
  2
*ACTIVE
 70
     0
 10
0.0
 20
0.0
 11
1.0
 21
1.0
 12
211.5846671074882863
 22
-1.832777906224428
 13
0.0
 23
0.0
 14
1.0
 24
1.0
 15
0.0
 25
0.0
 16
-0.0000000000000142
 26
0.0
 36
39.3282560748450578
 17
95.3242609977377526
 27
7.0363320112228394
 37
0.0
 40
7.1527525496475963
 41
2.841079460269865
 42
50.0
 43
0.0
 44
0.0
 50
0.0
 51
0.0
 71
     0
 72
   100
 73
     1
 74
     1
 75
     0
 76
     0
 77
     0
 78
     0
  0
ENDTAB
  0
TABLE
  2
LTYPE
 70
     2
  0
LTYPE
  2
CONTINUOUS
 70
     0
  3
Solid line
 72
    65
 73
     0
 40
0.0
  0
LTYPE
  2
PHANTOM2
 70
     0
  3
___ _ _ ___ _ _ ___ _ _ ___ _ _
 72
    65
 73
     6
 40
1.25
 49
0.625
 49
-0.125
 49
0.125
 49
-0.125
 49
0.125
 49
-0.125
  0
ENDTAB
  0
TABLE
  2
LAYER
 70
     2
  0
LAYER
  2
0
 70
     0
 62
   255
  6
CONTINUOUS
  0
LAYER
  2
DEFPOINTS
 70
     0
 62
     7
  6
CONTINUOUS
  0
ENDTAB
  0
TABLE
  2
STYLE
 70
     1
  0
STYLE
  2
STANDARD
 70
     0
 40
0.0
 41
0.8
 50
0.0
 71
     0
 42
0.2
  3
txt
  4

  0
ENDTAB
  0
TABLE
  2
VIEW
 70
     0
  0
ENDTAB
  0
TABLE
  2
UCS
 70
     0
  0
ENDTAB
  0
TABLE
  2
APPID
 70
    10
  0
APPID
  2
ACAD
 70
     0
  0
APPID
  2
ACAD_MLEADERVER
 70
     0
  0
APPID
  2
ACAD_DSTYLE_DIMJAG
 70
     0
  0
APPID
  2
ACAD_DSTYLE_DIMTALN
 70
     0
  0
APPID
  2
ACAD_NAV_VCDISPLAY
 70
     0
  0
APPID
  2
ACAD_EXEMPT_FROM_CAD_STANDARDS
 70
     0
  0
APPID
  2
ACAECLAYERSTANDARD
 70
     0
  0
APPID
  2
ACCMTRANSPARENCY
 70
     0
  0
APPID
  2
DCO15
 70
     0
  0
APPID
  2
ACDBATTR
 70
     0
  0
ENDTAB
  0
TABLE
  2
DIMSTYLE
 70
     1
  0
DIMSTYLE
  2
STANDARD
 70
     0
  3

  4

  5

  6

  7

 40
1.0
 41
0.1875
 42
0.0625
 43
0.38
 44
0.125
 45
0.0
 46
0.0
 47
0.01
 48
0.01
140
0.15625
141
0.09
142
0.0
143
25.3999999999999986
144
1.0
145
0.0
146
1.0
147
0.09
 71
     1
 72
     0
 73
     1
 74
     1
 75
     0
 76
     0
 77
     0
 78
     4
170
     0
171
     2
172
     0
173
     0
174
     0
175
     0
176
     0
177
     0
178
     0
  0
ENDTAB
  0
ENDSEC
  0
SECTION
  2
BLOCKS
  0
BLOCK
  8
0
  2
$MODEL_SPACE
 70
     0
 10
0.0
 20
0.0
 30
0.0
  3
$MODEL_SPACE
  1

  0
ENDBLK
  5
21
  8
0
  0
BLOCK
 67
     1
  8
0
  2
$PAPER_SPACE
 70
     0
 10
0.0
 20
0.0
 30
0.0
  3
$PAPER_SPACE
  1

  0
ENDBLK
  5
1D
 67
     1
  8
0
  0
BLOCK
  8
0
  2
_FILLED
 70
     0
 10
0.0
 20
0.0
 30
0.0
  3
_FILLED
  1

  0
SOLID
  5
A1C3
  8
0
  6
BYBLOCK
 62
     0
 10
0.0
 20
0.0
 30
0.0
 11
-1.0
 21
0.1666666667
 31
0.0
 12
-1.0
 22
-0.1666666667
 32
0.0
 13
-1.0
 23
-0.1666666667
 33
0.0
  0
ENDBLK
  5
A1C4
  8
0
  6
BYBLOCK
 62
     0
  0
ENDSEC
  0
SECTION
  2
ENTITIES
  0
ATTDEF
  5
7A6E
  8
DEFPOINTS
 10
306.8971712587896263
 20
7.6945621536242177
 30
0.0
 40
0.001
  1
P80234-LV
  3

  2
MODELNUMBER
 70
     0
1001
ACDBATTR
1070
     0
1070
     1
  0
ATTDEF
  5
7A6F
  8
DEFPOINTS
 10
306.8971712587896263
 20
7.6928954869575534
 30
0.0
 40
0.001
  1
VIR STIL
  3

  2
TRADENAME
 70
     0
1001
ACDBATTR
1070
     0
1070
     1
  0
ATTDEF
  5
7A70
  8
DEFPOINTS
 10
306.8971712587896263
 20
7.6912288202908883
 30
0.0
 40
0.001
  1
BATHROOM SINK FAUCET
  3

  2
PRODUCT
 70
     0
1001
ACDBATTR
1070
     0
1070
     1
  0
LINE
  5
B008
  8
0
 10
300.0313073260933834
 20
7.3150666134353912
 30
0.0
 11
300.0313073260933834
 21
8.0650666134691402
 31
0.0
  0
LINE
  5
B009
  8
0
 10
300.1713073260934266
 20
7.4550666134426073
 30
0.0
 11
300.1713073260934266
 21
7.925066613461925
 31
0.0
  0
LINE
  5
B00A
  8
0
 10
306.3753803723934084
 20
2.1900666134522662
 30
0.0
 11
306.3753803723934084
 21
7.6900666134522657
 31
0.0
  0
LINE
  5
B00B
  8
0
 10
307.4372342797934152
 20
2.1900666134522662
 30
0.0
 11
307.4372342797934152
 21
7.6900666134522657
 31
0.0
  0
ARC
  5
B00C
  8
0
 10
306.9063073260933834
 20
7.6900666134522657
 30
0.0
 40
0.5309269536999999
 50
0.0
 51
180.0
  0
ARC
  5
B00D
  8
0
 10
306.9063073260933834
 20
7.6900666134522657
 30
0.0
 40
0.8760000000000003
 50
307.3066698122804041
 51
232.6933301877195959
  0
ARC
  5
B00E
  8
0
 10
306.9063073260933834
 20
7.6900666134522657
 30
0.0
 40
0.9400000000000003
 50
304.3895086232632252
 51
235.6104913767368032
  0
ARC
  5
B00F
  8
0
 10
306.9063073260933834
 20
7.6900666134522657
 30
0.0
 40
1.0575000000000001
 50
300.1362886046028962
 51
239.8637113953971038
  0
ARC
  5
B010
  8
0
 10
306.9063073260933834
 20
2.1900666134522662
 30
0.0
 40
0.5309269536999999
 50
180.0
 51
0.0
  0
ARC
  5
B011
  8
0
 10
302.9063073260933834
 20
7.6900666134522657
 30
0.0
 40
1.0575000000000001
 50
200.7695397355886087
 51
159.2304602644113913
  0
ARC
  5
B012
  8
0
 10
302.9063073260933834
 20
7.6900666134522657
 30
0.0
 40
0.875
 50
205.3769335263758933
 51
154.6230664736241067
  0
ARC
  5
B013
  8
0
 10
302.9063073260933834
 20
7.6900666134522657
 30
0.0
 40
0.5309999999999997
 50
227.4706240501427885
 51
132.5293759498572115
  0
ARC
  5
B014
  8
0
 10
302.9063073260933834
 20
7.6900666134522657
 30
0.0
 40
0.3899999999999988
 50
221.0775284705302965
 51
138.9224715294699024
  0
LINE
  5
B015
  8
0
 10
300.0313073260766146
 20
8.0650666134691402
 30
0.0
 11
302.5054582273227766
 21
8.0650666134691402
 31
0.0
  0
LINE
  5
B016
  8
0
 10
300.0313073260933834
 20
7.3150666134353912
 30
0.0
 11
302.5054582273227766
 21
7.3150666134353912
 31
0.0
  0
LINE
  5
B017
  8
0
 10
300.1713073260934266
 20
7.925066613461925
 30
0.0
 11
302.5655801625238155
 21
7.925066613461925
 31
0.0
  0
LINE
  5
B018
  8
0
 10
300.1713073260934266
 20
7.4550666134426073
 30
0.0
 11
302.5655801625238155
 21
7.4550666134426073
 31
0.0
  0
ARC
  5
B019
  8
0
 10
302.5054582273227197
 20
8.1270666134692
 30
0.0
 40
0.062
 50
270.0000000000130171
 51
312.5293759498343888
  0
ARC
  5
B01A
  8
0
 10
302.5655801625238155
 20
7.9870666134617991
 30
0.0
 40
0.062
 50
269.9999999999739089
 51
318.9224715295324017
  0
ARC
  5
B01B
  8
0
 10
302.5655801625238155
 20
7.3930666134427261
 30
0.0
 40
0.062
 50
41.0775284704721386
 51
90.0000000000260485
  0
ARC
  5
B01C
  8
0
 10
302.5054582273227197
 20
7.2530666134353359
 30
0.0
 40
0.062
 50
47.4706240501692065
 51
89.9999999999934914
  0
ARC
  5
B01D
  8
0
 10
302.9063073260933834
 20
7.6900666134522657
 30
0.0
 40
0.3439646537000005
 50
178.9791035444546026
 51
181.0208964555453122
  0
ARC
  5
B01E
  8
0
 10
302.9063073260933834
 20
7.6900666134522657
 30
0.0
 40
0.3439646537000005
 50
189.7791035586587896
 51
191.6208964822475878
  0
ARC
  5
B01F
  8
0
 10
302.9063073260933834
 20
7.6900666134522657
 30
0.0
 40
0.3439646537000005
 50
200.3791035325232883
 51
212.8208964584223111
  0
ARC
  5
B020
  8
0
 10
302.9063073260933834
 20
7.6900666134522657
 30
0.0
 40
0.3439646537000005
 50
221.5791035285924977
 51
223.4208964678653899
  0
ARC
  5
B021
  8
0
 10
302.9063073260933834
 20
7.6900666134522657
 30
0.0
 40
0.3439646537000005
 50
232.1791035553075062
 51
234.0208964652329939
  0
ARC
  5
B022
  8
0
 10
302.9063073260933834
 20
7.6900666134522657
 30
0.0
 40
0.3439646537000005
 50
242.7791035466553922
 51
244.6208964677207973
  0
ARC
  5
B023
  8
0
 10
302.9063073260933834
 20
7.6900666134522657
 30
0.0
 40
0.3439646537000005
 50
253.3791035345846012
 51
255.2208964591686993
  0
ARC
  5
B024
  8
0
 10
302.9063073260933834
 20
7.6900666134522657
 30
0.0
 40
0.3439646537000005
 50
263.9791035333641958
 51
265.817897399398305
  0
ARC
  5
B025
  8
0
 10
302.9063073260933834
 20
7.6900666134522657
 30
0.0
 40
0.3439646537000005
 50
274.1821026006018087
 51
276.0208964666358042
  0
ARC
  5
B026
  8
0
 10
302.9063073260933834
 20
7.6900666134522657
 30
0.0
 40
0.3439646537000005
 50
284.7791035408312723
 51
286.6208964654155125
  0
ARC
  5
B027
  8
0
 10
302.9063073260933834
 20
7.6900666134522657
 30
0.0
 40
0.3439646537000005
 50
295.3791035322792027
 51
297.2208964533447215
  0
ARC
  5
B028
  8
0
 10
302.9063073260933834
 20
7.6900666134522657
 30
0.0
 40
0.3439646537000005
 50
305.9791035347669776
 51
307.8208964446923801
  0
ARC
  5
B029
  8
0
 10
302.9063073260933834
 20
7.6900666134522657
 30
0.0
 40
0.3439646537000005
 50
316.579103532134809
 51
318.4208964714071044
  0
ARC
  5
B02A
  8
0
 10
302.9063073260933834
 20
7.6900666134522657
 30
0.0
 40
0.3439646537000005
 50
327.1791035415777174
 51
329.0208964646922141
  0
ARC
  5
B02B
  8
0
 10
302.9063073260933834
 20
7.6900666134522657
 30
0.0
 40
0.3439646537000005
 50
337.7791035329944975
 51
339.6208964674785875
  0
ARC
  5
B02C
  8
0
 10
302.9063073260933834
 20
7.6900666134522657
 30
0.0
 40
0.3439646537000005
 50
348.3791035177522986
 51
350.220896441341722
  0
ARC
  5
B02D
  8
0
 10
302.9063073260933834
 20
7.6900666134522657
 30
0.0
 40
0.3439646537000005
 50
358.9791035444545741
 51
1.020896455545069
  0
ARC
  5
B02E
  8
0
 10
302.9063073260933834
 20
7.6900666134522657
 30
0.0
 40
0.3439646537000005
 50
9.7791035586588428
 51
11.6208964822472005
  0
ARC
  5
B02F
  8
0
 10
302.9063073260933834
 20
7.6900666134522657
 30
0.0
 40
0.3439646537000005
 50
20.3791035325211212
 51
22.2208964670056908
  0
ARC
  5
B030
  8
0
 10
302.9063073260933834
 20
7.6900666134522657
 30
0.0
 40
0.3439646537000005
 50
30.9791035353077504
 51
32.8208964584222613
  0
ARC
  5
B031
  8
0
 10
302.9063073260933834
 20
7.6900666134522657
 30
0.0
 40
0.3439646537000005
 50
41.5791035285925474
 51
43.4208964678654894
  0
ARC
  5
B032
  8
0
 10
302.9063073260933834
 20
7.6900666134522657
 30
0.0
 40
0.3439646537000005
 50
52.1791035553075488
 51
54.0208964652328731
  0
ARC
  5
B033
  8
0
 10
302.9063073260933834
 20
7.6900666134522657
 30
0.0
 40
0.3439646537000005
 50
62.7791035466553922
 51
64.6208964677207973
  0
ARC
  5
B034
  8
0
 10
302.9063073260933834
 20
7.6900666134522657
 30
0.0
 40
0.3439646537000005
 50
73.3791035345844875
 51
75.2208964591687277
  0
ARC
  5
B035
  8
0
 10
302.9063073260933834
 20
7.6900666134522657
 30
0.0
 40
0.3439646537000005
 50
83.9791035333641247
 51
85.8178973993982339
  0
ARC
  5
B036
  8
0
 10
302.9063073260933834
 20
7.6900666134522657
 30
0.0
 40
0.3439646537000005
 50
94.1821026006017661
 51
96.0208964666358753
  0
ARC
  5
B037
  8
0
 10
302.9063073260933834
 20
7.6900666134522657
 30
0.0
 40
0.3439646537000005
 50
104.7791035408313007
 51
106.6208964654154983
  0
ARC
  5
B038
  8
0
 10
302.9063073260933834
 20
7.6900666134522657
 30
0.0
 40
0.3439646537000005
 50
115.3791035322792027
 51
117.2208964533445936
  0
ARC
  5
B039
  8
0
 10
302.9063073260933834
 20
7.6900666134522657
 30
0.0
 40
0.3439646537000005
 50
125.9791035347669066
 51
127.8208964446923943
  0
ARC
  5
B03A
  8
0
 10
302.9063073260933834
 20
7.6900666134522657
 30
0.0
 40
0.3439646537000005
 50
136.5791035321344111
 51
138.4208964714073886
  0
ARC
  5
B03B
  8
0
 10
302.9063073260933834
 20
7.6900666134522657
 30
0.0
 40
0.3439646537000005
 50
147.1791035415776889
 51
149.0208964646922993
  0
ARC
  5
B03C
  8
0
 10
302.9063073260933834
 20
7.6900666134522657
 30
0.0
 40
0.3439646537000005
 50
157.7791035329942986
 51
159.6208964674789001
  0
ARC
  5
B03D
  8
0
 10
302.9063073260933834
 20
7.6900666134522657
 30
0.0
 40
0.3439646537000005
 50
168.3791035177522986
 51
170.2208964413422905
  0
ARC
  5
B03E
  8
0
 10
302.5771952087544037
 20
7.6333426842725229
 30
0.0
 40
0.01
 50
95.4000007525167888
 51
189.7791035586612907
  0
ARC
  5
B03F
  8
0
 10
302.5791883303480176
 20
7.6227943863188834
 30
0.0
 40
0.01
 50
191.620896482249492
 51
286.000000776193815
  0
ARC
  5
B040
  8
0
 10
302.5932458354590722
 20
7.5737700399741188
 30
0.0
 40
0.01
 50
105.9999999404348046
 51
200.3791035325245957
  0
ARC
  5
B041
  8
0
 10
302.5971453188033138
 20
7.563768382390653
 30
0.0
 40
0.01
 50
202.2208964670049056
 51
296.6000002802932158
  0
ARC
  5
B042
  8
0
 10
302.6199810322626718
 20
7.5181665163546842
 30
0.0
 40
0.01
 50
116.5999995133774974
 51
210.9791035353061943
  0
ARC
  5
B043
  8
0
 10
302.625653790670583
 20
7.5090528488496249
 30
0.0
 40
0.01
 50
212.8208964584214868
 51
307.1999997491154772
  0
ARC
  5
B044
  8
0
 10
302.6564883455018276
 20
7.4684298230560113
 30
0.0
 40
0.01
 50
127.1999994832964944
 51
221.579103528594203
  0
ARC
  5
B045
  8
0
 10
302.6637407717785209
 20
7.460515188606446
 30
0.0
 40
0.01
 50
223.4208964678655889
 51
317.8000000990808189
  0
ARC
  5
B046
  8
0
 10
302.7015218062433064
 20
7.4262574385157327
 30
0.0
 40
0.01
 50
137.800000465487102
 51
232.1791035553108031
  0
ARC
  5
B047
  8
0
 10
302.7101063799589156
 20
7.4198119582529731
 30
0.0
 40
0.01
 50
234.0208964652366035
 51
328.4000001167136134
  0
ARC
  5
B048
  8
0
 10
302.7535444536276259
 20
7.3930886770378867
 30
0.0
 40
0.01
 50
148.4000004414905902
 51
242.7791035466551932
  0
ARC
  5
B049
  8
0
 10
302.7631681894475832
 20
7.3883323305455022
 30
0.0
 40
0.01
 50
244.6208964677242932
 51
339.0000003407956797
  0
ARC
  5
B04A
  8
0
 10
302.8107807911472946
 20
7.3700555651396309
 30
0.0
 40
0.01
 50
158.999999870893987
 51
253.3791035345876992
  0
ARC
  5
B04B
  8
0
 10
302.8211152376562154
 20
7.3671506832340974
 30
0.0
 40
0.01
 50
255.2208964591686993
 51
349.599999858986223
  0
ARC
  5
B04C
  8
0
 10
302.8712773826541138
 20
7.3579442068254242
 30
0.0
 40
0.01
 50
169.599999659201103
 51
263.9791035333641958
  0
ARC
  5
B04D
  8
0
 10
302.8819523980433814
 20
7.3569912054728617
 30
0.0
 40
0.01
 50
265.817897399398305
 51
0.0
  0
ARC
  5
B04E
  8
0
 10
302.9306622541433853
 20
7.3569912054728617
 30
0.0
 40
0.01
 50
180.0
 51
274.1821026006018087
  0
ARC
  5
B04F
  8
0
 10
302.9413372695327098
 20
7.3579442068254242
 30
0.0
 40
0.01
 50
276.0208964666358042
 51
10.4000003408186004
  0
ARC
  5
B050
  8
0
 10
302.9914994145307219
 20
7.3671506832340974
 30
0.0
 40
0.01
 50
190.4000001410132086
 51
284.7791035408279754
  0
ARC
  5
B051
  8
0
 10
303.0018338610395858
 20
7.3700555651396327
 30
0.0
 40
0.01
 50
286.6208964654156262
 51
21.0000001291091891
  0
ARC
  5
B052
  8
0
 10
303.0494464627392972
 20
7.3883323305455022
 30
0.0
 40
0.01
 50
200.9999996591963907
 51
295.379103532279089
  0
ARC
  5
B053
  8
0
 10
303.0590701985593114
 20
7.3930886770378894
 30
0.0
 40
0.01
 50
297.2208964533447215
 51
31.5999995584963287
  0
ARC
  5
B054
  8
0
 10
303.102508272227908
 20
7.4198119582529731
 30
0.0
 40
0.01
 50
211.5999998832882909
 51
305.9791035347632828
  0
ARC
  5
B055
  8
0
 10
303.1110928459435172
 20
7.4262574385157327
 30
0.0
 40
0.01
 50
307.8208964446924938
 51
42.1999995345079597
  0
ARC
  5
B056
  8
0
 10
303.1488738804084164
 20
7.4605151886064478
 30
0.0
 40
0.01
 50
222.1999999009289866
 51
316.5791035321344111
  0
ARC
  5
B057
  8
0
 10
303.1561263066849961
 20
7.4684298230560087
 30
0.0
 40
0.01
 50
318.4208964714059107
 51
52.8000005167035198
  0
ARC
  5
B058
  8
0
 10
303.1869608615162974
 20
7.5090528488496249
 30
0.0
 40
0.01
 50
232.8000002508966872
 51
327.17910354157749
  0
ARC
  5
B059
  8
0
 10
303.192633619924095
 20
7.5181665163546842
 30
0.0
 40
0.01
 50
329.0208964646938057
 51
63.4000004866229219
  0
ARC
  5
B05A
  8
0
 10
303.2154693333836235
 20
7.5637683823906503
 30
0.0
 40
0.01
 50
243.3999997197072958
 51
337.7791035329951228
  0
ARC
  5
B05B
  8
0
 10
303.2193688167278083
 20
7.573770039974125
 30
0.0
 40
0.01
 50
339.6208964674760864
 51
74.0000000595653091
  0
ARC
  5
B05C
  8
0
 10
303.233426321838806
 20
7.6227943863188834
 30
0.0
 40
0.01
 50
253.9999992238064124
 51
348.3791035177504227
  0
ARC
  5
B05D
  8
0
 10
303.2354194434324768
 20
7.6333426842725274
 30
0.0
 40
0.01
 50
350.2208964413385957
 51
84.5999992474832254
  0
ARC
  5
B05E
  8
0
 10
303.2402189674324973
 20
7.6841163446209073
 30
0.0
 40
0.01
 50
264.6000005025093174
 51
358.9791035444491172
  0
ARC
  5
B05F
  8
0
 10
303.2402189674324973
 20
7.6960168822836224
 30
0.0
 40
0.01
 50
1.020896455540693
 51
95.3999994974939654
  0
ARC
  5
B060
  8
0
 10
303.2354194434324768
 20
7.7467905426320094
 30
0.0
 40
0.01
 50
275.4000007525199862
 51
9.7791035586613493
  0
ARC
  5
B061
  8
0
 10
303.233426321838806
 20
7.7573388405856463
 30
0.0
 40
0.01
 50
11.6208964822490994
 51
106.0000007761936018
  0
ARC
  5
B062
  8
0
 10
303.2193688167278083
 20
7.8063631869304082
 30
0.0
 40
0.01
 50
285.9999999404312803
 51
20.37910353251511
  0
ARC
  5
B063
  8
0
 10
303.2154693333836235
 20
7.8163648445138838
 30
0.0
 40
0.01
 50
22.2208964670049305
 51
116.600000280278806
  0
ARC
  5
B064
  8
0
 10
303.192633619924095
 20
7.8619667105498472
 30
0.0
 40
0.01
 50
296.5999995133770994
 51
30.9791035353143194
  0
ARC
  5
B065
  8
0
 10
303.1869608615162974
 20
7.8710803780549048
 30
0.0
 40
0.01
 50
32.8208964584293312
 51
127.1999997491155057
  0
ARC
  5
B066
  8
0
 10
303.1561263066849961
 20
7.9117034038485228
 30
0.0
 40
0.01
 50
307.1999994833038841
 51
41.579103528597301
  0
ARC
  5
B067
  8
0
 10
303.1488738804084164
 20
7.9196180382980863
 30
0.0
 40
0.01
 50
43.4208964678594569
 51
137.8000000990753904
  0
ARC
  5
B068
  8
0
 10
303.1110928459435172
 20
7.9538757883887987
 30
0.0
 40
0.01
 50
317.8000004654911095
 51
52.179103555307492
  0
ARC
  5
B069
  8
0
 10
303.1025082722280217
 20
7.9603212686515583
 30
0.0
 40
0.01
 50
54.0208964652285601
 51
148.400000116718104
  0
ARC
  5
B06A
  8
0
 10
303.0590701985593114
 20
7.9870445498666447
 30
0.0
 40
0.01
 50
328.4000004414825753
 51
62.7791035466518395
  0
ARC
  5
B06B
  8
0
 10
303.0494464627392972
 20
7.991800896359031
 30
0.0
 40
0.01
 50
64.6208964677208968
 51
159.0000003407949123
  0
ARC
  5
B06C
  8
0
 10
303.0018338610395858
 20
8.0100776617648997
 30
0.0
 40
0.01
 50
338.9999998709002966
 51
73.3791035345877418
  0
ARC
  5
B06D
  8
0
 10
302.9914994145307219
 20
8.0129825436704358
 30
0.0
 40
0.01
 50
75.2208964591686708
 51
169.5999998589867062
  0
ARC
  5
B06E
  8
0
 10
302.9413372695327098
 20
8.0221890200791108
 30
0.0
 40
0.01
 50
349.5999996592125854
 51
83.9791035333641247
  0
ARC
  5
B06F
  8
0
 10
302.9306622541433853
 20
8.0231420214316707
 30
0.0
 40
0.01
 50
85.8178973993949938
 51
180.0
  0
ARC
  5
B070
  8
0
 10
302.8819523980433814
 20
8.0231420214316707
 30
0.0
 40
0.01
 50
0.0
 51
94.1821026006050346
  0
ARC
  5
B071
  8
0
 10
302.8712773826541138
 20
8.0221890200791108
 30
0.0
 40
0.01
 50
96.0208964666358753
 51
190.400000340807793
  0
ARC
  5
B072
  8
0
 10
302.8211152376562154
 20
8.0129825436704358
 30
0.0
 40
0.01
 50
10.4000001410133898
 51
104.7791035408313007
  0
ARC
  5
B073
  8
0
 10
302.8107807911472946
 20
8.0100776617648997
 30
0.0
 40
0.01
 50
106.6208964654123008
 51
201.000000129117808
  0
ARC
  5
B074
  8
0
 10
302.7631681894475832
 20
7.991800896359031
 30
0.0
 40
0.01
 50
20.9999996592035387
 51
115.3791035322757068
  0
ARC
  5
B075
  8
0
 10
302.7535444536276259
 20
7.9870445498666447
 30
0.0
 40
0.01
 50
117.2208964533481037
 51
211.5999995585210058
  0
ARC
  5
B076
  8
0
 10
302.7101063799589156
 20
7.960321268651561
 30
0.0
 40
0.01
 50
31.5999998832919999
 51
125.979103534766594
  0
ARC
  5
B077
  8
0
 10
302.7015218062433064
 20
7.9538757883887987
 30
0.0
 40
0.01
 50
127.8208964446891969
 51
222.1999995345119885
  0
ARC
  5
B078
  8
0
 10
302.6637407717785209
 20
7.9196180382980863
 30
0.0
 40
0.01
 50
42.1999999009245386
 51
136.57910353212921
  0
ARC
  5
B079
  8
0
 10
302.6564883455018276
 20
7.9117034038485228
 30
0.0
 40
0.01
 50
138.420896471402699
 51
232.8000005166952917
  0
ARC
  5
B07A
  8
0
 10
302.625653790670583
 20
7.8710803780549048
 30
0.0
 40
0.01
 50
52.8000002508885729
 51
147.1791035415716067
  0
ARC
  5
B07B
  8
0
 10
302.6199810322626718
 20
7.8619667105498472
 30
0.0
 40
0.01
 50
149.0208964646857055
 51
243.4000004866300912
  0
ARC
  5
B07C
  8
0
 10
302.5971453188033138
 20
7.8163648445138838
 30
0.0
 40
0.01
 50
63.3999997197068126
 51
157.7791035329942986
  0
ARC
  5
B07D
  8
0
 10
302.5932458354590722
 20
7.8063631869304082
 30
0.0
 40
0.01
 50
159.6208964674856929
 51
254.0000000595618133
  0
ARC
  5
B07E
  8
0
 10
302.5791883303480176
 20
7.7573388405856489
 30
0.0
 40
0.01
 50
73.9999992238064408
 51
168.3791035177503943
  0
ARC
  5
B07F
  8
0
 10
302.5771952087544037
 20
7.746790542632005
 30
0.0
 40
0.01
 50
170.2208964413389936
 51
264.5999992474833107
  0
ARC
  5
B080
  8
0
 10
302.5723956847543263
 20
7.6841163446209073
 30
0.0
 40
0.01
 50
181.0208964555405942
 51
275.3999994974939796
  0
ARC
  5
B081
  8
0
 10
302.5723956847543263
 20
7.696016882283625
 30
0.0
 40
0.01
 50
84.6000005025060346
 51
178.9791035444592922
  0
LINE
  5
B082
  8
0
 10
302.583328754916522
 20
7.7050279811550464
 30
0.0
 11
302.5733367678000718
 21
7.7059725019379099
 31
0.0
  0
ARC
  5
B083
  8
0
 10
302.9063073260933834
 20
7.6900666134522657
 30
0.0
 40
0.3130000000320526
 50
173.6243281209524127
 51
175.5756718721717959
  0
ARC
  5
B084
  8
0
 10
302.9063073260933834
 20
7.6900666134522657
 30
0.0
 40
0.3130000000320526
 50
184.4243281278276072
 51
186.3756718790469051
  0
ARC
  5
B085
  8
0
 10
302.9063073260933834
 20
7.6900666134522657
 30
0.0
 40
0.3130000000320526
 50
195.0243281156216142
 51
196.9756718773363104
  0
ARC
  5
B086
  8
0
 10
302.9063073260933834
 20
7.6900666134522657
 30
0.0
 40
0.3130000000320526
 50
205.6243281153159899
 51
207.5756718934806031
  0
ARC
  5
B087
  8
0
 10
302.9063073260933834
 20
7.6900666134522657
 30
0.0
 40
0.3130000000320526
 50
216.2243281229750949
 51
218.1756718874914895
  0
ARC
  5
B088
  8
0
 10
302.9063073260933834
 20
7.6900666134522657
 30
0.0
 40
0.3130000000320526
 50
226.8243281218360892
 51
228.775671884513514
  0
ARC
  5
B089
  8
0
 10
302.9063073260933834
 20
7.6900666134522657
 30
0.0
 40
0.3130000000320526
 50
237.4243281185734133
 51
239.3756718763376057
  0
ARC
  5
B08A
  8
0
 10
302.9063073260933834
 20
7.6900666134522657
 30
0.0
 40
0.3130000000320526
 50
248.0243281141736134
 51
249.9756718816246917
  0
ARC
  5
B08B
  8
0
 10
302.9063073260933834
 20
7.6900666134522657
 30
0.0
 40
0.3130000000320526
 50
258.6243281203296078
 51
260.5756718869466795
  0
ARC
  5
B08C
  8
0
 10
302.9063073260933834
 20
7.6900666134522657
 30
0.0
 40
0.3130000000320526
 50
269.2274719575096924
 51
270.7725280424903076
  0
ARC
  5
B08D
  8
0
 10
302.9063073260933834
 20
7.6900666134522657
 30
0.0
 40
0.3130000000320526
 50
279.4243281130533205
 51
281.3756718796703922
  0
ARC
  5
B08E
  8
0
 10
302.9063073260933834
 20
7.6900666134522657
 30
0.0
 40
0.3130000000320526
 50
290.0243281183753083
 51
291.9756718858263866
  0
ARC
  5
B08F
  8
0
 10
302.9063073260933834
 20
7.6900666134522657
 30
0.0
 40
0.3130000000320526
 50
300.624328123662508
 51
302.5756718814263877
  0
ARC
  5
B090
  8
0
 10
302.9063073260933834
 20
7.6900666134522657
 30
0.0
 40
0.3130000000320526
 50
311.2243281154861734
 51
313.1756718781638256
  0
ARC
  5
B091
  8
0
 10
302.9063073260933834
 20
7.6900666134522657
 30
0.0
 40
0.3130000000320526
 50
321.8243281125086241
 51
323.775671877024422
  0
ARC
  5
B092
  8
0
 10
302.9063073260933834
 20
7.6900666134522657
 30
0.0
 40
0.3130000000320526
 50
332.4243281065191127
 51
334.3756718846825038
  0
ARC
  5
B093
  8
0
 10
302.9063073260933834
 20
7.6900666134522657
 30
0.0
 40
0.3130000000320526
 50
343.024328122663519
 51
344.9756718843789258
  0
ARC
  5
B094
  8
0
 10
302.9063073260933834
 20
7.6900666134522657
 30
0.0
 40
0.3130000000320526
 50
353.6243281209527254
 51
355.5756718721717107
  0
ARC
  5
B095
  8
0
 10
302.9063073260933834
 20
7.6900666134522657
 30
0.0
 40
0.3130000000320526
 50
4.424328127828244
 51
6.375671879047565
  0
ARC
  5
B096
  8
0
 10
302.9063073260933834
 20
7.6900666134522657
 30
0.0
 40
0.3130000000320526
 50
15.0243281156215804
 51
16.9756718773370388
  0
ARC
  5
B097
  8
0
 10
302.9063073260933834
 20
7.6900666134522657
 30
0.0
 40
0.3130000000320526
 50
25.6243281153151692
 51
27.5756718934806209
  0
ARC
  5
B098
  8
0
 10
302.9063073260933834
 20
7.6900666134522657
 30
0.0
 40
0.3130000000320526
 50
36.2243281229750806
 51
38.1756718874914966
  0
ARC
  5
B099
  8
0
 10
302.9063073260933834
 20
7.6900666134522657
 30
0.0
 40
0.3130000000320526
 50
46.8243281218362171
 51
48.7756718845137769
  0
ARC
  5
B09A
  8
0
 10
302.9063073260933834
 20
7.6900666134522657
 30
0.0
 40
0.3130000000320526
 50
57.424328118573662
 51
59.3756718763376483
  0
ARC
  5
B09B
  8
0
 10
302.9063073260933834
 20
7.6900666134522657
 30
0.0
 40
0.3130000000320526
 50
68.0243281141735565
 51
69.975671881624649
  0
ARC
  5
B09C
  8
0
 10
302.9063073260933834
 20
7.6900666134522657
 30
0.0
 40
0.3130000000320526
 50
78.624328120329622
 51
80.5756718869466653
  0
ARC
  5
B09D
  8
0
 10
302.9063073260933834
 20
7.6900666134522657
 30
0.0
 40
0.3130000000320526
 50
89.2274719575097208
 51
90.772528042490265
  0
ARC
  5
B09E
  8
0
 10
302.9063073260933834
 20
7.6900666134522657
 30
0.0
 40
0.3130000000320526
 50
99.4243281130533347
 51
101.3756718796704064
  0
ARC
  5
B09F
  8
0
 10
302.9063073260933834
 20
7.6900666134522657
 30
0.0
 40
0.3130000000320526
 50
110.0243281183753936
 51
111.9756718858264009
  0
ARC
  5
B0A0
  8
0
 10
302.9063073260933834
 20
7.6900666134522657
 30
0.0
 40
0.3130000000320526
 50
120.6243281236622948
 51
122.5756718814265014
  0
ARC
  5
B0A1
  8
0
 10
302.9063073260933834
 20
7.6900666134522657
 30
0.0
 40
0.3130000000320526
 50
131.2243281154862018
 51
133.1756718781637971
  0
ARC
  5
B0A2
  8
0
 10
302.9063073260933834
 20
7.6900666134522657
 30
0.0
 40
0.3130000000320526
 50
141.8243281125085957
 51
143.7756718770249051
  0
ARC
  5
B0A3
  8
0
 10
302.6523907592113005
 20
7.8897047287596811
 30
0.0
 40
0.01
 50
321.8243281125127169
 51
52.8000005166953201
  0
ARC
  5
B0A4
  8
0
 10
302.9063073260933834
 20
7.6900666134522657
 30
0.0
 40
0.3130000000320526
 50
152.4243281065193969
 51
154.3756718846842944
  0
ARC
  5
B0A5
  8
0
 10
302.9063073260933834
 20
7.6900666134522657
 30
0.0
 40
0.3130000000320526
 50
163.0243281226636043
 51
164.9756718843783005
  0
ARC
  5
B0A6
  8
0
 10
302.5842698379623812
 20
7.6651496260952046
 30
0.0
 40
0.01
 50
4.424328127832303
 51
95.3999994974939654
  0
ARC
  5
B0A7
  8
0
 10
302.5853050294035143
 20
7.654198444549281
 30
0.0
 40
0.01
 50
275.400000752516803
 51
6.3756718790512661
  0
ARC
  5
B0A8
  8
0
 10
302.5943488087178252
 20
7.606335594961525
 30
0.0
 40
0.01
 50
15.0243281156175907
 51
106.0000007761904044
  0
ARC
  5
B0A9
  8
0
 10
302.5973808196296204
 20
7.5957617163115732
 30
0.0
 40
0.01
 50
285.9999999404378741
 51
16.9756718773331485
  0
ARC
  5
B0AA
  8
0
 10
302.6150747058354114
 20
7.5503792449525822
 30
0.0
 40
0.01
 50
25.6243281153186011
 51
116.6000002802932016
  0
ARC
  5
B0AB
  8
0
 10
302.6200000558412739
 20
7.5405435482699898
 30
0.0
 40
0.01
 50
296.5999995133770994
 51
27.5756718934808092
  0
ARC
  5
B0AC
  8
0
 10
302.6457401689409039
 20
7.4991903272504841
 30
0.0
 40
0.01
 50
36.224328122977397
 51
127.1999997491155057
  0
ARC
  5
B0AD
  8
0
 10
302.6523907592113005
 20
7.4904284981448512
 30
0.0
 40
0.01
 50
307.1999994832958123
 51
38.1756718874912622
  0
ARC
  5
B0AE
  8
0
 10
302.6852986071430109
 20
7.4545158839510304
 30
0.0
 40
0.01
 50
46.8243281218323588
 51
137.8000000990714113
  0
ARC
  5
B0AF
  8
0
 10
302.6934474577021774
 20
7.4471269574691643
 30
0.0
 40
0.01
 50
317.8000004654834925
 51
48.7756718845138195
  0
ARC
  5
B0B0
  8
0
 10
302.7323999185808248
 20
7.417880622569311
 30
0.0
 40
0.01
 50
57.4243281185705001
 51
148.4000001167277105
  0
ARC
  5
B0B1
  8
0
 10
302.7417689148322211
 20
7.4121167776179187
 30
0.0
 40
0.01
 50
328.4000004414799037
 51
59.375671876334188
  0
ARC
  5
B0B2
  8
0
 10
302.7854365683880928
 20
7.3905348789858847
 30
0.0
 40
0.01
 50
68.024328114176825
 51
159.0000003407863005
  0
ARC
  5
B0B3
  8
0
 10
302.795705953104175
 20
7.3865928315309954
 30
0.0
 40
0.01
 50
338.9999998709026841
 51
69.9756718816278891
  0
ARC
  5
B0B4
  8
0
 10
302.8425984528067829
 20
7.3734119443168611
 30
0.0
 40
0.01
 50
78.6243281203296362
 51
169.5999998589867062
  0
ARC
  5
B0B5
  8
0
 10
302.8534177390073978
 20
7.371426233715848
 30
0.0
 40
0.01
 50
349.5999996592022967
 51
80.5756718869466937
  0
ARC
  5
B0B6
  8
0
 10
302.9019523980434201
 20
7.367095972956295
 30
0.0
 40
0.01
 50
89.2274719575097208
 51
180.0
  0
ARC
  5
B0B7
  8
0
 10
302.9106622541434035
 20
7.367095972956295
 30
0.0
 40
0.01
 50
0.0
 51
90.772528042490265
  0
ARC
  5
B0B8
  8
0
 10
302.9591969131794258
 20
7.371426233715848
 30
0.0
 40
0.01
 50
99.424328113056589
 51
190.4000003408081909
  0
ARC
  5
B0B9
  8
0
 10
302.9700161993799838
 20
7.3734119443168611
 30
0.0
 40
0.01
 50
10.4000001410244902
 51
101.3756718796736038
  0
ARC
  5
B0BA
  8
0
 10
303.0169086990825917
 20
7.3865928315309954
 30
0.0
 40
0.01
 50
110.0243281183753936
 51
201.0000001290997886
  0
ARC
  5
B0BB
  8
0
 10
303.0271780837986739
 20
7.3905348789858847
 30
0.0
 40
0.01
 50
20.9999996591948701
 51
111.9756718858265003
  0
ARC
  5
B0BC
  8
0
 10
303.0708457373546025
 20
7.4121167776179187
 30
0.0
 40
0.01
 50
120.6243281236658049
 51
211.5999995585013096
  0
ARC
  5
B0BD
  8
0
 10
303.0802147336061125
 20
7.417880622569311
 30
0.0
 40
0.01
 50
31.5999998832793985
 51
122.5756718814261035
  0
ARC
  5
B0BE
  8
0
 10
303.1191671944845893
 20
7.4471269574691616
 30
0.0
 40
0.01
 50
131.2243281154869976
 51
222.199999534512898
  0
ARC
  5
B0BF
  8
0
 10
303.1273160450439264
 20
7.4545158839510304
 30
0.0
 40
0.01
 50
42.1999999009254978
 51
133.1756718781676057
  0
ARC
  5
B0C0
  8
0
 10
303.1602238929755231
 20
7.4904284981448512
 30
0.0
 40
0.01
 50
141.8243281125126884
 51
232.8000005166994129
  0
ARC
  5
B0C1
  8
0
 10
303.1668744832459197
 20
7.4991903272504814
 30
0.0
 40
0.01
 50
52.8000002508804087
 51
143.7756718770245072
  0
ARC
  5
B0C2
  8
0
 10
303.1926145963454928
 20
7.5405435482699881
 30
0.0
 40
0.01
 50
152.4243281065182885
 51
243.4000004866229006
  0
ARC
  5
B0C3
  8
0
 10
303.1975399463514123
 20
7.5503792449525822
 30
0.0
 40
0.01
 50
63.399999719702997
 51
154.3756718846813953
  0
ARC
  5
B0C4
  8
0
 10
303.2152338325573169
 20
7.5957617163115714
 30
0.0
 40
0.01
 50
163.0243281226667875
 51
254.0000000595620122
  0
ARC
  5
B0C5
  8
0
 10
303.2182658434689984
 20
7.6063355949615277
 30
0.0
 40
0.01
 50
73.9999992238064408
 51
164.9756718843823933
  0
ARC
  5
B0C6
  8
0
 10
303.227309622783423
 20
7.6541984445492801
 30
0.0
 40
0.01
 50
173.6243281209486895
 51
264.5999992474833107
  0
ARC
  5
B0C7
  8
0
 10
303.2283448142244993
 20
7.665149626095201
 30
0.0
 40
0.01
 50
84.6000005025060346
 51
175.5756718721677885
  0
ARC
  5
B0C8
  8
0
 10
303.2283448142244993
 20
7.7149836008093313
 30
0.0
 40
0.01
 50
184.4243281278320126
 51
275.3999994974906826
  0
ARC
  5
B0C9
  8
0
 10
303.227309622783423
 20
7.7259347823552531
 30
0.0
 40
0.01
 50
95.4000007525232832
 51
186.3756718790409082
  0
ARC
  5
B0CA
  8
0
 10
303.2182658434689984
 20
7.7737976319430038
 30
0.0
 40
0.01
 50
195.024328115628208
 51
286.0000007761935876
  0
ARC
  5
B0CB
  8
0
 10
303.2152338325573169
 20
7.7843715105929654
 30
0.0
 40
0.01
 50
105.999999940431394
 51
196.9756718773423074
  0
ARC
  5
B0CC
  8
0
 10
303.1975399463514123
 20
7.8297539819519448
 30
0.0
 40
0.01
 50
205.6243281153176952
 51
296.6000002802966264
  0
ARC
  5
B0CD
  8
0
 10
303.1926145963454928
 20
7.8395896786345416
 30
0.0
 40
0.01
 50
116.5999995133808937
 51
207.5756718934817115
  0
ARC
  5
B0CE
  8
0
 10
303.1668744832459197
 20
7.8809428996540483
 30
0.0
 40
0.01
 50
216.224328122977397
 51
307.1999997491041086
  0
ARC
  5
B0CF
  8
0
 10
303.1602238929755231
 20
7.8897047287596811
 30
0.0
 40
0.01
 50
127.1999994833006014
 51
218.1756718874912053
  0
ARC
  5
B0D0
  8
0
 10
303.1273160450439264
 20
7.9256173429535037
 30
0.0
 40
0.01
 50
226.8243281218371123
 51
317.800000099080421
  0
ARC
  5
B0D1
  8
0
 10
303.1191671944845893
 20
7.9330062694353698
 30
0.0
 40
0.01
 50
137.800000465487102
 51
228.7756718845137982
  0
ARC
  5
B0D2
  8
0
 10
303.0802147336061125
 20
7.9622526043352231
 30
0.0
 40
0.01
 50
237.4243281185698891
 51
328.4000001167182177
  0
ARC
  5
B0D3
  8
0
 10
303.0708457373546025
 20
7.9680164492866146
 30
0.0
 40
0.01
 50
148.4000004414920966
 51
239.3756718763376909
  0
ARC
  5
B0D4
  8
0
 10
303.0271780837986739
 20
7.9895983479186468
 30
0.0
 40
0.01
 50
248.024328114173187
 51
339.0000003407949976
  0
ARC
  5
B0D5
  8
0
 10
303.0169086990825917
 20
7.993540395373536
 30
0.0
 40
0.01
 50
158.9999998708836983
 51
249.9756718816281023
  0
ARC
  5
B0D6
  8
0
 10
302.9700161993799838
 20
8.006721282587673
 30
0.0
 40
0.01
 50
258.6243281203329047
 51
349.5999998589866209
  0
ARC
  5
B0D7
  8
0
 10
302.9591969131794258
 20
8.0087069931886852
 30
0.0
 40
0.01
 50
169.5999996592117043
 51
260.5756718869466795
  0
ARC
  5
B0D8
  8
0
 10
302.9106622541434035
 20
8.0130372539482373
 30
0.0
 40
0.01
 50
269.2274719575096924
 51
0.0
  0
ARC
  5
B0D9
  8
0
 10
302.9019523980434201
 20
8.0130372539482373
 30
0.0
 40
0.01
 50
180.0
 51
270.7725280424903076
  0
ARC
  5
B0DA
  8
0
 10
302.8534177390073978
 20
8.0087069931886852
 30
0.0
 40
0.01
 50
279.4243281130533205
 51
10.4000003408087096
  0
ARC
  5
B0DB
  8
0
 10
302.8425984528067829
 20
8.006721282587673
 30
0.0
 40
0.01
 50
190.4000001410128959
 51
281.3756718796670953
  0
ARC
  5
B0DC
  8
0
 10
302.795705953104175
 20
7.993540395373536
 30
0.0
 40
0.01
 50
290.0243281183721251
 51
21.0000001290957705
  0
ARC
  5
B0DD
  8
0
 10
302.7854365683880928
 20
7.9895983479186468
 30
0.0
 40
0.01
 50
200.9999996592042919
 51
291.9756718858300815
  0
ARC
  5
B0DE
  8
0
 10
302.7417689148322211
 20
7.9680164492866146
 30
0.0
 40
0.01
 50
300.6243281236622238
 51
31.5999995585255817
  0
ARC
  5
B0DF
  8
0
 10
302.7323999185808248
 20
7.9622526043352231
 30
0.0
 40
0.01
 50
211.5999998832853919
 51
302.5756718814300825
  0
ARC
  5
B0E0
  8
0
 10
302.6934474577021774
 20
7.9330062694353698
 30
0.0
 40
0.01
 50
311.2243281154853207
 51
42.1999995345169978
  0
ARC
  5
B0E1
  8
0
 10
302.6852986071430109
 20
7.9256173429535037
 30
0.0
 40
0.01
 50
222.1999999009204885
 51
313.1756718781629161
  0
ARC
  5
B0E2
  8
0
 10
302.6457401689409039
 20
7.8809428996540483
 30
0.0
 40
0.01
 50
232.8000002508796058
 51
323.7756718770235125
  0
ARC
  5
B0E3
  8
0
 10
302.6200000558412739
 20
7.8395896786345416
 30
0.0
 40
0.01
 50
332.4243281065183169
 51
63.4000004866262898
  0
ARC
  5
B0E4
  8
0
 10
302.6150747058354114
 20
7.8297539819519493
 30
0.0
 40
0.01
 50
243.3999997197105927
 51
334.3756718846822764
  0
ARC
  5
B0E5
  8
0
 10
302.5973808196296204
 20
7.784371510592961
 30
0.0
 40
0.01
 50
343.0243281226562999
 51
74.0000000595620122
  0
ARC
  5
B0E6
  8
0
 10
302.5943488087178252
 20
7.7737976319430082
 30
0.0
 40
0.01
 50
253.9999992238095956
 51
344.9756718843722751
  0
ARC
  5
B0E7
  8
0
 10
302.5853050294035143
 20
7.7259347823552531
 30
0.0
 40
0.01
 50
353.6243281209590918
 51
84.5999992474832254
  0
ARC
  5
B0E8
  8
0
 10
302.5842698379623812
 20
7.7149836008093313
 30
0.0
 40
0.01
 50
264.6000005025060204
 51
355.5756718721677885
  0
LINE
  5
B0E9
  8
0
 10
302.5862461126674248
 20
7.7358904019889252
 30
0.0
 11
302.5762541254903795
 21
7.7368349229983373
 31
0.0
  0
LINE
  5
B0EA
  8
0
 10
302.5915924350293835
 20
7.7641850150209626
 30
0.0
 11
302.5819447040364025
 21
7.766951457507691
 31
0.0
  0
LINE
  5
B0EB
  8
0
 10
302.6001371931777157
 20
7.7939841275552091
 30
0.0
 11
302.59048946191092
 21
7.7967505699681601
 31
0.0
  0
LINE
  5
B0EC
  8
0
 10
302.6105971149132756
 20
7.820812439605457
 30
0.0
 11
302.6016229097253927
 21
7.8253063868603716
 31
0.0
  0
LINE
  5
B0ED
  8
0
 10
302.6244776466438111
 20
7.8485312210409681
 30
0.0
 11
302.6155034414603051
 21
7.8530251681434251
 31
0.0
  0
LINE
  5
B0EE
  8
0
 10
302.6396941778272094
 20
7.8729776004473351
 30
0.0
 11
302.6316997817842775
 21
7.8790456772616224
 31
0.0
  0
LINE
  5
B0EF
  8
0
 10
302.6584367502881037
 20
7.8976700279944474
 30
0.0
 11
302.6504423544250812
 21
7.9037381046137583
 31
0.0
  0
LINE
  5
B0F0
  8
0
 10
302.6778905611683967
 20
7.9189001370730843
 30
0.0
 11
302.6711488177530214
 21
7.9263352441785058
 31
0.0
  0
LINE
  5
B0F1
  8
0
 10
302.7008555037197084
 20
7.9397234752684147
 30
0.0
 11
302.6941137602258891
 21
7.9471585825557538
 31
0.0
  0
LINE
  5
B0F2
  8
0
 10
302.7238826492286989
 20
7.9570127452928707
 30
0.0
 11
302.7186236493109845
 21
7.9655611276939133
 31
0.0
  0
LINE
  5
B0F3
  8
0
 10
302.7502861842140192
 20
7.9732563082806891
 30
0.0
 11
302.7450271842458278
 21
7.9818046908725711
 31
0.0
  0
LINE
  5
B0F4
  8
0
 10
302.7761007641017841
 20
7.986014668478723
 30
0.0
 11
302.772503993733892
 21
7.9953845757989539
 31
0.0
  0
LINE
  5
B0F5
  8
0
 10
302.8050417573610957
 20
7.9971240748900243
 30
0.0
 11
302.8014449868903739
 21
8.0064939822484078
 31
0.0
  0
LINE
  5
B0F6
  8
0
 10
302.830950952359899
 20
8.0147877351471486
 30
0.0
 11
302.832762738103213
 21
8.0049160911109603
 31
0.0
  0
LINE
  5
B0F7
  8
0
 10
302.861441667956683
 20
8.0203838285681002
 30
0.0
 11
302.8632534537047718
 21
8.0105121846996958
 31
0.0
  0
LINE
  5
B0F8
  8
0
 10
302.8919523980433723
 20
8.0231420214316707
 30
0.0
 11
302.8919523980433723
 21
8.0130372539482373
 31
0.0
  0
LINE
  5
B0F9
  8
0
 10
302.583328754916522
 20
7.6751052457494859
 30
0.0
 11
302.5733367678000718
 21
7.6741607249666224
 31
0.0
  0
LINE
  5
B0FA
  8
0
 10
302.5862461126674248
 20
7.6442428249156089
 30
0.0
 11
302.5762541254903795
 21
7.643298303906195
 31
0.0
  0
LINE
  5
B0FB
  8
0
 10
302.5915924350293835
 20
7.6159482118835689
 30
0.0
 11
302.5819447040364025
 21
7.6131817693968422
 31
0.0
  0
LINE
  5
B0FC
  8
0
 10
302.6001371931777157
 20
7.5861490993493241
 30
0.0
 11
302.59048946191092
 21
7.5833826569363723
 31
0.0
  0
LINE
  5
B0FD
  8
0
 10
302.6105971149132756
 20
7.5593207872990726
 30
0.0
 11
302.6016229097253927
 21
7.5548268400441598
 31
0.0
  0
LINE
  5
B0FE
  8
0
 10
302.6244776466438111
 20
7.531602005863566
 30
0.0
 11
302.6155034414603051
 21
7.5271080587611081
 31
0.0
  0
LINE
  5
B0FF
  8
0
 10
302.6396941778272094
 20
7.507155626457199
 30
0.0
 11
302.6316997817842775
 21
7.5010875496429099
 31
0.0
  0
LINE
  5
B100
  8
0
 10
302.6584367502881037
 20
7.482463198910084
 30
0.0
 11
302.6504423544250812
 21
7.4763951222907759
 31
0.0
  0
LINE
  5
B101
  8
0
 10
302.6778905611683967
 20
7.4612330898314498
 30
0.0
 11
302.6711488177530214
 21
7.4537979827260283
 31
0.0
  0
LINE
  5
B102
  8
0
 10
302.7008555037197084
 20
7.4404097516361167
 30
0.0
 11
302.6941137602258891
 21
7.4329746443487776
 31
0.0
  0
LINE
  5
B103
  8
0
 10
302.7238826492286989
 20
7.4231204816116589
 30
0.0
 11
302.7186236493109845
 21
7.4145720992106208
 31
0.0
  0
LINE
  5
B104
  8
0
 10
302.7502861842140192
 20
7.406876918623845
 30
0.0
 11
302.7450271842458278
 21
7.3983285360319586
 31
0.0
  0
LINE
  5
B105
  8
0
 10
302.7761007641017841
 20
7.3941185584258111
 30
0.0
 11
302.772503993733892
 21
7.3847486511055784
 31
0.0
  0
LINE
  5
B106
  8
0
 10
302.8050417573610957
 20
7.3830091520145071
 30
0.0
 11
302.8014449868903739
 21
7.373639244656121
 31
0.0
  0
LINE
  5
B107
  8
0
 10
302.830950952359899
 20
7.3653454917573837
 30
0.0
 11
302.832762738103213
 21
7.3752171357935739
 31
0.0
  0
LINE
  5
B108
  8
0
 10
302.861441667956683
 20
7.359749398336433
 30
0.0
 11
302.8632534537047718
 21
7.3696210422048392
 31
0.0
  0
LINE
  5
B109
  8
0
 10
302.8919523980433723
 20
7.3569912054728617
 30
0.0
 11
302.8919523980433723
 21
7.367095972956295
 31
0.0
  0
LINE
  5
B10A
  8
0
 10
303.2292858972703016
 20
7.7050279811550464
 30
0.0
 11
303.239277884386695
 21
7.7059725019379091
 31
0.0
  0
LINE
  5
B10B
  8
0
 10
303.2263685395195125
 20
7.7358904019889252
 30
0.0
 11
303.2363605266963873
 21
7.7368349229983373
 31
0.0
  0
LINE
  5
B10C
  8
0
 10
303.2210222171573832
 20
7.7641850150209626
 30
0.0
 11
303.2306699481504211
 21
7.766951457507691
 31
0.0
  0
LINE
  5
B10D
  8
0
 10
303.2124774590091079
 20
7.7939841275552117
 30
0.0
 11
303.2221251902760173
 21
7.7967505699681601
 31
0.0
  0
LINE
  5
B10E
  8
0
 10
303.2020175372736048
 20
7.8208124396054606
 30
0.0
 11
303.2109917424613741
 21
7.8253063868603761
 31
0.0
  0
LINE
  5
B10F
  8
0
 10
303.1881370055431262
 20
7.8485312210409637
 30
0.0
 11
303.1971112107265185
 21
7.8530251681434251
 31
0.0
  0
LINE
  5
B110
  8
0
 10
303.1729204743596142
 20
7.8729776004473306
 30
0.0
 11
303.1809148704024892
 21
7.8790456772616224
 31
0.0
  0
LINE
  5
B111
  8
0
 10
303.1541779018987768
 20
7.8976700279944474
 30
0.0
 11
303.1621722977617992
 21
7.9037381046137583
 31
0.0
  0
LINE
  5
B112
  8
0
 10
303.1347240910184269
 20
7.9189001370730843
 30
0.0
 11
303.1414658344339159
 21
7.9263352441785058
 31
0.0
  0
LINE
  5
B113
  8
0
 10
303.1117591484671721
 20
7.9397234752684147
 30
0.0
 11
303.1185008919608777
 21
7.9471585825557538
 31
0.0
  0
LINE
  5
B114
  8
0
 10
303.0887320029581815
 20
7.9570127452928707
 30
0.0
 11
303.0939910028758959
 21
7.9655611276939089
 31
0.0
  0
LINE
  5
B115
  8
0
 10
303.0623284679728044
 20
7.9732563082806847
 30
0.0
 11
303.0675874679411095
 21
7.9818046908725711
 31
0.0
  0
LINE
  5
B116
  8
0
 10
303.0365138880850964
 20
7.986014668478723
 30
0.0
 11
303.0401106584528748
 21
7.9953845757989539
 31
0.0
  0
LINE
  5
B117
  8
0
 10
303.0075728948257279
 20
7.997124074890027
 30
0.0
 11
303.0111696652963928
 21
8.0064939822484114
 31
0.0
  0
LINE
  5
B118
  8
0
 10
302.9816636998269814
 20
8.0147877351471486
 30
0.0
 11
302.9798519140836106
 21
8.0049160911109603
 31
0.0
  0
LINE
  5
B119
  8
0
 10
302.9511729842300838
 20
8.0203838285681037
 30
0.0
 11
302.9493611984821086
 21
8.0105121846996923
 31
0.0
  0
LINE
  5
B11A
  8
0
 10
302.9206622541435081
 20
8.0231420214316707
 30
0.0
 11
302.9206622541435081
 21
8.0130372539482373
 31
0.0
  0
LINE
  5
B11B
  8
0
 10
303.2292858972703016
 20
7.6751052457494851
 30
0.0
 11
303.239277884386695
 21
7.6741607249666224
 31
0.0
  0
LINE
  5
B11C
  8
0
 10
303.2263685395195125
 20
7.6442428249156089
 30
0.0
 11
303.2363605266963873
 21
7.643298303906195
 31
0.0
  0
LINE
  5
B11D
  8
0
 10
303.2210222171573832
 20
7.6159482118835689
 30
0.0
 11
303.2306699481504211
 21
7.6131817693968422
 31
0.0
  0
LINE
  5
B11E
  8
0
 10
303.2124774590091079
 20
7.5861490993493224
 30
0.0
 11
303.2221251902760173
 21
7.5833826569363696
 31
0.0
  0
LINE
  5
B11F
  8
0
 10
303.2020175372736048
 20
7.5593207872990709
 30
0.0
 11
303.2109917424613741
 21
7.5548268400441598
 31
0.0
  0
LINE
  5
B120
  8
0
 10
303.1881370055431262
 20
7.531602005863566
 30
0.0
 11
303.1971112107265185
 21
7.5271080587611081
 31
0.0
  0
LINE
  5
B121
  8
0
 10
303.1729204743596142
 20
7.5071556264571981
 30
0.0
 11
303.1809148704024892
 21
7.5010875496429072
 31
0.0
  0
LINE
  5
B122
  8
0
 10
303.1541779018987768
 20
7.4824631989100849
 30
0.0
 11
303.1621722977617992
 21
7.4763951222907759
 31
0.0
  0
LINE
  5
B123
  8
0
 10
303.1347240910184269
 20
7.4612330898314498
 30
0.0
 11
303.1414658344339159
 21
7.4537979827260257
 31
0.0
  0
LINE
  5
B124
  8
0
 10
303.1117591484671721
 20
7.4404097516361167
 30
0.0
 11
303.1185008919608777
 21
7.4329746443487776
 31
0.0
  0
LINE
  5
B125
  8
0
 10
303.0887320029581247
 20
7.4231204816116607
 30
0.0
 11
303.0939910028758959
 21
7.4145720992106208
 31
0.0
  0
LINE
  5
B126
  8
0
 10
303.0623284679728044
 20
7.4068769186238486
 30
0.0
 11
303.0675874679411095
 21
7.3983285360319568
 31
0.0
  0
LINE
  5
B127
  8
0
 10
303.0365138880850964
 20
7.3941185584258067
 30
0.0
 11
303.0401106584528748
 21
7.3847486511055802
 31
0.0
  0
LINE
  5
B128
  8
0
 10
303.0075728948257279
 20
7.3830091520145071
 30
0.0
 11
303.0111696652963928
 21
7.3736392446561227
 31
0.0
  0
LINE
  5
B129
  8
0
 10
302.9816636998269814
 20
7.3653454917573837
 30
0.0
 11
302.9798519140836106
 21
7.3752171357935756
 31
0.0
  0
LINE
  5
B12A
  8
0
 10
302.9511729842300838
 20
7.3597493983364357
 30
0.0
 11
302.9493611984821086
 21
7.3696210422048374
 31
0.0
  0
LINE
  5
B12B
  8
0
 10
302.9206622541435081
 20
7.3569912054728617
 30
0.0
 11
302.9206622541435081
 21
7.367095972956295
 31
0.0
  0
LINE
  5
B12C
  8
0
 10
313.7813073260934971
 20
7.3150666134353912
 30
0.0
 11
313.7813073260934971
 21
8.0650666134691402
 31
0.0
  0
LINE
  5
B12D
  8
0
 10
313.641307326093397
 20
7.4550666134426073
 30
0.0
 11
313.641307326093397
 21
7.925066613461925
 31
0.0
  0
ARC
  5
B12E
  8
0
 10
310.9063073260934971
 20
7.6900666134522657
 30
0.0
 40
1.0575000000000001
 50
20.7695397355885305
 51
339.2304602644113061
  0
ARC
  5
B12F
  8
0
 10
310.9063073260934971
 20
7.6900666134522657
 30
0.0
 40
0.875
 50
25.3769335263758684
 51
334.6230664736240215
  0
ARC
  5
B130
  8
0
 10
310.9063073260934971
 20
7.6900666134522657
 30
0.0
 40
0.5309999999999997
 50
47.4706240501427601
 51
312.5293759498571831
  0
ARC
  5
B131
  8
0
 10
310.9063073260934971
 20
7.6900666134522657
 30
0.0
 40
0.3899999999999988
 50
41.0775284705300621
 51
318.9224715294697035
  0
LINE
  5
B132
  8
0
 10
313.7813073261103227
 20
8.0650666134691402
 30
0.0
 11
311.3071564248641039
 21
8.0650666134691402
 31
0.0
  0
LINE
  5
B133
  8
0
 10
313.7813073260934971
 20
7.3150666134353912
 30
0.0
 11
311.3071564248641039
 21
7.3150666134353912
 31
0.0
  0
LINE
  5
B134
  8
0
 10
313.641307326093397
 20
7.925066613461925
 30
0.0
 11
311.2470344896631218
 21
7.925066613461925
 31
0.0
  0
LINE
  5
B135
  8
0
 10
313.641307326093397
 20
7.4550666134426073
 30
0.0
 11
311.2470344896631218
 21
7.4550666134426073
 31
0.0
  0
ARC
  5
B136
  8
0
 10
311.3071564248641039
 20
8.1270666134692
 30
0.0
 40
0.062
 50
227.4706240501656112
 51
269.9999999999869829
  0
ARC
  5
B137
  8
0
 10
311.2470344896631218
 20
7.9870666134617991
 30
0.0
 40
0.062
 50
221.077528470467513
 51
270.0000000000259774
  0
ARC
  5
B138
  8
0
 10
311.2470344896631218
 20
7.3930666134427261
 30
0.0
 40
0.062
 50
89.9999999999739515
 51
138.9224715295277974
  0
ARC
  5
B139
  8
0
 10
311.3071564248641039
 20
7.2530666134353359
 30
0.0
 40
0.062
 50
90.0000000000065086
 51
132.5293759498308077
  0
ARC
  5
B13A
  8
0
 10
310.9063073260934971
 20
7.6900666134522657
 30
0.0
 40
0.3439646537000005
 50
358.9791035444545741
 51
1.0208964555453739
  0
ARC
  5
B13B
  8
0
 10
310.9063073260934971
 20
7.6900666134522657
 30
0.0
 40
0.3439646537000005
 50
348.3791035177522986
 51
350.2208964413413241
  0
ARC
  5
B13C
  8
0
 10
310.9063073260934971
 20
7.6900666134522657
 30
0.0
 40
0.3439646537000005
 50
327.1791035415777174
 51
329.0208964646922141
  0
ARC
  5
B13D
  8
0
 10
310.9063073260934971
 20
7.6900666134522657
 30
0.0
 40
0.3439646537000005
 50
337.7791035329952933
 51
339.620896467476598
  0
ARC
  5
B13E
  8
0
 10
310.9063073260934971
 20
7.6900666134522657
 30
0.0
 40
0.3439646537000005
 50
316.5791035321345817
 51
318.420896471407616
  0
ARC
  5
B13F
  8
0
 10
310.9063073260934971
 20
7.6900666134522657
 30
0.0
 40
0.3439646537000005
 50
305.9791035347669776
 51
307.8208964446924938
  0
ARC
  5
B140
  8
0
 10
310.9063073260934971
 20
7.6900666134522657
 30
0.0
 40
0.3439646537000005
 50
295.3791035322792027
 51
297.2208964533446078
  0
ARC
  5
B141
  8
0
 10
310.9063073260934971
 20
7.6900666134522657
 30
0.0
 40
0.3439646537000005
 50
284.7791035408312723
 51
286.6208964654155125
  0
ARC
  5
B142
  8
0
 10
310.9063073260934971
 20
7.6900666134522657
 30
0.0
 40
0.3439646537000005
 50
274.1821026006018087
 51
276.0208964666358042
  0
ARC
  5
B143
  8
0
 10
310.9063073260934971
 20
7.6900666134522657
 30
0.0
 40
0.3439646537000005
 50
263.9791035333641958
 51
265.817897399398305
  0
ARC
  5
B144
  8
0
 10
310.9063073260934971
 20
7.6900666134522657
 30
0.0
 40
0.3439646537000005
 50
253.3791035345844875
 51
255.2208964591686993
  0
ARC
  5
B145
  8
0
 10
310.9063073260934971
 20
7.6900666134522657
 30
0.0
 40
0.3439646537000005
 50
242.7791035466553069
 51
244.6208964677207973
  0
ARC
  5
B146
  8
0
 10
310.9063073260934971
 20
7.6900666134522657
 30
0.0
 40
0.3439646537000005
 50
232.1791035553075062
 51
234.0208964652329939
  0
ARC
  5
B147
  8
0
 10
310.9063073260934971
 20
7.6900666134522657
 30
0.0
 40
0.3439646537000005
 50
221.5791035285928103
 51
223.4208964678651057
  0
ARC
  5
B148
  8
0
 10
310.9063073260934971
 20
7.6900666134522657
 30
0.0
 40
0.3439646537000005
 50
210.9791035353077007
 51
212.8208964584223111
  0
ARC
  5
B149
  8
0
 10
310.9063073260934971
 20
7.6900666134522657
 30
0.0
 40
0.3439646537000005
 50
200.3791035325214125
 51
202.2208964670053888
  0
ARC
  5
B14A
  8
0
 10
310.9063073260934971
 20
7.6900666134522657
 30
0.0
 40
0.3439646537000005
 50
189.7791035586581927
 51
191.6208964822477867
  0
ARC
  5
B14B
  8
0
 10
310.9063073260934971
 20
7.6900666134522657
 30
0.0
 40
0.3439646537000005
 50
178.9791035444548868
 51
181.0208964555453122
  0
ARC
  5
B14C
  8
0
 10
310.9063073260934971
 20
7.6900666134522657
 30
0.0
 40
0.3439646537000005
 50
168.3791035177528101
 51
170.2208964413412104
  0
ARC
  5
B14D
  8
0
 10
310.9063073260934971
 20
7.6900666134522657
 30
0.0
 40
0.3439646537000005
 50
157.7791035329942986
 51
159.6208964674789001
  0
ARC
  5
B14E
  8
0
 10
310.9063073260934971
 20
7.6900666134522657
 30
0.0
 40
0.3439646537000005
 50
147.1791035415776889
 51
149.0208964646922993
  0
ARC
  5
B14F
  8
0
 10
310.9063073260934971
 20
7.6900666134522657
 30
0.0
 40
0.3439646537000005
 50
136.5791035321344964
 51
138.4208964714073886
  0
ARC
  5
B150
  8
0
 10
310.9063073260934971
 20
7.6900666134522657
 30
0.0
 40
0.3439646537000005
 50
125.9791035347671055
 51
127.8208964446923943
  0
ARC
  5
B151
  8
0
 10
310.9063073260934971
 20
7.6900666134522657
 30
0.0
 40
0.3439646537000005
 50
115.3791035322792027
 51
117.2208964533445936
  0
ARC
  5
B152
  8
0
 10
310.9063073260934971
 20
7.6900666134522657
 30
0.0
 40
0.3439646537000005
 50
104.7791035408313007
 51
106.6208964654154983
  0
ARC
  5
B153
  8
0
 10
310.9063073260934971
 20
7.6900666134522657
 30
0.0
 40
0.3439646537000005
 50
94.1821026006017661
 51
96.0208964666358753
  0
ARC
  5
B154
  8
0
 10
310.9063073260934971
 20
7.6900666134522657
 30
0.0
 40
0.3439646537000005
 50
83.9791035333641247
 51
85.8178973993982339
  0
ARC
  5
B155
  8
0
 10
310.9063073260934971
 20
7.6900666134522657
 30
0.0
 40
0.3439646537000005
 50
73.3791035345844875
 51
75.2208964591687135
  0
ARC
  5
B156
  8
0
 10
310.9063073260934971
 20
7.6900666134522657
 30
0.0
 40
0.3439646537000005
 50
62.7791035466553566
 51
64.6208964677207689
  0
ARC
  5
B157
  8
0
 10
310.9063073260934971
 20
7.6900666134522657
 30
0.0
 40
0.3439646537000005
 50
52.1791035553075417
 51
54.0208964652330295
  0
ARC
  5
B158
  8
0
 10
310.9063073260934971
 20
7.6900666134522657
 30
0.0
 40
0.3439646537000005
 50
41.5791035285925474
 51
43.4208964678655533
  0
ARC
  5
B159
  8
0
 10
310.9063073260934971
 20
7.6900666134522657
 30
0.0
 40
0.3439646537000005
 50
30.9791035353077504
 51
32.8208964584222613
  0
ARC
  5
B15A
  8
0
 10
310.9063073260934971
 20
7.6900666134522657
 30
0.0
 40
0.3439646537000005
 50
20.3791035325211212
 51
22.2208964670056908
  0
ARC
  5
B15B
  8
0
 10
310.9063073260934971
 20
7.6900666134522657
 30
0.0
 40
0.3439646537000005
 50
9.7791035586576402
 51
11.6208964822476997
  0
ARC
  5
B15C
  8
0
 10
311.2354194434324768
 20
7.6333426842725229
 30
0.0
 40
0.01
 50
350.2208964413385957
 51
84.5999992474832254
  0
ARC
  5
B15D
  8
0
 10
311.233426321838806
 20
7.6227943863188834
 30
0.0
 40
0.01
 50
253.9999992238062134
 51
348.3791035177504227
  0
ARC
  5
B15E
  8
0
 10
311.2193688167278083
 20
7.5737700399741188
 30
0.0
 40
0.01
 50
339.6208964674752906
 51
74.0000000595652239
  0
ARC
  5
B15F
  8
0
 10
311.2154693333835098
 20
7.563768382390653
 30
0.0
 40
0.01
 50
243.3999997197068126
 51
337.7791035329951228
  0
ARC
  5
B160
  8
0
 10
311.192633619924095
 20
7.5181665163546842
 30
0.0
 40
0.01
 50
329.0208964646938057
 51
63.4000004866224387
  0
ARC
  5
B161
  8
0
 10
311.1869608615162974
 20
7.5090528488496249
 30
0.0
 40
0.01
 50
232.8000002508844091
 51
327.1791035415783995
  0
ARC
  5
B162
  8
0
 10
311.1561263066849961
 20
7.4684298230560113
 30
0.0
 40
0.01
 50
318.4208964714056833
 51
52.8000005167034701
  0
ARC
  5
B163
  8
0
 10
311.1488738804084164
 20
7.460515188606446
 30
0.0
 40
0.01
 50
222.1999999009192095
 51
316.5791035321344111
  0
ARC
  5
B164
  8
0
 10
311.1110928459435172
 20
7.4262574385157327
 30
0.0
 40
0.01
 50
307.8208964446891969
 51
42.1999995345129477
  0
ARC
  5
B165
  8
0
 10
311.1025082722280217
 20
7.4198119582529731
 30
0.0
 40
0.01
 50
211.5999998832863014
 51
305.9791035347633965
  0
ARC
  5
B166
  8
0
 10
311.0590701985593114
 20
7.3930886770378867
 30
0.0
 40
0.01
 50
297.2208964533447215
 51
31.5999995585093707
  0
ARC
  5
B167
  8
0
 10
311.0494464627392972
 20
7.3883323305455022
 30
0.0
 40
0.01
 50
200.9999996592042919
 51
295.3791035322756784
  0
ARC
  5
B168
  8
0
 10
311.0018338610395858
 20
7.3700555651396309
 30
0.0
 40
0.01
 50
286.6208964654123861
 51
21.0000001291059597
  0
ARC
  5
B169
  8
0
 10
310.9914994145307219
 20
7.3671506832340974
 30
0.0
 40
0.01
 50
190.4000001410136917
 51
284.7791035408312723
  0
ARC
  5
B16A
  8
0
 10
310.9413372695327098
 20
7.3579442068254242
 30
0.0
 40
0.01
 50
276.0208964666358042
 51
10.4000003407989094
  0
ARC
  5
B16B
  8
0
 10
310.9306622541433853
 20
7.3569912054728617
 30
0.0
 40
0.01
 50
180.0
 51
274.1821026006018087
  0
ARC
  5
B16C
  8
0
 10
310.8819523980434951
 20
7.3569912054728617
 30
0.0
 40
0.01
 50
265.817897399398305
 51
0.0
  0
ARC
  5
B16D
  8
0
 10
310.8712773826541138
 20
7.3579442068254242
 30
0.0
 40
0.01
 50
169.5999996591812931
 51
263.9791035333641958
  0
ARC
  5
B16E
  8
0
 10
310.8211152376562154
 20
7.3671506832340974
 30
0.0
 40
0.01
 50
255.2208964591719962
 51
349.5999998589866777
  0
ARC
  5
B16F
  8
0
 10
310.8107807911472946
 20
7.3700555651396327
 30
0.0
 40
0.01
 50
158.9999998708908038
 51
253.3791035345844023
  0
ARC
  5
B170
  8
0
 10
310.7631681894475832
 20
7.3883323305455022
 30
0.0
 40
0.01
 50
244.620896467720911
 51
339.0000003408035241
  0
ARC
  5
B171
  8
0
 10
310.7535444536276259
 20
7.3930886770378894
 30
0.0
 40
0.01
 50
148.4000004415036926
 51
242.7791035466551932
  0
ARC
  5
B172
  8
0
 10
310.7101063799589156
 20
7.4198119582529731
 30
0.0
 40
0.01
 50
234.0208964652366035
 51
328.4000001167116238
  0
ARC
  5
B173
  8
0
 10
310.7015218062433064
 20
7.4262574385157327
 30
0.0
 40
0.01
 50
137.8000004654919906
 51
232.1791035553075062
  0
ARC
  5
B174
  8
0
 10
310.6637407717784072
 20
7.4605151886064478
 30
0.0
 40
0.01
 50
223.4208964678655889
 51
317.8000000990709282
  0
ARC
  5
B175
  8
0
 10
310.6564883455018276
 20
7.4684298230560087
 30
0.0
 40
0.01
 50
127.1999994832964944
 51
221.579103528594203
  0
ARC
  5
B176
  8
0
 10
310.625653790670583
 20
7.5090528488496249
 30
0.0
 40
0.01
 50
212.82089645842251
 51
307.1999997491033128
  0
ARC
  5
B177
  8
0
 10
310.6199810322626718
 20
7.5181665163546842
 30
0.0
 40
0.01
 50
116.5999995133770994
 51
210.9791035353061943
  0
ARC
  5
B178
  8
0
 10
310.5971453188033138
 20
7.5637683823906503
 30
0.0
 40
0.01
 50
202.2208964670049056
 51
296.6000002802928179
  0
ARC
  5
B179
  8
0
 10
310.5932458354590722
 20
7.573770039974125
 30
0.0
 40
0.01
 50
105.9999999404347051
 51
200.3791035325237999
  0
ARC
  5
B17A
  8
0
 10
310.5791883303480176
 20
7.6227943863188834
 30
0.0
 40
0.01
 50
191.620896482249492
 51
286.0000007761935876
  0
ARC
  5
B17B
  8
0
 10
310.5771952087544037
 20
7.6333426842725274
 30
0.0
 40
0.01
 50
95.4000007525167746
 51
189.7791035586612907
  0
ARC
  5
B17C
  8
0
 10
310.5723956847543263
 20
7.6841163446209073
 30
0.0
 40
0.01
 50
181.0208964555507976
 51
275.3999994974906826
  0
ARC
  5
B17D
  8
0
 10
310.5723956847543263
 20
7.6960168822836224
 30
0.0
 40
0.01
 50
84.6000005025060346
 51
178.9791035444592922
  0
ARC
  5
B17E
  8
0
 10
310.5771952087544037
 20
7.7467905426320094
 30
0.0
 40
0.01
 50
170.2208964413385957
 51
264.5999992474799001
  0
ARC
  5
B17F
  8
0
 10
310.5791883303480176
 20
7.7573388405856463
 30
0.0
 40
0.01
 50
73.9999992238063129
 51
168.3791035177509059
  0
ARC
  5
B180
  8
0
 10
310.5932458354590722
 20
7.8063631869304082
 30
0.0
 40
0.01
 50
159.6208964674848971
 51
254.000000059568606
  0
ARC
  5
B181
  8
0
 10
310.5971453188033138
 20
7.8163648445138838
 30
0.0
 40
0.01
 50
63.3999997197212011
 51
157.7791035329950944
  0
ARC
  5
B182
  8
0
 10
310.6199810322626718
 20
7.8619667105498472
 30
0.0
 40
0.01
 50
149.0208964646857055
 51
243.4000004866229858
  0
ARC
  5
B183
  8
0
 10
310.625653790670583
 20
7.8710803780549048
 30
0.0
 40
0.01
 50
52.8000002508844801
 51
147.1791035415706119
  0
ARC
  5
B184
  8
0
 10
310.6564883455018276
 20
7.9117034038485228
 30
0.0
 40
0.01
 50
138.420896471402699
 51
232.8000005166960023
  0
ARC
  5
B185
  8
0
 10
310.6637407717784072
 20
7.9196180382980863
 30
0.0
 40
0.01
 50
42.1999999009245883
 51
136.5791035321404934
  0
ARC
  5
B186
  8
0
 10
310.7015218062433064
 20
7.9538757883887987
 30
0.0
 40
0.01
 50
127.8208964446924938
 51
222.1999995345088053
  0
ARC
  5
B187
  8
0
 10
310.7101063799589156
 20
7.9603212686515583
 30
0.0
 40
0.01
 50
31.5999998832818285
 51
125.9791035347713972
  0
ARC
  5
B188
  8
0
 10
310.7535444536276259
 20
7.9870445498666447
 30
0.0
 40
0.01
 50
117.2208964533481037
 51
211.5999995585173963
  0
ARC
  5
B189
  8
0
 10
310.7631681894475832
 20
7.991800896359031
 30
0.0
 40
0.01
 50
20.9999996592051588
 51
115.3791035322791032
  0
ARC
  5
B18A
  8
0
 10
310.8107807911472946
 20
8.0100776617648997
 30
0.0
 40
0.01
 50
106.6208964654123008
 51
201.0000001290995897
  0
ARC
  5
B18B
  8
0
 10
310.8211152376562154
 20
8.0129825436704358
 30
0.0
 40
0.01
 50
10.4000001410133898
 51
104.7791035408313007
  0
ARC
  5
B18C
  8
0
 10
310.8712773826541138
 20
8.0221890200791108
 30
0.0
 40
0.01
 50
96.0208964666358753
 51
190.4000003407873862
  0
ARC
  5
B18D
  8
0
 10
310.8819523980434951
 20
8.0231420214316707
 30
0.0
 40
0.01
 50
0.0
 51
94.1821026006050346
  0
ARC
  5
B18E
  8
0
 10
310.9306622541433853
 20
8.0231420214316707
 30
0.0
 40
0.01
 50
85.8178973993949938
 51
180.0
  0
ARC
  5
B18F
  8
0
 10
310.9413372695327098
 20
8.0221890200791108
 30
0.0
 40
0.01
 50
349.5999996591921786
 51
83.9791035333641247
  0
ARC
  5
B190
  8
0
 10
310.9914994145307219
 20
8.0129825436704358
 30
0.0
 40
0.01
 50
75.2208964591686708
 51
169.5999998589865925
  0
ARC
  5
B191
  8
0
 10
311.0018338610395858
 20
8.0100776617648997
 30
0.0
 40
0.01
 50
338.9999998708821067
 51
73.3791035345877418
  0
ARC
  5
B192
  8
0
 10
311.0494464627392972
 20
7.991800896359031
 30
0.0
 40
0.01
 50
64.6208964677242363
 51
159.0000003407965039
  0
ARC
  5
B193
  8
0
 10
311.0590701985593114
 20
7.9870445498666447
 30
0.0
 40
0.01
 50
328.4000004414788805
 51
62.7791035466518395
  0
ARC
  5
B194
  8
0
 10
311.1025082722280217
 20
7.960321268651561
 30
0.0
 40
0.01
 50
54.0208964652333421
 51
148.4000001167079859
  0
ARC
  5
B195
  8
0
 10
311.1110928459435172
 20
7.9538757883887987
 30
0.0
 40
0.01
 50
317.8000004654879262
 51
52.1791035553108173
  0
ARC
  5
B196
  8
0
 10
311.1488738804084164
 20
7.9196180382980863
 30
0.0
 40
0.01
 50
43.4208964678708114
 51
137.8000000990753904
  0
ARC
  5
B197
  8
0
 10
311.1561263066849961
 20
7.9117034038485228
 30
0.0
 40
0.01
 50
307.1999994833046799
 51
41.579103528597301
  0
ARC
  5
B198
  8
0
 10
311.1869608615162974
 20
7.8710803780549048
 30
0.0
 40
0.01
 50
32.8208964584284004
 51
127.1999997491113987
  0
ARC
  5
B199
  8
0
 10
311.192633619924095
 20
7.8619667105498472
 30
0.0
 40
0.01
 50
296.5999995133698803
 51
30.9791035353143194
  0
ARC
  5
B19A
  8
0
 10
311.2154693333835098
 20
7.8163648445138838
 30
0.0
 40
0.01
 50
22.2208964670056908
 51
116.6000002802932016
  0
ARC
  5
B19B
  8
0
 10
311.2193688167278083
 20
7.8063631869304082
 30
0.0
 40
0.01
 50
285.9999999404382152
 51
20.3791035325142502
  0
ARC
  5
B19C
  8
0
 10
311.233426321838806
 20
7.7573388405856489
 30
0.0
 40
0.01
 50
11.6208964822496004
 51
106.0000007761935024
  0
ARC
  5
B19D
  8
0
 10
311.2354194434324768
 20
7.746790542632005
 30
0.0
 40
0.01
 50
275.4000007525135061
 51
9.7791035586609496
  0
ARC
  5
B19E
  8
0
 10
311.2402189674324973
 20
7.6841163446209073
 30
0.0
 40
0.01
 50
264.6000005025060204
 51
358.9791035444591785
  0
ARC
  5
B19F
  8
0
 10
311.2402189674324973
 20
7.696016882283625
 30
0.0
 40
0.01
 50
1.020896455540693
 51
95.3999994974939654
  0
LINE
  5
B1A0
  8
0
 10
311.2292858972703016
 20
7.7050279811550464
 30
0.0
 11
311.239277884386695
 21
7.7059725019379099
 31
0.0
  0
ARC
  5
B1A1
  8
0
 10
310.9063073260934971
 20
7.6900666134522657
 30
0.0
 40
0.3130000000320526
 50
4.424328127828244
 51
6.375671879047565
  0
ARC
  5
B1A2
  8
0
 10
310.9063073260934971
 20
7.6900666134522657
 30
0.0
 40
0.3130000000320526
 50
353.6243281209530096
 51
355.5756718721723928
  0
ARC
  5
B1A3
  8
0
 10
310.9063073260934971
 20
7.6900666134522657
 30
0.0
 40
0.3130000000320526
 50
343.0243281226636896
 51
344.9756718843783005
  0
ARC
  5
B1A4
  8
0
 10
310.9063073260934971
 20
7.6900666134522657
 30
0.0
 40
0.3130000000320526
 50
332.4243281065192832
 51
334.3756718846825038
  0
ARC
  5
B1A5
  8
0
 10
310.9063073260934971
 20
7.6900666134522657
 30
0.0
 40
0.3130000000320526
 50
321.8243281125085105
 51
323.7756718770248767
  0
ARC
  5
B1A6
  8
0
 10
310.9063073260934971
 20
7.6900666134522657
 30
0.0
 40
0.3130000000320526
 50
311.2243281154865144
 51
313.1756718781638256
  0
ARC
  5
B1A7
  8
0
 10
310.9063073260934971
 20
7.6900666134522657
 30
0.0
 40
0.3130000000320526
 50
300.6243281236623943
 51
302.5756718814265014
  0
ARC
  5
B1A8
  8
0
 10
310.9063073260934971
 20
7.6900666134522657
 30
0.0
 40
0.3130000000320526
 50
290.024328118375422
 51
291.9756718858263866
  0
ARC
  5
B1A9
  8
0
 10
310.9063073260934971
 20
7.6900666134522657
 30
0.0
 40
0.3130000000320526
 50
279.4243281130533205
 51
281.3756718796703922
  0
ARC
  5
B1AA
  8
0
 10
310.9063073260934971
 20
7.6900666134522657
 30
0.0
 40
0.3130000000320526
 50
269.2274719575096924
 51
270.7725280424903076
  0
ARC
  5
B1AB
  8
0
 10
310.9063073260934971
 20
7.6900666134522657
 30
0.0
 40
0.3130000000320526
 50
258.6243281203296078
 51
260.5756718869466795
  0
ARC
  5
B1AC
  8
0
 10
310.9063073260934971
 20
7.6900666134522657
 30
0.0
 40
0.3130000000320526
 50
248.0243281141736134
 51
249.9756718816246917
  0
ARC
  5
B1AD
  8
0
 10
310.9063073260934971
 20
7.6900666134522657
 30
0.0
 40
0.3130000000320526
 50
237.4243281185734986
 51
239.3756718763376057
  0
ARC
  5
B1AE
  8
0
 10
310.9063073260934971
 20
7.6900666134522657
 30
0.0
 40
0.3130000000320526
 50
226.8243281218360892
 51
228.7756718845137129
  0
ARC
  5
B1AF
  8
0
 10
310.9063073260934971
 20
7.6900666134522657
 30
0.0
 40
0.3130000000320526
 50
216.2243281229754928
 51
218.1756718874914043
  0
ARC
  5
B1B0
  8
0
 10
310.9063073260934971
 20
7.6900666134522657
 30
0.0
 40
0.3130000000320526
 50
205.6243281153161035
 51
207.575671893481001
  0
ARC
  5
B1B1
  8
0
 10
310.9063073260934971
 20
7.6900666134522657
 30
0.0
 40
0.3130000000320526
 50
195.0243281156209036
 51
196.9756718773363104
  0
ARC
  5
B1B2
  8
0
 10
310.9063073260934971
 20
7.6900666134522657
 30
0.0
 40
0.3130000000320526
 50
184.4243281278282041
 51
186.3756718790471893
  0
ARC
  5
B1B3
  8
0
 10
310.9063073260934971
 20
7.6900666134522657
 30
0.0
 40
0.3130000000320526
 50
173.6243281209524127
 51
175.5756718721717959
  0
ARC
  5
B1B4
  8
0
 10
310.9063073260934971
 20
7.6900666134522657
 30
0.0
 40
0.3130000000320526
 50
163.0243281226628937
 51
164.9756718843783858
  0
ARC
  5
B1B5
  8
0
 10
310.9063073260934971
 20
7.6900666134522657
 30
0.0
 40
0.3130000000320526
 50
152.4243281065193969
 51
154.3756718846848059
  0
ARC
  5
B1B6
  8
0
 10
310.9063073260934971
 20
7.6900666134522657
 30
0.0
 40
0.3130000000320526
 50
141.8243281125085105
 51
143.7756718770249051
  0
ARC
  5
B1B7
  8
0
 10
310.9063073260934971
 20
7.6900666134522657
 30
0.0
 40
0.3130000000320526
 50
131.2243281154862018
 51
133.1756718781637971
  0
ARC
  5
B1B8
  8
0
 10
310.9063073260934971
 20
7.6900666134522657
 30
0.0
 40
0.3130000000320526
 50
120.6243281236622948
 51
122.5756718814263024
  0
ARC
  5
B1B9
  8
0
 10
310.9063073260934971
 20
7.6900666134522657
 30
0.0
 40
0.3130000000320526
 50
110.0243281183752941
 51
111.9756718858264009
  0
ARC
  5
B1BA
  8
0
 10
310.9063073260934971
 20
7.6900666134522657
 30
0.0
 40
0.3130000000320526
 50
99.4243281130533347
 51
101.3756718796704064
  0
ARC
  5
B1BB
  8
0
 10
310.9063073260934971
 20
7.6900666134522657
 30
0.0
 40
0.3130000000320526
 50
89.2274719575097208
 51
90.772528042490265
  0
ARC
  5
B1BC
  8
0
 10
310.9063073260934971
 20
7.6900666134522657
 30
0.0
 40
0.3130000000320526
 50
78.624328120329622
 51
80.5756718869466653
  0
ARC
  5
B1BD
  8
0
 10
310.9063073260934971
 20
7.6900666134522657
 30
0.0
 40
0.3130000000320526
 50
68.0243281141735565
 51
69.9756718816246206
  0
ARC
  5
B1BE
  8
0
 10
310.9063073260934971
 20
7.6900666134522657
 30
0.0
 40
0.3130000000320526
 50
57.4243281185734986
 51
59.3756718763376128
  0
ARC
  5
B1BF
  8
0
 10
310.9063073260934971
 20
7.6900666134522657
 30
0.0
 40
0.3130000000320526
 50
46.8243281218361886
 51
48.7756718845137769
  0
ARC
  5
B1C0
  8
0
 10
310.9063073260934971
 20
7.6900666134522657
 30
0.0
 40
0.3130000000320526
 50
36.2243281229750593
 51
38.1756718874914398
  0
ARC
  5
B1C1
  8
0
 10
311.1602238929755231
 20
7.8897047287596811
 30
0.0
 40
0.01
 50
127.1999994833046941
 51
218.1756718874873116
  0
ARC
  5
B1C2
  8
0
 10
310.9063073260934971
 20
7.6900666134522657
 30
0.0
 40
0.3130000000320526
 50
25.6243281153157199
 51
27.5756718934806209
  0
ARC
  5
B1C3
  8
0
 10
310.9063073260934971
 20
7.6900666134522657
 30
0.0
 40
0.3130000000320526
 50
15.0243281156216799
 51
16.9756718773363602
  0
ARC
  5
B1C4
  8
0
 10
311.2283448142243856
 20
7.6651496260952046
 30
0.0
 40
0.01
 50
84.6000005025060346
 51
175.5756718721675895
  0
ARC
  5
B1C5
  8
0
 10
311.227309622783423
 20
7.654198444549281
 30
0.0
 40
0.01
 50
173.6243281209486895
 51
264.5999992474833107
  0
ARC
  5
B1C6
  8
0
 10
311.2182658434689984
 20
7.606335594961525
 30
0.0
 40
0.01
 50
73.999999223809624
 51
164.9756718843823933
  0
ARC
  5
B1C7
  8
0
 10
311.2152338325573169
 20
7.5957617163115732
 30
0.0
 40
0.01
 50
163.0243281226667875
 51
254.0000000595620122
  0
ARC
  5
B1C8
  8
0
 10
311.1975399463514123
 20
7.5503792449525822
 30
0.0
 40
0.01
 50
63.3999997197068268
 51
154.3756718846813953
  0
ARC
  5
B1C9
  8
0
 10
311.1926145963454928
 20
7.5405435482699898
 30
0.0
 40
0.01
 50
152.4243281065191979
 51
243.4000004866229858
  0
ARC
  5
B1CA
  8
0
 10
311.1668744832459197
 20
7.4991903272504841
 30
0.0
 40
0.01
 50
52.8000002508844375
 51
143.775671877022603
  0
ARC
  5
B1CB
  8
0
 10
311.1602238929755231
 20
7.4904284981448512
 30
0.0
 40
0.01
 50
141.8243281125087947
 51
232.8000005167043014
  0
ARC
  5
B1CC
  8
0
 10
311.1273160450439264
 20
7.4545158839510304
 30
0.0
 40
0.01
 50
42.1999999009285887
 51
133.1756718781676057
  0
ARC
  5
B1CD
  8
0
 10
311.1191671944845893
 20
7.4471269574691643
 30
0.0
 40
0.01
 50
131.2243281154862018
 51
222.1999995345165075
  0
ARC
  5
B1CE
  8
0
 10
311.0802147336061125
 20
7.417880622569311
 30
0.0
 40
0.01
 50
31.5999998832723215
 51
122.5756718814294999
  0
ARC
  5
B1CF
  8
0
 10
311.0708457373546025
 20
7.4121167776179187
 30
0.0
 40
0.01
 50
120.6243281236658049
 51
211.5999995585200111
  0
ARC
  5
B1D0
  8
0
 10
311.0271780837986739
 20
7.3905348789858847
 30
0.0
 40
0.01
 50
20.9999996592137315
 51
111.9756718858232034
  0
ARC
  5
B1D1
  8
0
 10
311.0169086990825917
 20
7.3865928315309954
 30
0.0
 40
0.01
 50
110.0243281183720967
 51
201.0000001290972875
  0
ARC
  5
B1D2
  8
0
 10
310.9700161993799838
 20
7.3734119443168611
 30
0.0
 40
0.01
 50
10.4000001410133898
 51
101.3756718796703069
  0
ARC
  5
B1D3
  8
0
 10
310.9591969131794258
 20
7.371426233715848
 30
0.0
 40
0.01
 50
99.4243281130533063
 51
190.4000003407975044
  0
ARC
  5
B1D4
  8
0
 10
310.9106622541434035
 20
7.367095972956295
 30
0.0
 40
0.01
 50
0.0
 51
90.772528042490265
  0
ARC
  5
B1D5
  8
0
 10
310.9019523980434201
 20
7.367095972956295
 30
0.0
 40
0.01
 50
89.2274719575097208
 51
180.0
  0
ARC
  5
B1D6
  8
0
 10
310.8534177390073978
 20
7.371426233715848
 30
0.0
 40
0.01
 50
349.5999996591917238
 51
80.5756718869433968
  0
ARC
  5
B1D7
  8
0
 10
310.8425984528067829
 20
7.3734119443168611
 30
0.0
 40
0.01
 50
78.6243281203263535
 51
169.599999858975508
  0
ARC
  5
B1D8
  8
0
 10
310.795705953104175
 20
7.3865928315309954
 30
0.0
 40
0.01
 50
338.9999998709002966
 51
69.9756718816245353
  0
ARC
  5
B1D9
  8
0
 10
310.7854365683880928
 20
7.3905348789858847
 30
0.0
 40
0.01
 50
68.024328114173457
 51
159.0000003408050873
  0
ARC
  5
B1DA
  8
0
 10
310.7417689148322211
 20
7.4121167776179187
 30
0.0
 40
0.01
 50
328.4000004414984915
 51
59.375671876334188
  0
ARC
  5
B1DB
  8
0
 10
310.7323999185808248
 20
7.417880622569311
 30
0.0
 40
0.01
 50
57.4243281185738681
 51
148.4000001167206051
  0
ARC
  5
B1DC
  8
0
 10
310.6934474577021774
 20
7.4471269574691616
 30
0.0
 40
0.01
 50
317.8000004654870168
 51
48.7756718845129882
  0
ARC
  5
B1DD
  8
0
 10
310.6852986071430109
 20
7.4545158839510304
 30
0.0
 40
0.01
 50
46.8243281218323588
 51
137.8000000990745093
  0
ARC
  5
B1DE
  8
0
 10
310.6523907592113005
 20
7.4904284981448512
 30
0.0
 40
0.01
 50
307.1999994833005871
 51
38.1756718874873116
  0
ARC
  5
B1DF
  8
0
 10
310.6457401689409039
 20
7.4991903272504814
 30
0.0
 40
0.01
 50
36.2243281229754928
 51
127.1999997491195984
  0
ARC
  5
B1E0
  8
0
 10
310.6200000558412739
 20
7.5405435482699881
 30
0.0
 40
0.01
 50
296.5999995133770994
 51
27.5756718934817115
  0
ARC
  5
B1E1
  8
0
 10
310.615074705835525
 20
7.5503792449525822
 30
0.0
 40
0.01
 50
25.6243281153186011
 51
116.6000002802969959
  0
ARC
  5
B1E2
  8
0
 10
310.5973808196296204
 20
7.5957617163115714
 30
0.0
 40
0.01
 50
285.9999999404378741
 51
16.9756718773331485
  0
ARC
  5
B1E3
  8
0
 10
310.5943488087178252
 20
7.6063355949615277
 30
0.0
 40
0.01
 50
15.0243281156175907
 51
106.0000007761935024
  0
ARC
  5
B1E4
  8
0
 10
310.5853050294034006
 20
7.6541984445492801
 30
0.0
 40
0.01
 50
275.400000752516803
 51
6.3756718790512661
  0
ARC
  5
B1E5
  8
0
 10
310.5842698379623812
 20
7.665149626095201
 30
0.0
 40
0.01
 50
4.4243281278322009
 51
95.3999994974939511
  0
ARC
  5
B1E6
  8
0
 10
310.5842698379623812
 20
7.7149836008093313
 30
0.0
 40
0.01
 50
264.6000005025093174
 51
355.5756718721677885
  0
ARC
  5
B1E7
  8
0
 10
310.5853050294034006
 20
7.7259347823552531
 30
0.0
 40
0.01
 50
353.6243281209590918
 51
84.5999992474767026
  0
ARC
  5
B1E8
  8
0
 10
310.5943488087178252
 20
7.7737976319430038
 30
0.0
 40
0.01
 50
253.9999992238064124
 51
344.9756718843717067
  0
ARC
  5
B1E9
  8
0
 10
310.5973808196296204
 20
7.7843715105929654
 30
0.0
 40
0.01
 50
343.0243281226576073
 51
74.0000000595686345
  0
ARC
  5
B1EA
  8
0
 10
310.6150747058354114
 20
7.8297539819519448
 30
0.0
 40
0.01
 50
243.399999719703402
 51
334.3756718846822764
  0
ARC
  5
B1EB
  8
0
 10
310.6200000558412739
 20
7.8395896786345416
 30
0.0
 40
0.01
 50
332.4243281065183169
 51
63.400000486619092
  0
ARC
  5
B1EC
  8
0
 10
310.6457401689409039
 20
7.8809428996540483
 30
0.0
 40
0.01
 50
232.8000002508960051
 51
323.775671877022603
  0
ARC
  5
B1ED
  8
0
 10
310.6523907592113005
 20
7.8897047287596811
 30
0.0
 40
0.01
 50
321.824328112508681
 51
52.8000005166993986
  0
ARC
  5
B1EE
  8
0
 10
310.6852986071430109
 20
7.9256173429535037
 30
0.0
 40
0.01
 50
222.1999999009194937
 51
313.1756718781629161
  0
ARC
  5
B1EF
  8
0
 10
310.6934474577021774
 20
7.9330062694353698
 30
0.0
 40
0.01
 50
311.2243281154861165
 51
42.1999995345129477
  0
ARC
  5
B1F0
  8
0
 10
310.7323999185808248
 20
7.9622526043352231
 30
0.0
 40
0.01
 50
211.599999883281896
 51
302.5756718814300825
  0
ARC
  5
B1F1
  8
0
 10
310.7417689148322211
 20
7.9680164492866146
 30
0.0
 40
0.01
 50
300.6243281236622238
 51
31.5999995585078999
  0
ARC
  5
B1F2
  8
0
 10
310.7854365683880928
 20
7.9895983479186468
 30
0.0
 40
0.01
 50
200.9999996592050877
 51
291.9756718858267277
  0
ARC
  5
B1F3
  8
0
 10
310.795705953104175
 20
7.993540395373536
 30
0.0
 40
0.01
 50
290.0243281183718977
 51
21.0000001291162484
  0
ARC
  5
B1F4
  8
0
 10
310.8425984528067829
 20
8.006721282587673
 30
0.0
 40
0.01
 50
190.4000001410134075
 51
281.3756718796670953
  0
ARC
  5
B1F5
  8
0
 10
310.8534177390073978
 20
8.0087069931886852
 30
0.0
 40
0.01
 50
279.4243281130533205
 51
10.4000003407882993
  0
ARC
  5
B1F6
  8
0
 10
310.9019523980434201
 20
8.0130372539482373
 30
0.0
 40
0.01
 50
180.0
 51
270.7725280424903076
  0
ARC
  5
B1F7
  8
0
 10
310.9106622541434035
 20
8.0130372539482373
 30
0.0
 40
0.01
 50
269.2274719575096924
 51
0.0
  0
ARC
  5
B1F8
  8
0
 10
310.9591969131794258
 20
8.0087069931886852
 30
0.0
 40
0.01
 50
169.5999996591912975
 51
260.5756718869466795
  0
ARC
  5
B1F9
  8
0
 10
310.9700161993799838
 20
8.006721282587673
 30
0.0
 40
0.01
 50
258.6243281203329047
 51
349.5999998589870756
  0
ARC
  5
B1FA
  8
0
 10
311.0169086990825917
 20
7.993540395373536
 30
0.0
 40
0.01
 50
158.9999998709041904
 51
249.9756718816279033
  0
ARC
  5
B1FB
  8
0
 10
311.0271780837986739
 20
7.9895983479186468
 30
0.0
 40
0.01
 50
248.0243281141698901
 51
339.0000003407956797
  0
ARC
  5
B1FC
  8
0
 10
311.0708457373546025
 20
7.9680164492866146
 30
0.0
 40
0.01
 50
148.4000004414743898
 51
239.3756718763378046
  0
ARC
  5
B1FD
  8
0
 10
311.0802147336061125
 20
7.9622526043352231
 30
0.0
 40
0.01
 50
237.4243281185698891
 51
328.4000001167145797
  0
ARC
  5
B1FE
  8
0
 10
311.1191671944845893
 20
7.9330062694353698
 30
0.0
 40
0.01
 50
137.8000004654828956
 51
228.775671884514594
  0
ARC
  5
B1FF
  8
0
 10
311.1273160450439264
 20
7.9256173429535037
 30
0.0
 40
0.01
 50
226.8243281218371123
 51
317.8000000990793978
  0
ARC
  5
B200
  8
0
 10
311.1668744832459197
 20
7.8809428996540483
 30
0.0
 40
0.01
 50
216.2243281229764023
 51
307.1999997491204226
  0
ARC
  5
B201
  8
0
 10
311.1926145963454928
 20
7.8395896786345416
 30
0.0
 40
0.01
 50
116.5999995133737031
 51
207.5756718934817115
  0
ARC
  5
B202
  8
0
 10
311.1975399463514123
 20
7.8297539819519493
 30
0.0
 40
0.01
 50
205.6243281153176952
 51
296.6000002802894073
  0
ARC
  5
B203
  8
0
 10
311.2152338325573169
 20
7.784371510592961
 30
0.0
 40
0.01
 50
105.999999940438002
 51
196.9756718773437001
  0
ARC
  5
B204
  8
0
 10
311.2182658434689984
 20
7.7737976319430082
 30
0.0
 40
0.01
 50
195.0243281156276112
 51
286.0000007761902907
  0
ARC
  5
B205
  8
0
 10
311.227309622783423
 20
7.7259347823552531
 30
0.0
 40
0.01
 50
95.4000007525167746
 51
186.3756718790409082
  0
ARC
  5
B206
  8
0
 10
311.2283448142243856
 20
7.7149836008093313
 30
0.0
 40
0.01
 50
184.4243281278320126
 51
275.3999994974939796
  0
LINE
  5
B207
  8
0
 10
311.2263685395195125
 20
7.7358904019889252
 30
0.0
 11
311.2363605266963873
 21
7.7368349229983373
 31
0.0
  0
LINE
  5
B208
  8
0
 10
311.2210222171574969
 20
7.7641850150209626
 30
0.0
 11
311.2306699481504211
 21
7.766951457507691
 31
0.0
  0
LINE
  5
B209
  8
0
 10
311.2124774590091079
 20
7.7939841275552091
 30
0.0
 11
311.2221251902760173
 21
7.7967505699681601
 31
0.0
  0
LINE
  5
B20A
  8
0
 10
311.2020175372736048
 20
7.820812439605457
 30
0.0
 11
311.2109917424613741
 21
7.8253063868603716
 31
0.0
  0
LINE
  5
B20B
  8
0
 10
311.1881370055431262
 20
7.8485312210409681
 30
0.0
 11
311.1971112107265185
 21
7.8530251681434251
 31
0.0
  0
LINE
  5
B20C
  8
0
 10
311.1729204743596142
 20
7.8729776004473351
 30
0.0
 11
311.1809148704026029
 21
7.8790456772616224
 31
0.0
  0
LINE
  5
B20D
  8
0
 10
311.1541779018987199
 20
7.8976700279944474
 30
0.0
 11
311.1621722977617992
 21
7.9037381046137583
 31
0.0
  0
LINE
  5
B20E
  8
0
 10
311.1347240910184269
 20
7.9189001370730843
 30
0.0
 11
311.1414658344338022
 21
7.9263352441785058
 31
0.0
  0
LINE
  5
B20F
  8
0
 10
311.1117591484671721
 20
7.9397234752684147
 30
0.0
 11
311.1185008919608777
 21
7.9471585825557538
 31
0.0
  0
LINE
  5
B210
  8
0
 10
311.0887320029581815
 20
7.9570127452928707
 30
0.0
 11
311.0939910028757822
 21
7.9655611276939133
 31
0.0
  0
LINE
  5
B211
  8
0
 10
311.0623284679728044
 20
7.9732563082806891
 30
0.0
 11
311.0675874679411095
 21
7.9818046908725711
 31
0.0
  0
LINE
  5
B212
  8
0
 10
311.0365138880850964
 20
7.986014668478723
 30
0.0
 11
311.0401106584528748
 21
7.9953845757989539
 31
0.0
  0
LINE
  5
B213
  8
0
 10
311.0075728948257279
 20
7.9971240748900243
 30
0.0
 11
311.0111696652963928
 21
8.0064939822484078
 31
0.0
  0
LINE
  5
B214
  8
0
 10
310.9816636998269814
 20
8.0147877351471486
 30
0.0
 11
310.9798519140837243
 21
8.0049160911109603
 31
0.0
  0
LINE
  5
B215
  8
0
 10
310.9511729842301975
 20
8.0203838285681002
 30
0.0
 11
310.9493611984821086
 21
8.0105121846996958
 31
0.0
  0
LINE
  5
B216
  8
0
 10
310.9206622541433944
 20
8.0231420214316707
 30
0.0
 11
310.9206622541433944
 21
8.0130372539482373
 31
0.0
  0
LINE
  5
B217
  8
0
 10
311.2292858972703016
 20
7.6751052457494859
 30
0.0
 11
311.239277884386695
 21
7.6741607249666224
 31
0.0
  0
LINE
  5
B218
  8
0
 10
311.2263685395195125
 20
7.6442428249156089
 30
0.0
 11
311.2363605266963873
 21
7.643298303906195
 31
0.0
  0
LINE
  5
B219
  8
0
 10
311.2210222171574969
 20
7.6159482118835689
 30
0.0
 11
311.2306699481504211
 21
7.6131817693968422
 31
0.0
  0
LINE
  5
B21A
  8
0
 10
311.2124774590091079
 20
7.5861490993493241
 30
0.0
 11
311.2221251902760173
 21
7.5833826569363723
 31
0.0
  0
LINE
  5
B21B
  8
0
 10
311.2020175372736048
 20
7.5593207872990726
 30
0.0
 11
311.2109917424613741
 21
7.5548268400441598
 31
0.0
  0
LINE
  5
B21C
  8
0
 10
311.1881370055431262
 20
7.531602005863566
 30
0.0
 11
311.1971112107265185
 21
7.5271080587611081
 31
0.0
  0
LINE
  5
B21D
  8
0
 10
311.1729204743596142
 20
7.507155626457199
 30
0.0
 11
311.1809148704026029
 21
7.5010875496429099
 31
0.0
  0
LINE
  5
B21E
  8
0
 10
311.1541779018987199
 20
7.482463198910084
 30
0.0
 11
311.1621722977617992
 21
7.4763951222907759
 31
0.0
  0
LINE
  5
B21F
  8
0
 10
311.1347240910184269
 20
7.4612330898314498
 30
0.0
 11
311.1414658344338022
 21
7.4537979827260283
 31
0.0
  0
LINE
  5
B220
  8
0
 10
311.1117591484671721
 20
7.4404097516361167
 30
0.0
 11
311.1185008919608777
 21
7.4329746443487776
 31
0.0
  0
LINE
  5
B221
  8
0
 10
311.0887320029581815
 20
7.4231204816116589
 30
0.0
 11
311.0939910028757822
 21
7.4145720992106208
 31
0.0
  0
LINE
  5
B222
  8
0
 10
311.0623284679728044
 20
7.406876918623845
 30
0.0
 11
311.0675874679411095
 21
7.3983285360319586
 31
0.0
  0
LINE
  5
B223
  8
0
 10
311.0365138880850964
 20
7.3941185584258111
 30
0.0
 11
311.0401106584528748
 21
7.3847486511055784
 31
0.0
  0
LINE
  5
B224
  8
0
 10
311.0075728948257279
 20
7.3830091520145071
 30
0.0
 11
311.0111696652963928
 21
7.373639244656121
 31
0.0
  0
LINE
  5
B225
  8
0
 10
310.9816636998269814
 20
7.3653454917573837
 30
0.0
 11
310.9798519140837243
 21
7.3752171357935739
 31
0.0
  0
LINE
  5
B226
  8
0
 10
310.9511729842301975
 20
7.359749398336433
 30
0.0
 11
310.9493611984821086
 21
7.3696210422048392
 31
0.0
  0
LINE
  5
B227
  8
0
 10
310.9206622541433944
 20
7.3569912054728617
 30
0.0
 11
310.9206622541433944
 21
7.367095972956295
 31
0.0
  0
LINE
  5
B228
  8
0
 10
310.583328754916522
 20
7.7050279811550464
 30
0.0
 11
310.5733367678000718
 21
7.7059725019379091
 31
0.0
  0
LINE
  5
B229
  8
0
 10
310.5862461126674248
 20
7.7358904019889252
 30
0.0
 11
310.5762541254903795
 21
7.7368349229983373
 31
0.0
  0
LINE
  5
B22A
  8
0
 10
310.5915924350293835
 20
7.7641850150209626
 30
0.0
 11
310.5819447040364025
 21
7.766951457507691
 31
0.0
  0
LINE
  5
B22B
  8
0
 10
310.6001371931777157
 20
7.7939841275552117
 30
0.0
 11
310.59048946191092
 21
7.7967505699681601
 31
0.0
  0
LINE
  5
B22C
  8
0
 10
310.6105971149132756
 20
7.8208124396054606
 30
0.0
 11
310.6016229097253927
 21
7.8253063868603761
 31
0.0
  0
LINE
  5
B22D
  8
0
 10
310.6244776466438111
 20
7.8485312210409637
 30
0.0
 11
310.6155034414603051
 21
7.8530251681434251
 31
0.0
  0
LINE
  5
B22E
  8
0
 10
310.6396941778272094
 20
7.8729776004473306
 30
0.0
 11
310.6316997817842775
 21
7.8790456772616224
 31
0.0
  0
LINE
  5
B22F
  8
0
 10
310.6584367502881037
 20
7.8976700279944474
 30
0.0
 11
310.6504423544250812
 21
7.9037381046137583
 31
0.0
  0
LINE
  5
B230
  8
0
 10
310.6778905611685104
 20
7.9189001370730843
 30
0.0
 11
310.6711488177530214
 21
7.9263352441785058
 31
0.0
  0
LINE
  5
B231
  8
0
 10
310.7008555037197084
 20
7.9397234752684147
 30
0.0
 11
310.6941137602258891
 21
7.9471585825557538
 31
0.0
  0
LINE
  5
B232
  8
0
 10
310.7238826492286989
 20
7.9570127452928707
 30
0.0
 11
310.7186236493109845
 21
7.9655611276939089
 31
0.0
  0
LINE
  5
B233
  8
0
 10
310.7502861842140192
 20
7.9732563082806847
 30
0.0
 11
310.7450271842458278
 21
7.9818046908725711
 31
0.0
  0
LINE
  5
B234
  8
0
 10
310.7761007641017841
 20
7.986014668478723
 30
0.0
 11
310.772503993733892
 21
7.9953845757989539
 31
0.0
  0
LINE
  5
B235
  8
0
 10
310.8050417573610957
 20
7.997124074890027
 30
0.0
 11
310.8014449868903739
 21
8.0064939822484114
 31
0.0
  0
LINE
  5
B236
  8
0
 10
310.830950952359899
 20
8.0147877351471486
 30
0.0
 11
310.832762738103213
 21
8.0049160911109603
 31
0.0
  0
LINE
  5
B237
  8
0
 10
310.861441667956683
 20
8.0203838285681037
 30
0.0
 11
310.8632534537047718
 21
8.0105121846996923
 31
0.0
  0
LINE
  5
B238
  8
0
 10
310.8919523980433723
 20
8.0231420214316707
 30
0.0
 11
310.8919523980433723
 21
8.0130372539482373
 31
0.0
  0
LINE
  5
B239
  8
0
 10
310.583328754916522
 20
7.6751052457494851
 30
0.0
 11
310.5733367678000718
 21
7.6741607249666224
 31
0.0
  0
LINE
  5
B23A
  8
0
 10
310.5862461126674248
 20
7.6442428249156089
 30
0.0
 11
310.5762541254903795
 21
7.643298303906195
 31
0.0
  0
LINE
  5
B23B
  8
0
 10
310.5915924350293835
 20
7.6159482118835689
 30
0.0
 11
310.5819447040364025
 21
7.6131817693968422
 31
0.0
  0
LINE
  5
B23C
  8
0
 10
310.6001371931777157
 20
7.5861490993493224
 30
0.0
 11
310.59048946191092
 21
7.5833826569363696
 31
0.0
  0
LINE
  5
B23D
  8
0
 10
310.6105971149132756
 20
7.5593207872990709
 30
0.0
 11
310.6016229097253927
 21
7.5548268400441598
 31
0.0
  0
LINE
  5
B23E
  8
0
 10
310.6244776466438111
 20
7.531602005863566
 30
0.0
 11
310.6155034414603051
 21
7.5271080587611081
 31
0.0
  0
LINE
  5
B23F
  8
0
 10
310.6396941778272094
 20
7.5071556264571981
 30
0.0
 11
310.6316997817842775
 21
7.5010875496429072
 31
0.0
  0
LINE
  5
B240
  8
0
 10
310.6584367502881037
 20
7.4824631989100849
 30
0.0
 11
310.6504423544250812
 21
7.4763951222907759
 31
0.0
  0
LINE
  5
B241
  8
0
 10
310.6778905611685104
 20
7.4612330898314498
 30
0.0
 11
310.6711488177530214
 21
7.4537979827260257
 31
0.0
  0
LINE
  5
B242
  8
0
 10
310.7008555037197084
 20
7.4404097516361167
 30
0.0
 11
310.6941137602258891
 21
7.4329746443487776
 31
0.0
  0
LINE
  5
B243
  8
0
 10
310.7238826492286989
 20
7.4231204816116607
 30
0.0
 11
310.7186236493109845
 21
7.4145720992106208
 31
0.0
  0
LINE
  5
B244
  8
0
 10
310.7502861842140192
 20
7.4068769186238486
 30
0.0
 11
310.7450271842457141
 21
7.3983285360319568
 31
0.0
  0
LINE
  5
B245
  8
0
 10
310.7761007641017841
 20
7.3941185584258067
 30
0.0
 11
310.772503993733892
 21
7.3847486511055802
 31
0.0
  0
LINE
  5
B246
  8
0
 10
310.8050417573610957
 20
7.3830091520145071
 30
0.0
 11
310.8014449868903739
 21
7.3736392446561227
 31
0.0
  0
LINE
  5
B247
  8
0
 10
310.830950952359899
 20
7.3653454917573837
 30
0.0
 11
310.832762738103213
 21
7.3752171357935756
 31
0.0
  0
LINE
  5
B248
  8
0
 10
310.861441667956683
 20
7.3597493983364357
 30
0.0
 11
310.8632534537047718
 21
7.3696210422048374
 31
0.0
  0
LINE
  5
B249
  8
0
 10
310.8919523980433723
 20
7.3569912054728617
 30
0.0
 11
310.8919523980433723
 21
7.367095972956295
 31
0.0
  0
ARC
  5
B24B
  8
0
 10
310.9063073260934971
 20
7.6900666134522657
 30
0.0
 40
0.9400000000000012
 50
23.5116901728253112
 51
336.4883098271732251
  0
ARC
  5
B24C
  8
0
 10
302.9063073260933834
 20
7.6900666134522657
 30
0.0
 40
0.9400000000000012
 50
203.5116901728254106
 51
156.4883098271747031
  0
ENDSEC
  0
EOF
