  0
SECTION
  2
HEADER
  9
$ACADVER
  1
AC1009
  9
$INSBASE
 10
92.2980145276603565
 20
55.2662189006494771
 30
0.0
  9
$EXTMIN
 10
90.4832556269263364
 20
35.3052318729525609
 30
-0.0015258207003583
  9
$EXTMAX
 10
94.1148724241195964
 20
55.2714105481214801
 30
0.0000000349246037
  9
$LIMMIN
 10
0.0
 20
0.0
  9
$LIMMAX
 10
46.8110236219999933
 20
33.1102362204999991
  9
$ORTHOMODE
 70
     1
  9
$REGENMODE
 70
     1
  9
$FILLMODE
 70
     1
  9
$QTEXTMODE
 70
     0
  9
$MIRRTEXT
 70
     0
  9
$DRAGMODE
 70
     2
  9
$LTSCALE
 40
2.5746062992000001
  9
$OSMODE
 70
     7
  9
$ATTMODE
 70
     1
  9
$TEXTSIZE
 40
0.001
  9
$TRACEWID
 40
0.05
  9
$TEXTSTYLE
  7
STANDARD
  9
$CLAYER
  8
0
  9
$CELTYPE
  6
BYLAYER
  9
$CECOLOR
 62
   256
  9
$DIMSCALE
 40
1.0
  9
$DIMASZ
 40
0.1875
  9
$DIMEXO
 40
0.0625
  9
$DIMDLI
 40
1.778818897599999
  9
$DIMRND
 40
0.0
  9
$DIMDLE
 40
0.0
  9
$DIMEXE
 40
0.125
  9
$DIMTP
 40
0.0
  9
$DIMTM
 40
0.0
  9
$DIMTXT
 40
0.15625
  9
$DIMCEN
 40
0.4212992126
  9
$DIMTSZ
 40
0.0
  9
$DIMTOL
 70
     0
  9
$DIMLIM
 70
     0
  9
$DIMTIH
 70
     1
  9
$DIMTOH
 70
     1
  9
$DIMSE1
 70
     0
  9
$DIMSE2
 70
     0
  9
$DIMTAD
 70
     0
  9
$DIMZIN
 70
     0
  9
$DIMBLK
  1
CLOSED
  9
$DIMASO
 70
     1
  9
$DIMSHO
 70
     1
  9
$DIMPOST
  1

  9
$DIMAPOST
  1

  9
$DIMALT
 70
     0
  9
$DIMALTD
 70
     2
  9
$DIMALTF
 40
25.3999999999999986
  9
$DIMLFAC
 40
1.0
  9
$DIMTOFL
 70
     0
  9
$DIMTVP
 40
0.0
  9
$DIMTIX
 70
     0
  9
$DIMSOXD
 70
     0
  9
$DIMSAH
 70
     0
  9
$DIMBLK1
  1

  9
$DIMBLK2
  1

  9
$DIMSTYLE
  2
STANDARD
  9
$DIMCLRD
 70
     0
  9
$DIMCLRE
 70
     0
  9
$DIMCLRT
 70
     0
  9
$DIMTFAC
 40
1.0
  9
$DIMGAP
 40
0.09
  9
$LUNITS
 70
     2
  9
$LUPREC
 70
     4
  9
$SKETCHINC
 40
0.1
  9
$FILLETRAD
 40
0.0
  9
$AUNITS
 70
     0
  9
$AUPREC
 70
     0
  9
$MENU
  1
.
  9
$ELEVATION
 40
0.0
  9
$PELEVATION
 40
0.0
  9
$THICKNESS
 40
0.0
  9
$LIMCHECK
 70
     0
  9
$BLIPMODE
 70
     0
  9
$CHAMFERA
 40
0.0
  9
$CHAMFERB
 40
0.0
  9
$SKPOLY
 70
     0
  9
$TDCREATE
 40
2457200.4849421298131347
  9
$TDUPDATE
 40
2459609.3981944439001381
  9
$TDINDWG
 40
0.2316834491
  9
$TDUSRTIMER
 40
0.2316834491
  9
$USRTIMER
 70
     1
  9
$ANGBASE
 50
0.0
  9
$ANGDIR
 70
     0
  9
$PDMODE
 70
     0
  9
$PDSIZE
 40
0.3125
  9
$PLINEWID
 40
0.0
  9
$COORDS
 70
     1
  9
$SPLFRAME
 70
     0
  9
$SPLINETYPE
 70
     6
  9
$SPLINESEGS
 70
     8
  9
$ATTDIA
 70
     1
  9
$ATTREQ
 70
     1
  9
$HANDLING
 70
     1
  9
$HANDSEED
  5
1BBD
  9
$SURFTAB1
 70
     6
  9
$SURFTAB2
 70
     6
  9
$SURFTYPE
 70
     6
  9
$SURFU
 70
     6
  9
$SURFV
 70
     6
  9
$UCSNAME
  2

  9
$UCSORG
 10
0.0
 20
0.0
 30
0.0
  9
$UCSXDIR
 10
1.0
 20
0.0
 30
0.0
  9
$UCSYDIR
 10
0.0
 20
1.0
 30
0.0
  9
$PUCSNAME
  2

  9
$PUCSORG
 10
0.0
 20
0.0
 30
0.0
  9
$PUCSXDIR
 10
1.0
 20
0.0
 30
0.0
  9
$PUCSYDIR
 10
0.0
 20
1.0
 30
0.0
  9
$USERI1
 70
     0
  9
$USERI2
 70
     0
  9
$USERI3
 70
     0
  9
$USERI4
 70
     0
  9
$USERI5
 70
     0
  9
$USERR1
 40
0.0
  9
$USERR2
 40
0.0
  9
$USERR3
 40
0.0
  9
$USERR4
 40
0.0
  9
$USERR5
 40
0.0
  9
$WORLDVIEW
 70
     1
  9
$SHADEDGE
 70
     3
  9
$SHADEDIF
 70
    70
  9
$TILEMODE
 70
     1
  9
$MAXACTVP
 70
    64
  9
$PLIMCHECK
 70
     0
  9
$PEXTMIN
 10
1.0000000000000000E+20
 20
1.0000000000000000E+20
 30
1.0000000000000000E+20
  9
$PEXTMAX
 10
-1.0000000000000000E+20
 20
-1.0000000000000000E+20
 30
-1.0000000000000000E+20
  9
$PLIMMIN
 10
0.0
 20
0.0
  9
$PLIMMAX
 10
12.0
 20
9.0
  9
$UNITMODE
 70
     0
  9
$VISRETAIN
 70
     1
  9
$PLINEGEN
 70
     0
  9
$PSLTSCALE
 70
     1
  0
ENDSEC
  0
SECTION
  2
TABLES
  0
TABLE
  2
VPORT
 70
     1
  0
VPORT
  2
*ACTIVE
 70
     0
 10
0.0
 20
0.0
 11
1.0
 21
1.0
 12
92.2990640255229664
 22
45.2883212105370205
 13
0.0
 23
0.0
 14
1.0
 24
1.0
 15
0.0
 25
0.0
 16
0.0
 26
0.0
 36
1.0
 17
0.0
 27
0.0
 37
0.0
 40
20.1091346084040197
 41
2.2831541218637992
 42
50.0
 43
0.0
 44
0.0
 50
0.0
 51
0.0
 71
     0
 72
   100
 73
     1
 74
     1
 75
     0
 76
     0
 77
     0
 78
     0
  0
ENDTAB
  0
TABLE
  2
LTYPE
 70
     1
  0
LTYPE
  2
CONTINUOUS
 70
     0
  3
Solid line
 72
    65
 73
     0
 40
0.0
  0
ENDTAB
  0
TABLE
  2
LAYER
 70
     2
  0
LAYER
  2
0
 70
     0
 62
     7
  6
CONTINUOUS
  0
LAYER
  2
DEFPOINTS
 70
     0
 62
     7
  6
CONTINUOUS
  0
ENDTAB
  0
TABLE
  2
STYLE
 70
     1
  0
STYLE
  2
STANDARD
 70
     0
 40
0.0
 41
0.8
 50
0.0
 71
     0
 42
0.001
  3
txt
  4

  0
ENDTAB
  0
TABLE
  2
VIEW
 70
     0
  0
ENDTAB
  0
TABLE
  2
UCS
 70
     0
  0
ENDTAB
  0
TABLE
  2
APPID
 70
     7
  0
APPID
  2
ACAD
 70
     0
  0
APPID
  2
ACAD_MLEADERVER
 70
     0
  0
APPID
  2
ACAD_NAV_VCDISPLAY
 70
     0
  0
APPID
  2
ACAD_EXEMPT_FROM_CAD_STANDARDS
 70
     0
  0
APPID
  2
ACAD_DSTYLE_DIMRADIAL_EXTENSION
 70
     0
  0
APPID
  2
ACDBATTR
 70
     0
  0
APPID
  2
DCO15
 70
     0
  0
ENDTAB
  0
TABLE
  2
DIMSTYLE
 70
     1
  0
DIMSTYLE
  2
STANDARD
 70
     0
  3

  4

  5
CLOSED
  6
CLOSED
  7
CLOSED
 40
1.0
 41
0.1875
 42
0.0625
 43
0.38
 44
0.125
 45
0.0
 46
0.0
 47
1.5
 48
1.5
140
0.15625
141
0.09
142
0.0
143
25.3999999999999986
144
1.0
145
0.0
146
1.0
147
0.09
 71
     0
 72
     0
 73
     1
 74
     1
 75
     0
 76
     0
 77
     0
 78
     4
170
     0
171
     2
172
     0
173
     0
174
     0
175
     0
176
     0
177
     0
178
     0
  0
ENDTAB
  0
ENDSEC
  0
SECTION
  2
BLOCKS
  0
BLOCK
  8
0
  2
$MODEL_SPACE
 70
     2
 10
0.0
 20
0.0
 30
0.0
  3
$MODEL_SPACE
  1

  0
ENDBLK
  5
21
  8
0
  0
BLOCK
 67
     1
  8
0
  2
$PAPER_SPACE
 70
     0
 10
0.0
 20
0.0
 30
0.0
  3
$PAPER_SPACE
  1

  0
ENDBLK
  5
1D
 67
     1
  8
0
  0
BLOCK
  8
0
  2
_CLOSED
 70
     0
 10
0.0
 20
0.0
 30
0.0
  3
_CLOSED
  1

  0
LINE
  5
233
  8
0
  6
BYBLOCK
 62
     0
 10
0.0
 20
0.0
 30
0.0
 11
-1.0
 21
0.1666666667
 31
0.0
  0
LINE
  5
234
  8
0
  6
BYBLOCK
 62
     0
 10
-1.0
 20
0.1666666667
 30
0.0
 11
-1.0
 21
-0.1666666667
 31
0.0
  0
LINE
  5
235
  8
0
  6
BYBLOCK
 62
     0
 10
-1.0
 20
-0.1666666667
 30
0.0
 11
0.0
 21
0.0
 31
0.0
  0
LINE
  5
236
  8
0
  6
BYBLOCK
 62
     0
 10
-1.0
 20
0.0
 30
0.0
 11
0.0
 21
0.0
 31
0.0
  0
ENDBLK
  5
237
  8
0
  6
BYBLOCK
 62
     0
  0
ENDSEC
  0
SECTION
  2
ENTITIES
  0
ATTDEF
  5
A78
  8
DEFPOINTS
 10
92.2980397555973866
 20
55.2695707028326098
 30
0.0
 40
0.001
  1
P77618-00
  3

  2
MODELNUMBER
 70
     0
1001
ACDBATTR
1070
     0
1070
     1
  0
ATTDEF
  5
A79
  8
DEFPOINTS
 10
92.2980397555973866
 20
55.2679040361659375
 30
0.0
 40
0.001
  1
PER SE
  3

  2
TRADENAME
 70
     0
1001
ACDBATTR
1070
     0
1070
     1
  0
ATTDEF
  5
A7A
  8
DEFPOINTS
 10
92.2980397555973866
 20
55.2662373694992795
 30
0.0
 40
0.001
  1
TABLE LEGS
  3

  2
PRODUCT
 70
     0
1001
ACDBATTR
1070
     0
1070
     1
  0
LINE
  5
1ACA
  8
0
 10
90.9550145276603388
 20
55.2662189006494771
 30
0.0
 11
93.64101452766036
 21
55.2662189006494771
 31
0.0
  0
ARC
  5
1ACB
  8
0
 10
92.8859031158479667
 20
55.2469720514719995
 30
0.0
 40
1.930984510863913
 50
179.4289019507567957
 51
191.1536828362054052
  0
ARC
  5
1ACC
  8
0
 10
91.1391948888450258
 20
54.902932988699753
 30
0.0
 40
0.1507174003773534
 50
191.2847227422165872
 51
242.3748848716070086
  0
ARC
  5
1ACD
  8
0
 10
90.8365898536030869
 20
54.3326218847367599
 30
0.0
 40
0.4949052840483972
 50
27.7604472941008886
 51
61.9507190415397773
  0
ARC
  5
1ACE
  8
0
 10
90.4739604757636755
 20
54.1544533057199473
 30
0.0
 40
0.8988539414701383
 50
7.69339499569144
 51
27.04381812058541
  0
ARC
  5
1ACF
  8
0
 10
89.6539362607498589
 20
54.0385051319644205
 30
0.0
 40
1.727026637974818
 50
0.4250406179247128
 51
7.8634634107094783
  0
ARC
  5
1AD0
  8
0
 10
91.4009725619342532
 20
54.051546387027031
 30
0.0
 40
0.0200584987984322
 50
180.6560523645813134
 51
268.1013291221798909
  0
LINE
  5
1AD1
  8
0
 10
91.3809882367603592
 20
54.0314989006494883
 30
0.0
 11
93.2150408185603538
 21
54.0314989006494883
 31
0.0
  0
LINE
  5
1AD2
  8
0
 10
91.3809882367603592
 20
54.0314989006494883
 30
0.0
 11
91.3809882367603592
 21
39.7003989006509812
 31
0.0
  0
ARC
  5
1AD3
  8
0
 10
360.7613423400944157
 20
36.0480901349274916
 30
0.0
 40
269.4051123051635841
 50
179.2232207972770084
 51
179.5826951468835091
  0
ARC
  5
1AD4
  8
0
 10
91.1566599855545263
 20
37.3568729331092584
 30
0.0
 40
0.6355521395853497
 50
94.9563268939937331
 51
174.0307680134953046
  0
ARC
  5
1AD5
  8
0
 10
91.1566599855545263
 20
35.9923248681897334
 30
0.0
 40
0.6355521395853497
 50
185.9692319865046102
 51
265.0436731060062812
  0
ARC
  5
1AD6
  8
0
 10
97.68129234168849
 20
36.6745989006495066
 30
0.0
 40
7.19575985259738
 50
174.0303736951235862
 51
185.9696263048764138
  0
CIRCLE
  5
1AD7
  8
0
 10
92.2980145276603565
 20
36.6745989006494995
 30
0.0
 40
0.9699999999999998
  0
CIRCLE
  5
1AD8
  8
0
 10
92.2980145276603565
 20
36.6745989006494995
 30
0.0
 40
0.7000000000000002
  0
CIRCLE
  5
1AD9
  8
0
 10
92.2980145276603565
 20
36.6745989006494995
 30
0.0
 40
0.1475
  0
ARC
  5
1ADA
  8
0
 10
91.5836771904905333
 20
39.0573004869301101
 30
0.0
 40
0.3739103526371098
 50
123.6116190968190978
 51
173.0359022379622047
  0
ARC
  5
1ADB
  8
0
 10
91.5836771904905333
 20
38.198497314368872
 30
0.0
 40
0.3739103526371098
 50
186.96409776203771
 51
211.4837071702467881
  0
ARC
  5
1ADC
  8
0
 10
95.0828914798214129
 20
38.6278989006494911
 30
0.0
 40
3.8993728748379661
 50
173.0070581048045995
 51
186.9929418952949902
  0
ARC
  5
1ADD
  8
0
 10
93.4393690697662151
 20
37.3568729331092584
 30
0.0
 40
0.6355521395853497
 50
5.9692319865046688
 51
85.0436731060054854
  0
ARC
  5
1ADE
  8
0
 10
93.4393690697662151
 20
35.9923248681897334
 30
0.0
 40
0.6355521395853497
 50
274.9563268939946283
 51
354.0307680134953898
  0
ARC
  5
1ADF
  8
0
 10
92.2980145276603565
 20
49.1524824503335935
 30
0.0
 40
13.84511071575335
 50
265.0432721790788833
 51
274.9567278207209142
  0
ARC
  5
1AE0
  8
0
 10
92.2980145276603423
 20
24.19671535096737
 30
0.0
 40
13.84511071575138
 50
85.043272179078869
 51
94.9567278207217385
  0
ARC
  5
1AE1
  8
0
 10
86.9147367136322373
 20
36.6745989006495066
 30
0.0
 40
7.19575985259738
 50
354.0303736951236147
 51
5.9696263048764182
  0
ARC
  5
1AE2
  8
0
 10
91.7101259394727606
 20
55.2469720514719995
 30
0.0
 40
1.930984510863913
 50
348.8463171637945948
 51
0.5710980492431725
  0
ARC
  5
1AE3
  8
0
 10
93.4568341664756872
 20
54.902932988699753
 30
0.0
 40
0.1507174003773534
 50
297.6251151283930199
 51
348.7152772577833844
  0
ARC
  5
1AE4
  8
0
 10
93.7594392017176261
 20
54.3326218847367599
 30
0.0
 40
0.4949052840483972
 50
118.0492809584602014
 51
152.2395527058990865
  0
ARC
  5
1AE5
  8
0
 10
94.1220685795570375
 20
54.1544533057199473
 30
0.0
 40
0.8988539414701383
 50
152.9561818794146006
 51
172.3066050043084942
  0
ARC
  5
1AE6
  8
0
 10
94.9420927945708542
 20
54.0385051319644205
 30
0.0
 40
1.727026637974818
 50
172.1365365892905004
 51
179.5749593820752921
  0
ARC
  5
1AE7
  8
0
 10
93.195056493386474
 20
54.051546387027031
 30
0.0
 40
0.0200584987984322
 50
271.8986708778201091
 51
359.343947635418715
  0
LINE
  5
1AE8
  8
0
 10
93.2150408185603538
 20
54.0314989006494883
 30
0.0
 11
93.2150408185603538
 21
39.7003989006509812
 31
0.0
  0
ARC
  5
1AE9
  8
0
 10
-176.165313284773589
 20
36.0480901349274916
 30
0.0
 40
269.4051123051635841
 50
0.4173048531164536
 51
0.7767792027230068
  0
ARC
  5
1AEA
  8
0
 10
93.0123518648301655
 20
39.0573004869301101
 30
0.0
 40
0.3739103526371098
 50
6.9640977620377642
 51
56.3883809031809022
  0
ARC
  5
1AEB
  8
0
 10
93.0123518648301655
 20
38.198497314368872
 30
0.0
 40
0.3739103526371098
 50
328.5162928297531266
 51
353.0359022379623184
  0
ARC
  5
1AEC
  8
0
 10
89.5131375754993144
 20
38.6278989006494911
 30
0.0
 40
3.8993728748379661
 50
353.0070581047049814
 51
6.9929418951953624
  0
LINE
  5
1AEE
  8
0
 10
91.069309573860366
 20
54.769397309849488
 30
0.0
 11
93.5267194814603471
 21
54.769397309849488
 31
0.0
  0
ENDSEC
  0
EOF
