  0
SECTION
  2
HEADER
  9
$ACADVER
  1
AC1009
  9
$INSBASE
 10
4328.5240545233191369
 20
191.8389367132903942
 30
0.0
  9
$EXTMIN
 10
4327.7733733134336944
 20
191.8389367132903089
 30
0.0
  9
$EXTMAX
 10
4329.2747357332045794
 20
191.9915148127088003
 30
0.0
  9
$LIMMIN
 10
0.0
 20
0.0
  9
$LIMMAX
 10
11.6929133858000007
 20
8.2677165353999982
  9
$ORTHOMODE
 70
     0
  9
$REGENMODE
 70
     1
  9
$FILLMODE
 70
     1
  9
$QTEXTMODE
 70
     0
  9
$MIRRTEXT
 70
     0
  9
$DRAGMODE
 70
     2
  9
$LTSCALE
 40
0.6431102362
  9
$OSMODE
 70
  4095
  9
$ATTMODE
 70
     1
  9
$TEXTSIZE
 40
0.2
  9
$TRACEWID
 40
0.05
  9
$TEXTSTYLE
  7
STANDARD
  9
$CLAYER
  8
0
  9
$CELTYPE
  6
BYLAYER
  9
$CECOLOR
 62
   256
  9
$DIMSCALE
 40
1.0
  9
$DIMASZ
 40
0.1875
  9
$DIMEXO
 40
0.0625
  9
$DIMDLI
 40
0.4443307087
  9
$DIMRND
 40
0.0
  9
$DIMDLE
 40
0.0
  9
$DIMEXE
 40
0.125
  9
$DIMTP
 40
0.01
  9
$DIMTM
 40
0.01
  9
$DIMTXT
 40
2.0
  9
$DIMCEN
 40
0.1052362205
  9
$DIMTSZ
 40
0.0
  9
$DIMTOL
 70
     1
  9
$DIMLIM
 70
     0
  9
$DIMTIH
 70
     1
  9
$DIMTOH
 70
     1
  9
$DIMSE1
 70
     0
  9
$DIMSE2
 70
     0
  9
$DIMTAD
 70
     0
  9
$DIMZIN
 70
     0
  9
$DIMBLK
  1

  9
$DIMASO
 70
     1
  9
$DIMSHO
 70
     1
  9
$DIMPOST
  1
\X
  9
$DIMAPOST
  1

  9
$DIMALT
 70
     1
  9
$DIMALTD
 70
     2
  9
$DIMALTF
 40
25.3999999999999986
  9
$DIMLFAC
 40
1.0
  9
$DIMTOFL
 70
     0
  9
$DIMTVP
 40
0.0
  9
$DIMTIX
 70
     0
  9
$DIMSOXD
 70
     0
  9
$DIMSAH
 70
     0
  9
$DIMBLK1
  1

  9
$DIMBLK2
  1

  9
$DIMSTYLE
  2
STANDARD
  9
$DIMCLRD
 70
     0
  9
$DIMCLRE
 70
     0
  9
$DIMCLRT
 70
     0
  9
$DIMTFAC
 40
1.0
  9
$DIMGAP
 40
0.09
  9
$LUNITS
 70
     2
  9
$LUPREC
 70
     4
  9
$SKETCHINC
 40
0.1
  9
$FILLETRAD
 40
0.0
  9
$AUNITS
 70
     0
  9
$AUPREC
 70
     0
  9
$MENU
  1
.
  9
$ELEVATION
 40
0.0
  9
$PELEVATION
 40
0.0
  9
$THICKNESS
 40
0.0
  9
$LIMCHECK
 70
     0
  9
$BLIPMODE
 70
     0
  9
$CHAMFERA
 40
0.0
  9
$CHAMFERB
 40
0.0
  9
$SKPOLY
 70
     0
  9
$TDCREATE
 40
2458060.468368056230247
  9
$TDUPDATE
 40
2460102.7598148151300848
  9
$TDINDWG
 40
0.4505857639
  9
$TDUSRTIMER
 40
0.4505857639
  9
$USRTIMER
 70
     1
  9
$ANGBASE
 50
0.0
  9
$ANGDIR
 70
     0
  9
$PDMODE
 70
     0
  9
$PDSIZE
 40
0.3125
  9
$PLINEWID
 40
0.0
  9
$COORDS
 70
     1
  9
$SPLFRAME
 70
     0
  9
$SPLINETYPE
 70
     6
  9
$SPLINESEGS
 70
     8
  9
$ATTDIA
 70
     1
  9
$ATTREQ
 70
     1
  9
$HANDLING
 70
     1
  9
$HANDSEED
  5
E20B
  9
$SURFTAB1
 70
     6
  9
$SURFTAB2
 70
     6
  9
$SURFTYPE
 70
     6
  9
$SURFU
 70
     6
  9
$SURFV
 70
     6
  9
$UCSNAME
  2

  9
$UCSORG
 10
0.0
 20
0.0
 30
0.0
  9
$UCSXDIR
 10
1.0
 20
0.0
 30
0.0
  9
$UCSYDIR
 10
0.0
 20
1.0
 30
0.0
  9
$PUCSNAME
  2

  9
$PUCSORG
 10
0.0
 20
0.0
 30
0.0
  9
$PUCSXDIR
 10
1.0
 20
0.0
 30
0.0
  9
$PUCSYDIR
 10
0.0
 20
1.0
 30
0.0
  9
$USERI1
 70
     0
  9
$USERI2
 70
     0
  9
$USERI3
 70
     0
  9
$USERI4
 70
     0
  9
$USERI5
 70
     0
  9
$USERR1
 40
0.0
  9
$USERR2
 40
0.0
  9
$USERR3
 40
0.0
  9
$USERR4
 40
0.0
  9
$USERR5
 40
0.0
  9
$WORLDVIEW
 70
     1
  9
$SHADEDGE
 70
     3
  9
$SHADEDIF
 70
    70
  9
$TILEMODE
 70
     1
  9
$MAXACTVP
 70
    64
  9
$PLIMCHECK
 70
     0
  9
$PEXTMIN
 10
1.0000000000000000E+20
 20
1.0000000000000000E+20
 30
1.0000000000000000E+20
  9
$PEXTMAX
 10
-1.0000000000000000E+20
 20
-1.0000000000000000E+20
 30
-1.0000000000000000E+20
  9
$PLIMMIN
 10
0.0
 20
0.0
  9
$PLIMMAX
 10
12.0
 20
9.0
  9
$UNITMODE
 70
     0
  9
$VISRETAIN
 70
     1
  9
$PLINEGEN
 70
     0
  9
$PSLTSCALE
 70
     1
  0
ENDSEC
  0
SECTION
  2
TABLES
  0
TABLE
  2
VPORT
 70
     1
  0
VPORT
  2
*ACTIVE
 70
     0
 10
0.0
 20
0.0
 11
1.0
 21
1.0
 12
524.9799871405075464
 22
65.9199635662496632
 13
0.0
 23
0.0
 14
1.0
 24
1.0
 15
0.0
 25
0.0
 16
0.0
 26
0.0
 36
17.1152628219792007
 17
3803.5440673828129547
 27
125.9952621967499056
 37
0.0
 40
1.054973711352504
 41
1.4307692307692299
 42
50.0
 43
0.0
 44
0.0
 50
0.0
 51
0.0
 71
     0
 72
   100
 73
     1
 74
     1
 75
     0
 76
     0
 77
     0
 78
     0
  0
ENDTAB
  0
TABLE
  2
LTYPE
 70
     2
  0
LTYPE
  2
CONTINUOUS
 70
     0
  3
Solid line
 72
    65
 73
     0
 40
0.0
  0
LTYPE
  2
PHANTOM2
 70
     0
  3
___ _ _ ___ _ _ ___ _ _ ___ _ _
 72
    65
 73
     6
 40
1.25
 49
0.625
 49
-0.125
 49
0.125
 49
-0.125
 49
0.125
 49
-0.125
  0
ENDTAB
  0
TABLE
  2
LAYER
 70
     2
  0
LAYER
  2
0
 70
     0
 62
   255
  6
CONTINUOUS
  0
LAYER
  2
DEFPOINTS
 70
     0
 62
     7
  6
CONTINUOUS
  0
ENDTAB
  0
TABLE
  2
STYLE
 70
     1
  0
STYLE
  2
STANDARD
 70
     0
 40
0.0
 41
0.8
 50
0.0
 71
     0
 42
0.2
  3
txt
  4

  0
ENDTAB
  0
TABLE
  2
VIEW
 70
     0
  0
ENDTAB
  0
TABLE
  2
UCS
 70
     0
  0
ENDTAB
  0
TABLE
  2
APPID
 70
     9
  0
APPID
  2
ACAD
 70
     0
  0
APPID
  2
ACAD_MLEADERVER
 70
     0
  0
APPID
  2
ACAD_EXEMPT_FROM_CAD_STANDARDS
 70
     0
  0
APPID
  2
ACAD_NAV_VCDISPLAY
 70
     0
  0
APPID
  2
ACAECLAYERSTANDARD
 70
     0
  0
APPID
  2
ACCMTRANSPARENCY
 70
     0
  0
APPID
  2
ACAD_DSTYLE_DIMJAG
 70
     0
  0
APPID
  2
ACAD_DSTYLE_DIMTALN
 70
     0
  0
APPID
  2
ACDBATTR
 70
     0
  0
ENDTAB
  0
TABLE
  2
DIMSTYLE
 70
     1
  0
DIMSTYLE
  2
STANDARD
 70
     0
  3

  4

  5

  6

  7

 40
1.0
 41
0.1875
 42
0.0625
 43
0.38
 44
0.125
 45
0.0
 46
0.0
 47
0.01
 48
0.01
140
0.15625
141
0.09
142
0.0
143
25.3999999999999986
144
1.0
145
0.0
146
1.0
147
0.09
 71
     1
 72
     0
 73
     1
 74
     1
 75
     0
 76
     0
 77
     0
 78
     4
170
     0
171
     2
172
     0
173
     0
174
     0
175
     0
176
     0
177
     0
178
     0
  0
ENDTAB
  0
ENDSEC
  0
SECTION
  2
BLOCKS
  0
BLOCK
  8
0
  2
$MODEL_SPACE
 70
     0
 10
0.0
 20
0.0
 30
0.0
  3
$MODEL_SPACE
  1

  0
ENDBLK
  5
21
  8
0
  0
BLOCK
 67
     1
  8
0
  2
$PAPER_SPACE
 70
     0
 10
0.0
 20
0.0
 30
0.0
  3
$PAPER_SPACE
  1

  0
ENDBLK
  5
1D
 67
     1
  8
0
  0
ENDSEC
  0
SECTION
  2
ENTITIES
  0
ATTDEF
  5
3930
  8
DEFPOINTS
 10
4328.5240597188167158
 20
191.8422754714034966
 30
0.0
 40
0.001
  1
P70314-00
  3

  2
MODELNUMBER
 70
     0
1001
ACDBATTR
1070
     0
1070
     1
  0
ATTDEF
  5
3931
  8
DEFPOINTS
 10
4328.5240597188167158
 20
191.840608804736803
 30
0.0
 40
0.001
  1
PLEO
  3

  2
TRADENAME
 70
     0
1001
ACDBATTR
1070
     0
1070
     1
  0
ATTDEF
  5
3932
  8
DEFPOINTS
 10
4328.5240597188167158
 20
191.8389421380701947
 30
0.0
 40
0.001
  1
ACTUATOR PLATE
  3

  2
PRODUCT
 70
     0
1001
ACDBATTR
1070
     0
1070
     1
  0
LINE
  5
E0E7
  8
0
 10
4329.27473573320367
 20
191.8389367132903942
 30
0.0
 11
4327.7733733134346039
 21
191.8389367132903942
 31
0.0
  0
ARC
  5
E0E8
  8
0
 10
4327.7930275697262914
 20
191.8803398252883028
 30
0.0
 40
0.019654345499711
 50
94.2957771001473617
 51
179.8273720560929121
  0
ARC
  5
E0E9
  8
0
 10
4327.6200357178977356
 20
193.992617472975013
 30
0.0
 40
2.0996957794027842
 50
274.6855901395019828
 51
282.3450685041224233
  0
ARC
  5
E0EA
  8
0
 10
4331.7239089626182249
 20
204.2012042053615062
 30
0.0
 40
12.7920443545773406
 50
253.4155748186242931
 51
253.9996291342175994
  0
ARC
  5
E0EB
  8
0
 10
4328.0705320297684011
 20
191.9347099815695117
 30
0.0
 40
0.0069445048318798
 50
71.7813259865659887
 51
103.1827788956679939
  0
LINE
  5
E0EC
  8
0
 10
4328.1107738220462124
 20
191.9330318659903867
 30
0.0
 11
4328.1107738220462124
 21
191.9300325732216095
 31
0.0
  0
ARC
  5
E0ED
  8
0
 10
4328.1306050524872262
 20
191.9329101051671103
 30
0.0
 40
0.0198316042352594
 50
101.5912039524425978
 51
179.6482168042630008
  0
ARC
  5
E0EE
  8
0
 10
4328.5212277994605756
 20
189.9846264047166073
 30
0.0
 40
2.006888407992184
 50
78.4872049206223892
 51
101.3397554273481944
  0
ARC
  5
E0EF
  8
0
 10
4328.9176413791792584
 20
191.9317020748057132
 30
0.0
 40
0.0198694403606762
 50
2.7261609568852569
 51
77.9891170376288159
  0
LINE
  5
E0F0
  8
0
 10
4328.9374883325453993
 20
191.9326471157332037
 30
0.0
 11
4328.9374883325453993
 21
191.9026580114947933
 31
0.0
  0
LINE
  5
E0F1
  8
0
 10
4328.9698341614439414
 20
191.9321605256903922
 30
0.0
 11
4328.9693078374139077
 21
191.9020074448183948
 31
0.0
  0
ARC
  5
E0F2
  8
0
 10
4328.9776988600169716
 20
191.932050170620613
 30
0.0
 40
0.0078654727687009
 50
78.173966841545635
 51
179.1960957221357091
  0
ARC
  5
E0F3
  8
0
 10
4329.4303361815200333
 20
193.8942316432905955
 30
0.0
 40
2.0058483192925718
 50
257.0056381997848121
 51
265.0168595833886229
  0
ARC
  5
E0F4
  8
0
 10
4329.2549209099488507
 20
191.8761441200670106
 30
0.0
 40
0.019855923428853
 50
3.687137669992937
 51
86.5870451607391942
  0
ARC
  5
E0F5
  8
0
 10
4328.9712994764249743
 20
192.4515539192130973
 30
0.0
 40
0.5495500833823306
 50
269.4940801435204776
 51
269.7923523935806998
  0
ARC
  5
E0F6
  8
0
 10
4328.9762716803134026
 20
193.0146448712413019
 30
0.0
 40
1.1126629877519341
 50
267.5825675879585788
 51
269.4940801435204776
  0
ARC
  5
E0F7
  8
0
 10
4328.5467998442845783
 20
182.9917444687893067
 30
0.0
 40
8.9194346757283061
 50
87.5419228062639405
 51
91.5730185169494035
  0
ARC
  5
E0F8
  8
0
 10
4328.1659558342253149
 20
194.731455184944906
 30
0.0
 40
2.8269104922866011
 50
270.6467297456493952
 51
272.7574590090528091
  0
ARC
  5
E0F9
  8
0
 10
4327.7647465590243883
 20
188.1462590414921863
 30
0.0
 40
3.7537756465481968
 50
87.1677898740181973
 51
89.5908002638556411
  0
ARC
  5
E0FA
  8
0
 10
4327.9856944706907598
 20
192.6124072716646083
 30
0.0
 40
0.7178345772461081
 50
267.1677898740182968
 51
270.2671555532202206
  0
ARC
  5
E0FB
  8
0
 10
4328.5964894193775763
 20
101.5314056562093015
 30
0.0
 40
90.3652165402227325
 50
89.6237318701171688
 51
90.3851533074687978
  0
ARC
  5
E0FC
  8
0
 10
4329.1961365704828495
 20
193.2728491317261899
 30
0.0
 40
1.3781895219799301
 50
269.7417296243824012
 51
272.4937839419175134
  0
LINE
  5
E0FD
  8
0
 10
4329.27473573320367
 20
191.8774210204406927
 30
0.0
 11
4329.27473573320367
 21
191.8389367132903942
 31
0.0
  0
LINE
  5
E0FE
  8
0
 10
4327.7733733134346039
 20
191.8803990422873937
 30
0.0
 11
4327.7733733134346039
 21
191.8389367132903942
 31
0.0
  0
LINE
  5
E100
  8
0
 10
4327.9302410244463317
 20
191.8757694923903898
 30
0.0
 11
4327.9302447672471317
 21
191.8389367132903089
 31
0.0
  0
ARC
  5
E101
  8
0
 10
4327.9498642890803239
 20
191.875829482549193
 30
0.0
 40
0.0196233563329712
 50
88.945703101453546
 51
180.175158021418099
  0
ENDSEC
  0
EOF
