  0
SECTION
  2
HEADER
  9
$ACADVER
  1
AC1009
  9
$INSBASE
 10
4327.2581901118610404
 20
186.4580349254947009
 30
0.0
  9
$EXTMIN
 10
4324.6806855569620893
 20
185.7073537157351097
 30
0.0
  9
$EXTMAX
 10
4329.8356946667627199
 20
187.2087161353794897
 30
0.0
  9
$LIMMIN
 10
0.0
 20
0.0
  9
$LIMMAX
 10
11.6929133858000007
 20
8.2677165353999982
  9
$ORTHOMODE
 70
     0
  9
$REGENMODE
 70
     1
  9
$FILLMODE
 70
     1
  9
$QTEXTMODE
 70
     0
  9
$MIRRTEXT
 70
     0
  9
$DRAGMODE
 70
     2
  9
$LTSCALE
 40
0.6431102362
  9
$OSMODE
 70
  4095
  9
$ATTMODE
 70
     1
  9
$TEXTSIZE
 40
0.2
  9
$TRACEWID
 40
0.05
  9
$TEXTSTYLE
  7
STANDARD
  9
$CLAYER
  8
0
  9
$CELTYPE
  6
BYLAYER
  9
$CECOLOR
 62
   256
  9
$DIMSCALE
 40
1.0
  9
$DIMASZ
 40
0.1875
  9
$DIMEXO
 40
0.0625
  9
$DIMDLI
 40
0.4443307087
  9
$DIMRND
 40
0.0
  9
$DIMDLE
 40
0.0
  9
$DIMEXE
 40
0.125
  9
$DIMTP
 40
0.01
  9
$DIMTM
 40
0.01
  9
$DIMTXT
 40
2.0
  9
$DIMCEN
 40
0.1052362205
  9
$DIMTSZ
 40
0.0
  9
$DIMTOL
 70
     1
  9
$DIMLIM
 70
     0
  9
$DIMTIH
 70
     1
  9
$DIMTOH
 70
     1
  9
$DIMSE1
 70
     0
  9
$DIMSE2
 70
     0
  9
$DIMTAD
 70
     0
  9
$DIMZIN
 70
     0
  9
$DIMBLK
  1

  9
$DIMASO
 70
     1
  9
$DIMSHO
 70
     1
  9
$DIMPOST
  1
\X
  9
$DIMAPOST
  1

  9
$DIMALT
 70
     1
  9
$DIMALTD
 70
     2
  9
$DIMALTF
 40
25.3999999999999986
  9
$DIMLFAC
 40
1.0
  9
$DIMTOFL
 70
     0
  9
$DIMTVP
 40
0.0
  9
$DIMTIX
 70
     0
  9
$DIMSOXD
 70
     0
  9
$DIMSAH
 70
     0
  9
$DIMBLK1
  1

  9
$DIMBLK2
  1

  9
$DIMSTYLE
  2
STANDARD
  9
$DIMCLRD
 70
     0
  9
$DIMCLRE
 70
     0
  9
$DIMCLRT
 70
     0
  9
$DIMTFAC
 40
1.0
  9
$DIMGAP
 40
0.09
  9
$LUNITS
 70
     2
  9
$LUPREC
 70
     4
  9
$SKETCHINC
 40
0.1
  9
$FILLETRAD
 40
0.0
  9
$AUNITS
 70
     0
  9
$AUPREC
 70
     0
  9
$MENU
  1
.
  9
$ELEVATION
 40
0.0
  9
$PELEVATION
 40
0.0
  9
$THICKNESS
 40
0.0
  9
$LIMCHECK
 70
     0
  9
$BLIPMODE
 70
     0
  9
$CHAMFERA
 40
0.0
  9
$CHAMFERB
 40
0.0
  9
$SKPOLY
 70
     0
  9
$TDCREATE
 40
2458060.468368056230247
  9
$TDUPDATE
 40
2460102.759895833209157
  9
$TDINDWG
 40
0.4491737269
  9
$TDUSRTIMER
 40
0.4491737269
  9
$USRTIMER
 70
     1
  9
$ANGBASE
 50
0.0
  9
$ANGDIR
 70
     0
  9
$PDMODE
 70
     0
  9
$PDSIZE
 40
0.3125
  9
$PLINEWID
 40
0.0
  9
$COORDS
 70
     1
  9
$SPLFRAME
 70
     0
  9
$SPLINETYPE
 70
     6
  9
$SPLINESEGS
 70
     8
  9
$ATTDIA
 70
     1
  9
$ATTREQ
 70
     1
  9
$HANDLING
 70
     1
  9
$HANDSEED
  5
E11B
  9
$SURFTAB1
 70
     6
  9
$SURFTAB2
 70
     6
  9
$SURFTYPE
 70
     6
  9
$SURFU
 70
     6
  9
$SURFV
 70
     6
  9
$UCSNAME
  2

  9
$UCSORG
 10
0.0
 20
0.0
 30
0.0
  9
$UCSXDIR
 10
1.0
 20
0.0
 30
0.0
  9
$UCSYDIR
 10
0.0
 20
1.0
 30
0.0
  9
$PUCSNAME
  2

  9
$PUCSORG
 10
0.0
 20
0.0
 30
0.0
  9
$PUCSXDIR
 10
1.0
 20
0.0
 30
0.0
  9
$PUCSYDIR
 10
0.0
 20
1.0
 30
0.0
  9
$USERI1
 70
     0
  9
$USERI2
 70
     0
  9
$USERI3
 70
     0
  9
$USERI4
 70
     0
  9
$USERI5
 70
     0
  9
$USERR1
 40
0.0
  9
$USERR2
 40
0.0
  9
$USERR3
 40
0.0
  9
$USERR4
 40
0.0
  9
$USERR5
 40
0.0
  9
$WORLDVIEW
 70
     1
  9
$SHADEDGE
 70
     3
  9
$SHADEDIF
 70
    70
  9
$TILEMODE
 70
     1
  9
$MAXACTVP
 70
    64
  9
$PLIMCHECK
 70
     0
  9
$PEXTMIN
 10
1.0000000000000000E+20
 20
1.0000000000000000E+20
 30
1.0000000000000000E+20
  9
$PEXTMAX
 10
-1.0000000000000000E+20
 20
-1.0000000000000000E+20
 30
-1.0000000000000000E+20
  9
$PLIMMIN
 10
0.0
 20
0.0
  9
$PLIMMAX
 10
12.0
 20
9.0
  9
$UNITMODE
 70
     0
  9
$VISRETAIN
 70
     1
  9
$PLINEGEN
 70
     0
  9
$PSLTSCALE
 70
     1
  0
ENDSEC
  0
SECTION
  2
TABLES
  0
TABLE
  2
VPORT
 70
     1
  0
VPORT
  2
*ACTIVE
 70
     0
 10
0.0
 20
0.0
 11
1.0
 21
1.0
 12
523.7141227290499046
 22
60.4627727288074013
 13
0.0
 23
0.0
 14
1.0
 24
1.0
 15
0.0
 25
0.0
 16
0.0
 26
0.0
 36
17.1152628219792007
 17
3803.5440673828129547
 27
125.9952621967499056
 37
0.0
 40
3.622309324521737
 41
1.4307692307692299
 42
50.0
 43
0.0
 44
0.0
 50
0.0
 51
0.0
 71
     0
 72
   100
 73
     1
 74
     1
 75
     0
 76
     0
 77
     0
 78
     0
  0
ENDTAB
  0
TABLE
  2
LTYPE
 70
     2
  0
LTYPE
  2
CONTINUOUS
 70
     0
  3
Solid line
 72
    65
 73
     0
 40
0.0
  0
LTYPE
  2
PHANTOM2
 70
     0
  3
___ _ _ ___ _ _ ___ _ _ ___ _ _
 72
    65
 73
     6
 40
1.25
 49
0.625
 49
-0.125
 49
0.125
 49
-0.125
 49
0.125
 49
-0.125
  0
ENDTAB
  0
TABLE
  2
LAYER
 70
     2
  0
LAYER
  2
0
 70
     0
 62
   255
  6
CONTINUOUS
  0
LAYER
  2
DEFPOINTS
 70
     0
 62
     7
  6
CONTINUOUS
  0
ENDTAB
  0
TABLE
  2
STYLE
 70
     1
  0
STYLE
  2
STANDARD
 70
     0
 40
0.0
 41
0.8
 50
0.0
 71
     0
 42
0.2
  3
txt
  4

  0
ENDTAB
  0
TABLE
  2
VIEW
 70
     0
  0
ENDTAB
  0
TABLE
  2
UCS
 70
     0
  0
ENDTAB
  0
TABLE
  2
APPID
 70
     9
  0
APPID
  2
ACAD
 70
     0
  0
APPID
  2
ACAD_MLEADERVER
 70
     0
  0
APPID
  2
ACAD_EXEMPT_FROM_CAD_STANDARDS
 70
     0
  0
APPID
  2
ACAD_NAV_VCDISPLAY
 70
     0
  0
APPID
  2
ACAECLAYERSTANDARD
 70
     0
  0
APPID
  2
ACCMTRANSPARENCY
 70
     0
  0
APPID
  2
ACAD_DSTYLE_DIMJAG
 70
     0
  0
APPID
  2
ACAD_DSTYLE_DIMTALN
 70
     0
  0
APPID
  2
ACDBATTR
 70
     0
  0
ENDTAB
  0
TABLE
  2
DIMSTYLE
 70
     1
  0
DIMSTYLE
  2
STANDARD
 70
     0
  3

  4

  5

  6

  7

 40
1.0
 41
0.1875
 42
0.0625
 43
0.38
 44
0.125
 45
0.0
 46
0.0
 47
0.01
 48
0.01
140
0.15625
141
0.09
142
0.0
143
25.3999999999999986
144
1.0
145
0.0
146
1.0
147
0.09
 71
     1
 72
     0
 73
     1
 74
     1
 75
     0
 76
     0
 77
     0
 78
     4
170
     0
171
     2
172
     0
173
     0
174
     0
175
     0
176
     0
177
     0
178
     0
  0
ENDTAB
  0
ENDSEC
  0
SECTION
  2
BLOCKS
  0
BLOCK
  8
0
  2
$MODEL_SPACE
 70
     0
 10
0.0
 20
0.0
 30
0.0
  3
$MODEL_SPACE
  1

  0
ENDBLK
  5
21
  8
0
  0
BLOCK
 67
     1
  8
0
  2
$PAPER_SPACE
 70
     0
 10
0.0
 20
0.0
 30
0.0
  3
$PAPER_SPACE
  1

  0
ENDBLK
  5
1D
 67
     1
  8
0
  0
ENDSEC
  0
SECTION
  2
ENTITIES
  0
ATTDEF
  5
3930
  8
DEFPOINTS
 10
4327.258220776188864
 20
186.4613955164649042
 30
0.0
 40
0.001
  1
P70314-00
  3

  2
MODELNUMBER
 70
     0
1001
ACDBATTR
1070
     0
1070
     1
  0
ATTDEF
  5
3931
  8
DEFPOINTS
 10
4327.258220776188864
 20
186.4597288497982106
 30
0.0
 40
0.001
  1
PLEO
  3

  2
TRADENAME
 70
     0
1001
ACDBATTR
1070
     0
1070
     1
  0
ATTDEF
  5
3932
  8
DEFPOINTS
 10
4327.258220776188864
 20
186.4580621831316023
 30
0.0
 40
0.001
  1
ACTUATOR PLATE
  3

  2
PRODUCT
 70
     0
1001
ACDBATTR
1070
     0
1070
     1
  0
LINE
  5
DFF1
  8
0
 10
4327.5220801587620372
 20
186.0756608237753937
 30
0.0
 11
4327.5220801587620372
 21
186.8419516835793104
 31
0.0
  0
LINE
  5
DFF2
  8
0
 10
4327.5535762217623414
 20
186.0769227345138859
 30
0.0
 11
4327.5535762217623414
 21
186.8419516837500112
 31
0.0
  0
LINE
  5
DFF3
  8
0
 10
4329.4984581115622859
 20
186.196434169909395
 30
0.0
 11
4329.4984581115622859
 21
186.8419516837388983
 31
0.0
  0
LINE
  5
DFF4
  8
0
 10
4329.5291269502613432
 20
186.1777412899683952
 30
0.0
 11
4329.5291269502613432
 21
186.8628464621695002
 31
0.0
  0
LINE
  5
DFF5
  8
0
 10
4325.0266118350009492
 20
186.9021483535794914
 30
0.0
 11
4329.489764249912696
 21
186.9021483535794914
 31
0.0
  0
LINE
  5
DFF6
  8
0
 10
4325.0474497797622462
 20
186.8714792426794986
 30
0.0
 11
4327.4925525996623037
 21
186.8714792426794986
 31
0.0
  0
LINE
  5
DFF7
  8
0
 10
4327.5831037806919994
 20
186.8714792426794986
 30
0.0
 11
4329.4689305525062082
 21
186.8714792426794986
 31
0.0
  0
LINE
  5
DFF8
  8
0
 10
4325.0179222206616032
 20
186.1964342349795061
 30
0.0
 11
4325.0179222206616032
 21
186.8419516835795093
 31
0.0
  0
LINE
  5
DFF9
  8
0
 10
4324.9872533352117898
 20
186.1777206097214048
 30
0.0
 11
4324.9872533352117898
 21
186.862789931544313
 31
0.0
  0
LINE
  5
DFFA
  8
0
 10
4324.6806855569620893
 20
185.9228073745921108
 30
0.0
 11
4324.6806855569620893
 21
187.1496754527044004
 31
0.0
  0
LINE
  5
DFFB
  8
0
 10
4324.7397358130056091
 20
187.2087161353794897
 30
0.0
 11
4329.77663955044045
 21
187.2087161353794897
 31
0.0
  0
LINE
  5
DFFC
  8
0
 10
4329.8356946667627199
 20
185.9228339502334961
 30
0.0
 11
4329.8356946667627199
 21
187.1496651181793993
 31
0.0
  0
ARC
  5
DFFD
  8
0
 10
4329.77663955044045
 20
187.1496610189144008
 30
0.0
 40
0.0590551164651493
 50
0.0039771420432299
 51
90.0
  0
ARC
  5
DFFE
  8
0
 10
4327.2582601071253521
 20
206.1170534350954995
 30
0.0
 40
20.4096997194856584
 50
262.8910779582541863
 51
277.1085206500428058
  0
ARC
  5
E000
  8
0
 10
4324.7397057821381168
 20
185.9228205856448142
 30
0.0
 40
0.0590202266541059
 50
180.0128250535520067
 51
262.9259335183252233
  0
ARC
  5
E001
  8
0
 10
4329.7766395460666899
 20
185.9228339502334961
 30
0.0
 40
0.0590551206952888
 50
277.1021313088851912
 51
0.0000000000032569
  0
ARC
  5
E002
  8
0
 10
4324.739740673236156
 20
187.149661017540609
 30
0.0
 40
0.0590551180389324
 50
90.0047154380753369
 51
179.9859948806933971
  0
ARC
  5
E003
  8
0
 10
4325.0474497797622462
 20
186.8419516835795093
 30
0.0
 40
0.0295275591000017
 50
90.0
 51
180.0000000000065086
  0
ARC
  5
E004
  8
0
 10
4325.0266149351818967
 20
186.8627867536042118
 30
0.0
 40
0.03936160009744
 50
90.0045127046135889
 51
179.9953741067236876
  0
ARC
  5
E005
  8
0
 10
4327.2581904858634516
 20
206.1423079852793876
 30
0.0
 40
20.097543253099829
 50
263.6753228959025819
 51
270.6691376897817918
  0
ARC
  5
E006
  8
0
 10
4327.2581904858634516
 20
206.1423079852804108
 30
0.0
 40
20.09754325310087
 50
270.9276938066159914
 51
276.3246752799768728
  0
ARC
  5
E007
  8
0
 10
4327.4925525999160527
 20
186.0756608237753937
 30
0.0
 40
0.0295275588464582
 50
270.6691512533263904
 51
359.9999999999968168
  0
ARC
  5
E008
  8
0
 10
4327.5831037804628068
 20
186.0769227345138859
 30
0.0
 40
0.0295275587008304
 50
180.0000000000032117
 51
270.9276924382310767
  0
ARC
  5
E009
  8
0
 10
4325.0474497796385549
 20
186.1964342408323887
 30
0.0
 40
0.0295275589767382
 50
180.0000113570370956
 51
263.675326715640324
  0
ARC
  5
E00A
  8
0
 10
4327.2581903930622502
 20
206.1322693106795896
 30
0.0
 40
20.1181848114000807
 50
263.6184360194770875
 51
276.3815899775892149
  0
ARC
  5
E00B
  8
0
 10
4325.0265246581411702
 20
186.1777600907479098
 30
0.0
 40
0.0392713427746231
 50
180.057601711897405
 51
263.4882297928950834
  0
ARC
  5
E00C
  8
0
 10
4327.4925525996623037
 20
186.8419516835795093
 30
0.0
 40
0.0295275591000035
 50
359.9999999996857127
 51
90.0000000007295284
  0
ARC
  5
E00D
  8
0
 10
4327.5831037806919994
 20
186.8419516837502101
 30
0.0
 40
0.0295275589292938
 50
89.9999999997915552
 51
180.0000000004478125
  0
ARC
  5
E00E
  8
0
 10
4329.4689305524616429
 20
186.8419516835795093
 30
0.0
 40
0.0295275590999946
 50
0.000000309314795
 51
89.9999999156856774
  0
ARC
  5
E00F
  8
0
 10
4329.489764249986365
 20
186.8627856062607862
 30
0.0
 40
0.039362747318722
 50
0.0885809135312718
 51
90.0000001057316013
  0
ARC
  5
E010
  8
0
 10
4329.4689305528418117
 20
186.1964341697228065
 30
0.0
 40
0.029527558720527
 50
276.3246797852274881
 51
0.0000003621968853
  0
ARC
  5
E011
  8
0
 10
4329.4898555697564007
 20
186.177760047435811
 30
0.0
 40
0.0392713849862252
 50
276.5259044757945048
 51
359.9726334134359149
  0
ENDSEC
  0
EOF
