  0
SECTION
  2
HEADER
  9
$ACADVER
  1
AC1009
  9
$INSBASE
 10
3055.562407631879978
 20
57.0829893880723631
 30
0.0
  9
$EXTMIN
 10
3048.2397486221980216
 20
37.8063337817940024
 30
-0.0000000000112498
  9
$EXTMAX
 10
3062.7277986551621325
 20
57.0893236069763574
 30
0.0000000000002956
  9
$LIMMIN
 10
0.0
 20
0.0
  9
$LIMMAX
 10
11.6929133858000007
 20
8.2677165353999982
  9
$ORTHOMODE
 70
     0
  9
$REGENMODE
 70
     1
  9
$FILLMODE
 70
     1
  9
$QTEXTMODE
 70
     0
  9
$MIRRTEXT
 70
     0
  9
$DRAGMODE
 70
     2
  9
$LTSCALE
 40
0.6431102362
  9
$OSMODE
 70
  3839
  9
$ATTMODE
 70
     1
  9
$TEXTSIZE
 40
0.2
  9
$TRACEWID
 40
0.05
  9
$TEXTSTYLE
  7
STANDARD
  9
$CLAYER
  8
0
  9
$CELTYPE
  6
BYLAYER
  9
$CECOLOR
 62
   256
  9
$DIMSCALE
 40
1.0
  9
$DIMASZ
 40
0.1875
  9
$DIMEXO
 40
0.0625
  9
$DIMDLI
 40
0.4443307087
  9
$DIMRND
 40
0.0
  9
$DIMDLE
 40
0.0
  9
$DIMEXE
 40
0.125
  9
$DIMTP
 40
0.01
  9
$DIMTM
 40
0.01
  9
$DIMTXT
 40
2.0
  9
$DIMCEN
 40
0.1052362205
  9
$DIMTSZ
 40
0.0
  9
$DIMTOL
 70
     1
  9
$DIMLIM
 70
     0
  9
$DIMTIH
 70
     1
  9
$DIMTOH
 70
     1
  9
$DIMSE1
 70
     0
  9
$DIMSE2
 70
     0
  9
$DIMTAD
 70
     0
  9
$DIMZIN
 70
     0
  9
$DIMBLK
  1

  9
$DIMASO
 70
     1
  9
$DIMSHO
 70
     1
  9
$DIMPOST
  1
\X
  9
$DIMAPOST
  1

  9
$DIMALT
 70
     1
  9
$DIMALTD
 70
     2
  9
$DIMALTF
 40
25.3999999999999986
  9
$DIMLFAC
 40
1.0
  9
$DIMTOFL
 70
     0
  9
$DIMTVP
 40
0.0
  9
$DIMTIX
 70
     0
  9
$DIMSOXD
 70
     0
  9
$DIMSAH
 70
     0
  9
$DIMBLK1
  1

  9
$DIMBLK2
  1

  9
$DIMSTYLE
  2
STANDARD
  9
$DIMCLRD
 70
     0
  9
$DIMCLRE
 70
     0
  9
$DIMCLRT
 70
     0
  9
$DIMTFAC
 40
1.0
  9
$DIMGAP
 40
0.09
  9
$LUNITS
 70
     2
  9
$LUPREC
 70
     4
  9
$SKETCHINC
 40
0.1
  9
$FILLETRAD
 40
0.0
  9
$AUNITS
 70
     0
  9
$AUPREC
 70
     0
  9
$MENU
  1
.
  9
$ELEVATION
 40
0.0
  9
$PELEVATION
 40
0.0
  9
$THICKNESS
 40
0.0
  9
$LIMCHECK
 70
     0
  9
$BLIPMODE
 70
     0
  9
$CHAMFERA
 40
0.0
  9
$CHAMFERB
 40
0.0
  9
$SKPOLY
 70
     0
  9
$TDCREATE
 40
2458060.468368056230247
  9
$TDUPDATE
 40
2460419.4334259261377156
  9
$TDINDWG
 40
0.4897177083
  9
$TDUSRTIMER
 40
0.4897177083
  9
$USRTIMER
 70
     1
  9
$ANGBASE
 50
0.0
  9
$ANGDIR
 70
     0
  9
$PDMODE
 70
     0
  9
$PDSIZE
 40
0.3125
  9
$PLINEWID
 40
0.0
  9
$COORDS
 70
     1
  9
$SPLFRAME
 70
     0
  9
$SPLINETYPE
 70
     6
  9
$SPLINESEGS
 70
     8
  9
$ATTDIA
 70
     1
  9
$ATTREQ
 70
     1
  9
$HANDLING
 70
     1
  9
$HANDSEED
  5
31076
  9
$SURFTAB1
 70
     6
  9
$SURFTAB2
 70
     6
  9
$SURFTYPE
 70
     6
  9
$SURFU
 70
     6
  9
$SURFV
 70
     6
  9
$UCSNAME
  2

  9
$UCSORG
 10
0.0
 20
0.0
 30
0.0
  9
$UCSXDIR
 10
1.0
 20
0.0
 30
0.0
  9
$UCSYDIR
 10
0.0
 20
1.0
 30
0.0
  9
$PUCSNAME
  2

  9
$PUCSORG
 10
0.0
 20
0.0
 30
0.0
  9
$PUCSXDIR
 10
1.0
 20
0.0
 30
0.0
  9
$PUCSYDIR
 10
0.0
 20
1.0
 30
0.0
  9
$USERI1
 70
     0
  9
$USERI2
 70
     0
  9
$USERI3
 70
     0
  9
$USERI4
 70
     0
  9
$USERI5
 70
     0
  9
$USERR1
 40
0.0
  9
$USERR2
 40
0.0
  9
$USERR3
 40
0.0
  9
$USERR4
 40
0.0
  9
$USERR5
 40
0.0
  9
$WORLDVIEW
 70
     1
  9
$SHADEDGE
 70
     3
  9
$SHADEDIF
 70
    70
  9
$TILEMODE
 70
     1
  9
$MAXACTVP
 70
    64
  9
$PLIMCHECK
 70
     0
  9
$PEXTMIN
 10
1.0000000000000000E+20
 20
1.0000000000000000E+20
 30
1.0000000000000000E+20
  9
$PEXTMAX
 10
-1.0000000000000000E+20
 20
-1.0000000000000000E+20
 30
-1.0000000000000000E+20
  9
$PLIMMIN
 10
0.0
 20
0.0
  9
$PLIMMAX
 10
12.0
 20
9.0
  9
$UNITMODE
 70
     0
  9
$VISRETAIN
 70
     1
  9
$PLINEGEN
 70
     0
  9
$PSLTSCALE
 70
     1
  0
ENDSEC
  0
SECTION
  2
TABLES
  0
TABLE
  2
VPORT
 70
     1
  0
VPORT
  2
*ACTIVE
 70
     0
 10
0.0
 20
0.0
 11
1.0
 21
1.0
 12
-748.0602937441326503
 22
-78.5474335023647399
 13
0.0
 23
0.0
 14
1.0
 24
1.0
 15
0.0
 25
0.0
 16
0.0
 26
0.0
 36
17.1152628219792007
 17
3803.5440673828129547
 27
125.9952621967499056
 37
0.0
 40
19.4114004122534993
 41
2.1211111111111101
 42
50.0
 43
0.0
 44
0.0
 50
0.0
 51
0.0
 71
     0
 72
   100
 73
     1
 74
     1
 75
     0
 76
     0
 77
     0
 78
     0
  0
ENDTAB
  0
TABLE
  2
LTYPE
 70
     2
  0
LTYPE
  2
CONTINUOUS
 70
     0
  3
Solid line
 72
    65
 73
     0
 40
0.0
  0
LTYPE
  2
PHANTOM2
 70
     0
  3
___ _ _ ___ _ _ ___ _ _ ___ _ _
 72
    65
 73
     6
 40
1.25
 49
0.625
 49
-0.125
 49
0.125
 49
-0.125
 49
0.125
 49
-0.125
  0
ENDTAB
  0
TABLE
  2
LAYER
 70
     2
  0
LAYER
  2
0
 70
     0
 62
   255
  6
CONTINUOUS
  0
LAYER
  2
DEFPOINTS
 70
     0
 62
     7
  6
CONTINUOUS
  0
ENDTAB
  0
TABLE
  2
STYLE
 70
     1
  0
STYLE
  2
STANDARD
 70
     0
 40
0.0
 41
0.8
 50
0.0
 71
     0
 42
0.2
  3
txt
  4

  0
ENDTAB
  0
TABLE
  2
VIEW
 70
     0
  0
ENDTAB
  0
TABLE
  2
UCS
 70
     0
  0
ENDTAB
  0
TABLE
  2
APPID
 70
    10
  0
APPID
  2
ACAD
 70
     0
  0
APPID
  2
ACAD_MLEADERVER
 70
     0
  0
APPID
  2
ACAD_EXEMPT_FROM_CAD_STANDARDS
 70
     0
  0
APPID
  2
ACAD_NAV_VCDISPLAY
 70
     0
  0
APPID
  2
ACAECLAYERSTANDARD
 70
     0
  0
APPID
  2
ACCMTRANSPARENCY
 70
     0
  0
APPID
  2
ACAD_DSTYLE_DIMJAG
 70
     0
  0
APPID
  2
ACAD_DSTYLE_DIMTALN
 70
     0
  0
APPID
  2
ACDBATTR
 70
     0
  0
APPID
  2
DCO15
 70
     0
  0
ENDTAB
  0
TABLE
  2
DIMSTYLE
 70
     1
  0
DIMSTYLE
  2
STANDARD
 70
     0
  3

  4

  5

  6

  7

 40
1.0
 41
0.1875
 42
0.0625
 43
0.38
 44
0.125
 45
0.0
 46
0.0
 47
0.01
 48
0.01
140
0.15625
141
0.09
142
0.0
143
25.3999999999999986
144
1.0
145
0.0
146
1.0
147
0.09
 71
     1
 72
     0
 73
     1
 74
     1
 75
     0
 76
     0
 77
     0
 78
     4
170
     0
171
     2
172
     0
173
     0
174
     0
175
     0
176
     0
177
     0
178
     0
  0
ENDTAB
  0
ENDSEC
  0
SECTION
  2
BLOCKS
  0
BLOCK
  8
0
  2
$MODEL_SPACE
 70
     0
 10
0.0
 20
0.0
 30
0.0
  3
$MODEL_SPACE
  1

  0
ENDBLK
  5
21
  8
0
  0
BLOCK
 67
     1
  8
0
  2
$PAPER_SPACE
 70
     0
 10
0.0
 20
0.0
 30
0.0
  3
$PAPER_SPACE
  1

  0
ENDBLK
  5
1D
 67
     1
  8
0
  0
BLOCK
  8
0
  2
_FILLED
 70
     0
 10
0.0
 20
0.0
 30
0.0
  3
_FILLED
  1

  0
SOLID
  5
2F55F
  8
0
  6
BYBLOCK
 62
     0
 10
0.0
 20
0.0
 30
0.0
 11
-1.0
 21
0.1666666667
 31
0.0
 12
-1.0
 22
-0.1666666667
 32
0.0
 13
-1.0
 23
-0.1666666667
 33
0.0
  0
ENDBLK
  5
2F560
  8
0
  6
BYBLOCK
 62
     0
  0
ENDSEC
  0
SECTION
  2
ENTITIES
  0
ATTDEF
  5
30CD1
  8
DEFPOINTS
 10
3055.5622052827679909
 20
57.0874522139007965
 30
0.0
 40
0.001
  1
P70313-PGP
  3

  2
MODELNUMBER
 70
     0
1001
ACDBATTR
1070
     0
1070
     1
  0
ATTDEF
  5
30CD2
  8
DEFPOINTS
 10
3055.5622052827679909
 20
57.0857855472341384
 30
0.0
 40
0.001
  1

  3

  2
TRADENAME
 70
     0
1001
ACDBATTR
1070
     0
1070
     1
  0
ATTDEF
  5
30CD3
  8
DEFPOINTS
 10
3055.5622052827679909
 20
57.0841188805674804
 30
0.0
 40
0.001
  1
TOILET SEAT
  3

  2
PRODUCT
 70
     0
1001
ACDBATTR
1070
     0
1070
     1
  0
LINE
  5
30E44
  8
0
 10
3054.0124073714650876
 20
55.6898348144964928
 30
0.0
 11
3054.0124073714650876
 21
55.3700157993105933
 31
0.0
  0
LINE
  5
30E45
  8
0
 10
3051.6124068735712171
 20
55.689989979118188
 30
0.0
 11
3051.6124068735712171
 21
55.3622035026456771
 31
0.0
  0
ARC
  5
30E46
  8
0
 10
3052.8131546449390044
 20
51.21554496170031
 30
0.0
 40
4.7292439616771622
 50
95.7682730426615763
 51
103.4821835871407956
  0
ARC
  5
30E47
  8
0
 10
3052.8114563841641029
 20
51.2206154162099807
 30
0.0
 40
4.7242099442006227
 50
76.5001655776647311
 51
84.2215044519110307
  0
ARC
  5
30E48
  8
0
 10
3051.7404068735709188
 20
55.689989979118188
 30
0.0
 40
0.128
 50
103.482183587140895
 51
179.9999999999967031
  0
ARC
  5
30E49
  8
0
 10
3053.8844073714649312
 20
55.6898348144964928
 30
0.0
 40
0.128
 50
359.9999999999984084
 51
76.5001655776648306
  0
LINE
  5
30E4A
  8
0
 10
3052.40288006726405
 20
55.862041720401713
 30
0.0
 11
3052.40288006726405
 21
55.3700157993105933
 31
0.0
  0
LINE
  5
30E4B
  8
0
 10
3053.222053126064111
 20
55.8620199193887288
 30
0.0
 11
3053.222053126064111
 21
55.3700157993105933
 31
0.0
  0
ARC
  5
30E4C
  8
0
 10
3053.281153126064055
 20
55.862019919388743
 30
0.0
 40
0.0591
 50
84.2215044519109739
 51
180.0000000000069065
  0
ARC
  5
30E4D
  8
0
 10
3052.3437800672650155
 20
55.8620417204017201
 30
0.0
 40
0.0591
 50
359.9999999999964189
 51
95.7682730426875679
  0
LINE
  5
30E4E
  8
0
 10
3052.4048800672640027
 20
55.8851417836105924
 30
0.0
 11
3052.4048800672640027
 21
55.3700157993105933
 31
0.0
  0
LINE
  5
30E4F
  8
0
 10
3052.4344076263641909
 20
55.8654417836105921
 30
0.0
 11
3052.4344076263641909
 21
55.3700157993105933
 31
0.0
  0
LINE
  5
30E50
  8
0
 10
3052.4048800672640027
 20
55.8851417836105924
 30
0.0
 11
3052.414707626364816
 21
55.8851417836105924
 31
0.0
  0
ARC
  5
30E51
  8
0
 10
3052.414707626364816
 20
55.8654417836105992
 30
0.0
 40
0.0197
 50
359.9999999999894271
 51
90.0
  0
LINE
  5
30E52
  8
0
 10
3052.4028800692681216
 20
55.8162441458105931
 30
0.0
 11
3052.4048800672640027
 21
55.8162441458105931
 31
0.0
  0
LINE
  5
30E53
  8
0
 10
3052.4483368805640566
 20
55.8298350876257174
 30
0.0
 11
3052.4483368805640566
 21
55.3700157993105933
 31
0.0
  0
LINE
  5
30E54
  8
0
 10
3052.4344076263641909
 20
55.7680157993105894
 30
0.0
 11
3052.4483368805640566
 21
55.7680157993105894
 31
0.0
  0
LINE
  5
30E55
  8
0
 10
3053.1904076262640046
 20
55.8851417836105924
 30
0.0
 11
3053.2199351853641929
 21
55.8851417836105924
 31
0.0
  0
LINE
  5
30E56
  8
0
 10
3053.2199351853641929
 20
55.8851417836105924
 30
0.0
 11
3053.2199351853641929
 21
55.3700157993105933
 31
0.0
  0
LINE
  5
30E57
  8
0
 10
3053.2199351853641929
 20
55.7867165867105896
 30
0.0
 11
3053.2220532955648196
 21
55.7867165867105896
 31
0.0
  0
LINE
  5
30E58
  8
0
 10
3053.1904076262640046
 20
55.8851417836105924
 30
0.0
 11
3053.1904076262640046
 21
55.3700157993105933
 31
0.0
  0
LINE
  5
30E59
  8
0
 10
3053.1764076550512073
 20
55.8294221255032426
 30
0.0
 11
3053.1764079118911468
 21
55.3700157993105933
 31
0.0
  0
LINE
  5
30E5A
  8
0
 10
3053.1804076262637864
 20
55.738015785136767
 30
0.0
 11
3053.1804076262637864
 21
55.3700157993105933
 31
0.0
  0
ARC
  5
30E5B
  8
0
 10
3053.150407626264041
 20
55.7380157993105882
 30
0.0
 40
0.030000000000033
 50
359.999972930015474
 51
29.9190324649742685
  0
LINE
  5
30E5C
  8
0
 10
3053.1804076262637864
 20
55.530815799310588
 30
0.0
 11
3053.1904076262640046
 21
55.5308157993106022
 31
0.0
  0
ARC
  5
30E5D
  8
0
 10
3052.332769645773169
 20
55.8363327303781816
 30
0.0
 40
0.1157497521328914
 50
356.7819947705265236
 51
54.0398255005931816
  0
ARC
  5
30E5E
  8
0
 10
3052.8124043680409159
 20
56.433014636155967
 30
0.0
 40
0.6499747519163928
 50
309.3010824898348119
 51
230.702021228558209
  0
ARC
  5
30E5F
  8
0
 10
3053.3065735224381569
 20
55.8293456378874566
 30
0.0
 40
0.1301658898603138
 50
129.3190530652167922
 51
179.9663320565252889
  0
ARC
  5
30E60
  8
0
 10
3052.4465012645277966
 20
56.0570438656727035
 30
0.0
 40
0.1077985387692712
 50
235.339542945087004
 51
255.9542477475818032
  0
ARC
  5
30E61
  8
0
 10
3052.4262121330930313
 20
55.9759445439510586
 30
0.0
 40
0.0241998017087675
 50
255.9542477475816895
 51
279.8289836215474224
  0
ARC
  5
30E62
  8
0
 10
3052.8121965218419973
 20
52.4750479017845919
 30
0.0
 40
3.4979569630415228
 50
95.7265180899310195
 51
96.267164253899935
  0
ARC
  5
30E63
  8
0
 10
3052.8124076304611663
 20
52.4730180468319816
 30
0.0
 40
3.4999977524786128
 50
84.273328707708842
 51
95.7266411218612348
  0
ARC
  5
30E64
  8
0
 10
3052.8126147909661086
 20
52.4750112555287203
 30
0.0
 40
3.4979938203541492
 50
83.732834562901445
 51
84.2734472697583357
  0
ARC
  5
30E65
  8
0
 10
3053.1984453460868281
 20
55.981452776856429
 30
0.0
 40
0.0296205205507147
 50
262.2913545054497035
 51
281.7525378780396181
  0
ARC
  5
30E66
  8
0
 10
3053.1792402023729665
 20
56.0546442513081118
 30
0.0
 40
0.1052615143825065
 50
283.8728816581078718
 51
305.1455980978179241
  0
ARC
  5
30E67
  8
0
 10
3052.8124076262652125
 20
56.4330157993105885
 30
0.0
 40
0.6311902912999989
 50
312.6233703836987843
 51
227.4030653890002895
  0
ARC
  5
30E68
  8
0
 10
3052.1361384355877817
 20
55.9430006339735897
 30
0.0
 40
0.2649201338325921
 50
357.1922412899301094
 51
2.4851924524591231
  0
LINE
  5
30E69
  8
0
 10
3052.400809401764036
 20
55.9544878866105933
 30
0.0
 11
3052.4038618985041467
 21
55.9580367476158997
 31
0.0
  0
ARC
  5
30E6A
  8
0
 10
3053.4236108461827826
 20
55.9428208422895779
 30
0.0
 40
0.1999239758166094
 50
176.6485362918105864
 51
183.6636632847115038
  0
LINE
  5
30E6B
  8
0
 10
3053.224028798494146
 20
55.9545085429351872
 30
0.0
 11
3053.2209760359419306
 21
55.9580103721228923
 31
0.0
  0
ARC
  5
30E6C
  8
0
 10
3051.7576273917438812
 20
53.9542568696239329
 30
0.0
 40
1.415768583960012
 50
90.2115931175608665
 51
93.7953265773249143
  0
ARC
  5
30E6D
  8
0
 10
3051.7394744276261918
 20
54.2279003910499426
 30
0.0
 40
1.1415236078443669
 50
93.7953265773249143
 51
100.228022994384304
  0
ARC
  5
30E6E
  8
0
 10
3051.7617856158658469
 20
54.1042470553163213
 30
0.0
 40
1.2671736637882201
 50
100.228022994384304
 51
141.1935166481050032
  0
ARC
  5
30E6F
  8
0
 10
3059.0290272436259329
 20
48.2732915201599084
 30
0.0
 40
10.5845139631469394
 50
141.2500874976772138
 51
176.8304648469487859
  0
ARC
  5
30E70
  8
0
 10
3060.4382874408897806
 20
48.1961034508927213
 30
0.0
 40
11.99588622652543
 50
176.8345192784215101
 51
181.768886326870188
  0
ARC
  5
30E71
  8
0
 10
3061.5577405708581864
 20
48.2325895641201328
 30
0.0
 40
13.1159322961033507
 50
181.7772451171470891
 51
221.645286750801688
  0
ARC
  5
30E72
  8
0
 10
3055.5624076263147799
 20
42.9004472894251592
 30
0.0
 40
5.0924818207598062
 50
221.6389258778808937
 51
269.999999999426791
  0
LINE
  5
30E73
  8
0
 10
3057.112407881063973
 20
55.6898348144964928
 30
0.0
 11
3057.112407881063973
 21
55.3700157993105933
 31
0.0
  0
LINE
  5
30E74
  8
0
 10
3059.5124083789578435
 20
55.689989979118188
 30
0.0
 11
3059.5124083789578435
 21
55.3622035026456771
 31
0.0
  0
ARC
  5
30E75
  8
0
 10
3058.3116606075900563
 20
51.21554496170031
 30
0.0
 40
4.7292439616771622
 50
76.5178164128592044
 51
84.2317269573384237
  0
ARC
  5
30E76
  8
0
 10
3058.3133588683640482
 20
51.2206154162099807
 30
0.0
 40
4.7242099442006227
 50
95.7784955480889693
 51
103.4998344223352973
  0
ARC
  5
30E77
  8
0
 10
3059.3844083789581418
 20
55.689989979118188
 30
0.0
 40
0.128
 50
0.0000000000032569
 51
76.5178164128591192
  0
ARC
  5
30E78
  8
0
 10
3057.2404078810641295
 20
55.6898348144964928
 30
0.0
 40
0.128
 50
103.4998344223350983
 51
180.0000000000015916
  0
LINE
  5
30E79
  8
0
 10
3058.7219351852650107
 20
55.862041720401713
 30
0.0
 11
3058.7219351852650107
 21
55.3700157993105933
 31
0.0
  0
LINE
  5
30E7A
  8
0
 10
3057.9027621264640402
 20
55.8620199193887288
 30
0.0
 11
3057.9027621264640402
 21
55.3700157993105933
 31
0.0
  0
ARC
  5
30E7B
  8
0
 10
3057.8436621264640962
 20
55.862019919388743
 30
0.0
 40
0.0591
 50
359.9999999999931219
 51
95.7784955480890261
  0
ARC
  5
30E7C
  8
0
 10
3058.7810351852640451
 20
55.8620417204017201
 30
0.0
 40
0.0591
 50
84.2317269573124463
 51
180.0000000000032117
  0
LINE
  5
30E7D
  8
0
 10
3058.7199351852641485
 20
55.8851417836105924
 30
0.0
 11
3058.7199351852641485
 21
55.3700157993105933
 31
0.0
  0
LINE
  5
30E7E
  8
0
 10
3058.6904076261648697
 20
55.8654417836105921
 30
0.0
 11
3058.6904076261648697
 21
55.3700157993105933
 31
0.0
  0
LINE
  5
30E7F
  8
0
 10
3058.7199351852641485
 20
55.8851417836105924
 30
0.0
 11
3058.71010762616379
 21
55.8851417836105924
 31
0.0
  0
ARC
  5
30E80
  8
0
 10
3058.71010762616379
 20
55.8654417836105992
 30
0.0
 40
0.0197
 50
90.0
 51
180.0000000000100897
  0
LINE
  5
30E81
  8
0
 10
3058.7219351832609391
 20
55.8162441458105931
 30
0.0
 11
3058.7199351852641485
 21
55.8162441458105931
 31
0.0
  0
LINE
  5
30E82
  8
0
 10
3058.6764783719640945
 20
55.8294231513830823
 30
0.0
 11
3058.6764783719640945
 21
55.3700157993105933
 31
0.0
  0
LINE
  5
30E83
  8
0
 10
3058.6904076261648697
 20
55.7680157993105894
 30
0.0
 11
3058.6764783719640945
 21
55.7680157993105894
 31
0.0
  0
LINE
  5
30E84
  8
0
 10
3057.934407626265056
 20
55.8851417836105924
 30
0.0
 11
3057.9048800671648678
 21
55.8851417836105924
 31
0.0
  0
LINE
  5
30E85
  8
0
 10
3057.9048800671648678
 20
55.8851417836105924
 30
0.0
 11
3057.9048800671648678
 21
55.3700157993105933
 31
0.0
  0
LINE
  5
30E86
  8
0
 10
3057.9048800671648678
 20
55.7867165867105896
 30
0.0
 11
3057.9027619569637864
 21
55.7867165867105896
 31
0.0
  0
LINE
  5
30E87
  8
0
 10
3057.934407626265056
 20
55.8851417836105924
 30
0.0
 11
3057.934407626265056
 21
55.3700157993105933
 31
0.0
  0
LINE
  5
30E88
  8
0
 10
3057.9484075974778534
 20
55.8294221255032426
 30
0.0
 11
3057.9484073406379139
 21
55.3700157993105933
 31
0.0
  0
LINE
  5
30E89
  8
0
 10
3057.9444076262639101
 20
55.738015785136767
 30
0.0
 11
3057.9444076262639101
 21
55.3700157993105933
 31
0.0
  0
ARC
  5
30E8A
  8
0
 10
3057.9744076262641101
 20
55.7380157993105882
 30
0.0
 40
0.030000000000033
 50
150.0809675350257066
 51
180.0000270699839859
  0
LINE
  5
30E8B
  8
0
 10
3059.3724162774337856
 20
55.3700157993105933
 30
0.0
 11
3051.7523989750948203
 21
55.370015799310579
 31
0.0
  0
LINE
  5
30E8C
  8
0
 10
3057.9444076262639101
 20
55.530815799310588
 30
0.0
 11
3057.934407626265056
 21
55.5308157993106022
 31
0.0
  0
ARC
  5
30E8D
  8
0
 10
3058.8061564432678097
 20
55.8296291195044034
 30
0.0
 40
0.1296782348728223
 50
129.2691827336525137
 51
180.0910030047776047
  0
ARC
  5
30E8E
  8
0
 10
3058.3124108844881448
 20
56.433014636155967
 30
0.0
 40
0.6499747519163928
 50
309.2979787714418762
 51
230.6989175101651881
  0
ARC
  5
30E8F
  8
0
 10
3057.8182417300899942
 20
55.8293456378874566
 30
0.0
 40
0.1301658898603138
 50
0.0336679434746832
 51
50.680946934783222
  0
ARC
  5
30E90
  8
0
 10
3058.6783139879998998
 20
56.0570438656727035
 30
0.0
 40
0.1077985387692712
 50
284.0457522524181968
 51
304.6604570549130244
  0
ARC
  5
30E91
  8
0
 10
3058.6986031194360294
 20
55.9759445439510586
 30
0.0
 40
0.0241998017087675
 50
260.1710163784526912
 51
284.0457522524181968
  0
ARC
  5
30E92
  8
0
 10
3058.3126187306870634
 20
52.4750479017845919
 30
0.0
 40
3.4979569630415228
 50
83.7328357461000792
 51
84.2734819100689947
  0
ARC
  5
30E93
  8
0
 10
3058.3124076220678944
 20
52.4730180468319816
 30
0.0
 40
3.4999977524786128
 50
84.273358878138751
 51
95.7266712922911438
  0
ARC
  5
30E94
  8
0
 10
3058.3122004615629521
 20
52.4750112555287203
 30
0.0
 40
3.4979938203541492
 50
95.7265527302416643
 51
96.2671654370985408
  0
ARC
  5
30E95
  8
0
 10
3057.9263699064417779
 20
55.981452776856429
 30
0.0
 40
0.0296205205507147
 50
258.2474621219604956
 51
277.7086454945502965
  0
ARC
  5
30E96
  8
0
 10
3057.9455750501560942
 20
56.0546442513081118
 30
0.0
 40
0.1052615143825065
 50
234.8544019021821043
 51
256.1271183418921282
  0
ARC
  5
30E97
  8
0
 10
3058.3124076262638482
 20
56.4330157993105885
 30
0.0
 40
0.6311902912999989
 50
312.5969346109994262
 51
227.3766296163007894
  0
ARC
  5
30E98
  8
0
 10
3058.9886768169399147
 20
55.9430006339735897
 30
0.0
 40
0.2649201338325921
 50
177.5148075475408973
 51
182.8077587100698054
  0
LINE
  5
30E99
  8
0
 10
3058.7240058507641152
 20
55.9544878866105933
 30
0.0
 11
3058.7209533540240045
 21
55.9580367476158997
 31
0.0
  0
ARC
  5
30E9A
  8
0
 10
3057.7012044063458234
 20
55.9428208422895779
 30
0.0
 40
0.1999239758166094
 50
356.3363367152883825
 51
3.3514637081893852
  0
LINE
  5
30E9B
  8
0
 10
3057.9007864540349146
 20
55.9545085429351872
 30
0.0
 11
3057.9038392165871301
 21
55.9580103721228923
 31
0.0
  0
ARC
  5
30E9C
  8
0
 10
3059.3671878607851795
 20
53.9542568696239329
 30
0.0
 40
1.415768583960012
 50
86.2046734226750857
 51
89.7884068824391477
  0
ARC
  5
30E9D
  8
0
 10
3059.3853408249019594
 20
54.2279003910499426
 30
0.0
 40
1.1415236078443669
 50
79.7719770056156676
 51
86.2046734226750857
  0
ARC
  5
30E9E
  8
0
 10
3059.3630296366632138
 20
54.1042470553163213
 30
0.0
 40
1.2671736637882201
 50
38.8064833518949825
 51
79.7719770056156676
  0
ARC
  5
30E9F
  8
0
 10
3052.0957880089031278
 20
48.2732915201599084
 30
0.0
 40
10.5845139631469394
 50
3.1695351530511191
 51
38.749912502322843
  0
ARC
  5
30EA0
  8
0
 10
3050.6865278116388254
 20
48.1961034508927213
 30
0.0
 40
11.99588622652543
 50
358.2311136731294141
 51
3.1654807215785219
  0
ARC
  5
30EA1
  8
0
 10
3049.5670746816717838
 20
48.2325895641201328
 30
0.0
 40
13.1159322961033507
 50
318.3547132491980278
 51
358.2227548828524846
  0
ARC
  5
30EA2
  8
0
 10
3055.5624076262151902
 20
42.9004472894251592
 30
0.0
 40
5.0924818207598062
 50
270.000000000573209
 51
318.3610741221190779
  0
ENDSEC
  0
EOF
