  0
SECTION
  2
HEADER
  9
$ACADVER
  1
AC1009
  9
$INSBASE
 10
4547.8456730409870943
 20
221.5301062810515873
 30
0.0
  9
$EXTMIN
 10
4540.7256666290868452
 20
202.2550823618830123
 30
0.0
  9
$EXTMAX
 10
4554.9656794528882529
 20
221.5301319769889972
 30
0.0
  9
$LIMMIN
 10
0.0
 20
0.0
  9
$LIMMAX
 10
11.6929133858000007
 20
8.2677165353999982
  9
$ORTHOMODE
 70
     0
  9
$REGENMODE
 70
     1
  9
$FILLMODE
 70
     1
  9
$QTEXTMODE
 70
     0
  9
$MIRRTEXT
 70
     0
  9
$DRAGMODE
 70
     2
  9
$LTSCALE
 40
0.6431102362
  9
$OSMODE
 70
  4095
  9
$ATTMODE
 70
     1
  9
$TEXTSIZE
 40
0.2
  9
$TRACEWID
 40
0.05
  9
$TEXTSTYLE
  7
STANDARD
  9
$CLAYER
  8
0
  9
$CELTYPE
  6
BYLAYER
  9
$CECOLOR
 62
   256
  9
$DIMSCALE
 40
1.0
  9
$DIMASZ
 40
0.1875
  9
$DIMEXO
 40
0.0625
  9
$DIMDLI
 40
0.4443307087
  9
$DIMRND
 40
0.0
  9
$DIMDLE
 40
0.0
  9
$DIMEXE
 40
0.125
  9
$DIMTP
 40
0.01
  9
$DIMTM
 40
0.01
  9
$DIMTXT
 40
2.0
  9
$DIMCEN
 40
0.1052362205
  9
$DIMTSZ
 40
0.0
  9
$DIMTOL
 70
     1
  9
$DIMLIM
 70
     0
  9
$DIMTIH
 70
     1
  9
$DIMTOH
 70
     1
  9
$DIMSE1
 70
     0
  9
$DIMSE2
 70
     0
  9
$DIMTAD
 70
     0
  9
$DIMZIN
 70
     0
  9
$DIMBLK
  1

  9
$DIMASO
 70
     1
  9
$DIMSHO
 70
     1
  9
$DIMPOST
  1
\X
  9
$DIMAPOST
  1

  9
$DIMALT
 70
     1
  9
$DIMALTD
 70
     2
  9
$DIMALTF
 40
25.3999999999999986
  9
$DIMLFAC
 40
1.0
  9
$DIMTOFL
 70
     0
  9
$DIMTVP
 40
0.0
  9
$DIMTIX
 70
     0
  9
$DIMSOXD
 70
     0
  9
$DIMSAH
 70
     0
  9
$DIMBLK1
  1

  9
$DIMBLK2
  1

  9
$DIMSTYLE
  2
STANDARD
  9
$DIMCLRD
 70
     0
  9
$DIMCLRE
 70
     0
  9
$DIMCLRT
 70
     0
  9
$DIMTFAC
 40
1.0
  9
$DIMGAP
 40
0.09
  9
$LUNITS
 70
     2
  9
$LUPREC
 70
     4
  9
$SKETCHINC
 40
0.1
  9
$FILLETRAD
 40
0.0
  9
$AUNITS
 70
     0
  9
$AUPREC
 70
     0
  9
$MENU
  1
.
  9
$ELEVATION
 40
0.0
  9
$PELEVATION
 40
0.0
  9
$THICKNESS
 40
0.0
  9
$LIMCHECK
 70
     0
  9
$BLIPMODE
 70
     0
  9
$CHAMFERA
 40
0.0
  9
$CHAMFERB
 40
0.0
  9
$SKPOLY
 70
     0
  9
$TDCREATE
 40
2458060.468368056230247
  9
$TDUPDATE
 40
2459773.632662036921829
  9
$TDINDWG
 40
0.5219978009
  9
$TDUSRTIMER
 40
0.5219978009
  9
$USRTIMER
 70
     1
  9
$ANGBASE
 50
0.0
  9
$ANGDIR
 70
     0
  9
$PDMODE
 70
     0
  9
$PDSIZE
 40
0.3125
  9
$PLINEWID
 40
0.0
  9
$COORDS
 70
     1
  9
$SPLFRAME
 70
     0
  9
$SPLINETYPE
 70
     6
  9
$SPLINESEGS
 70
     8
  9
$ATTDIA
 70
     1
  9
$ATTREQ
 70
     1
  9
$HANDLING
 70
     1
  9
$HANDSEED
  5
109DF
  9
$SURFTAB1
 70
     6
  9
$SURFTAB2
 70
     6
  9
$SURFTYPE
 70
     6
  9
$SURFU
 70
     6
  9
$SURFV
 70
     6
  9
$UCSNAME
  2

  9
$UCSORG
 10
0.0
 20
0.0
 30
0.0
  9
$UCSXDIR
 10
1.0
 20
0.0
 30
0.0
  9
$UCSYDIR
 10
0.0
 20
1.0
 30
0.0
  9
$PUCSNAME
  2

  9
$PUCSORG
 10
0.0
 20
0.0
 30
0.0
  9
$PUCSXDIR
 10
1.0
 20
0.0
 30
0.0
  9
$PUCSYDIR
 10
0.0
 20
1.0
 30
0.0
  9
$USERI1
 70
     0
  9
$USERI2
 70
     0
  9
$USERI3
 70
     0
  9
$USERI4
 70
     0
  9
$USERI5
 70
     0
  9
$USERR1
 40
0.0
  9
$USERR2
 40
0.0
  9
$USERR3
 40
0.0
  9
$USERR4
 40
0.0
  9
$USERR5
 40
0.0
  9
$WORLDVIEW
 70
     1
  9
$SHADEDGE
 70
     3
  9
$SHADEDIF
 70
    70
  9
$TILEMODE
 70
     1
  9
$MAXACTVP
 70
    64
  9
$PLIMCHECK
 70
     0
  9
$PEXTMIN
 10
1.0000000000000000E+20
 20
1.0000000000000000E+20
 30
1.0000000000000000E+20
  9
$PEXTMAX
 10
-1.0000000000000000E+20
 20
-1.0000000000000000E+20
 30
-1.0000000000000000E+20
  9
$PLIMMIN
 10
0.0
 20
0.0
  9
$PLIMMAX
 10
12.0
 20
9.0
  9
$UNITMODE
 70
     0
  9
$VISRETAIN
 70
     1
  9
$PLINEGEN
 70
     0
  9
$PSLTSCALE
 70
     1
  0
ENDSEC
  0
SECTION
  2
TABLES
  0
TABLE
  2
VPORT
 70
     1
  0
VPORT
  2
*ACTIVE
 70
     0
 10
0.0
 20
0.0
 11
1.0
 21
1.0
 12
744.3036912981605155
 22
95.5327006825050233
 13
0.0
 23
0.0
 14
1.0
 24
1.0
 15
0.0
 25
0.0
 16
0.0
 26
0.0
 36
17.1152628219792007
 17
3803.5440673828129547
 27
125.9952621967499056
 37
0.0
 40
0.0232942256227584
 41
2.0416666666666661
 42
50.0
 43
0.0
 44
0.0
 50
0.0
 51
0.0
 71
     0
 72
   100
 73
     1
 74
     1
 75
     0
 76
     0
 77
     0
 78
     0
  0
ENDTAB
  0
TABLE
  2
LTYPE
 70
     2
  0
LTYPE
  2
CONTINUOUS
 70
     0
  3
Solid line
 72
    65
 73
     0
 40
0.0
  0
LTYPE
  2
PHANTOM2
 70
     0
  3
___ _ _ ___ _ _ ___ _ _ ___ _ _
 72
    65
 73
     6
 40
1.25
 49
0.625
 49
-0.125
 49
0.125
 49
-0.125
 49
0.125
 49
-0.125
  0
ENDTAB
  0
TABLE
  2
LAYER
 70
     2
  0
LAYER
  2
0
 70
     0
 62
   255
  6
CONTINUOUS
  0
LAYER
  2
DEFPOINTS
 70
     0
 62
     7
  6
CONTINUOUS
  0
ENDTAB
  0
TABLE
  2
STYLE
 70
     1
  0
STYLE
  2
STANDARD
 70
     0
 40
0.0
 41
0.8
 50
0.0
 71
     0
 42
0.2
  3
txt
  4

  0
ENDTAB
  0
TABLE
  2
VIEW
 70
     0
  0
ENDTAB
  0
TABLE
  2
UCS
 70
     0
  0
ENDTAB
  0
TABLE
  2
APPID
 70
     9
  0
APPID
  2
ACAD
 70
     0
  0
APPID
  2
ACAD_MLEADERVER
 70
     0
  0
APPID
  2
ACAD_EXEMPT_FROM_CAD_STANDARDS
 70
     0
  0
APPID
  2
ACAD_NAV_VCDISPLAY
 70
     0
  0
APPID
  2
ACAECLAYERSTANDARD
 70
     0
  0
APPID
  2
ACCMTRANSPARENCY
 70
     0
  0
APPID
  2
ACAD_DSTYLE_DIMJAG
 70
     0
  0
APPID
  2
ACAD_DSTYLE_DIMTALN
 70
     0
  0
APPID
  2
ACDBATTR
 70
     0
  0
ENDTAB
  0
TABLE
  2
DIMSTYLE
 70
     1
  0
DIMSTYLE
  2
STANDARD
 70
     0
  3

  4

  5

  6

  7

 40
1.0
 41
0.1875
 42
0.0625
 43
0.38
 44
0.125
 45
0.0
 46
0.0
 47
0.01
 48
0.01
140
0.15625
141
0.09
142
0.0
143
25.3999999999999986
144
1.0
145
0.0
146
1.0
147
0.09
 71
     1
 72
     0
 73
     1
 74
     1
 75
     0
 76
     0
 77
     0
 78
     4
170
     0
171
     2
172
     0
173
     0
174
     0
175
     0
176
     0
177
     0
178
     0
  0
ENDTAB
  0
ENDSEC
  0
SECTION
  2
BLOCKS
  0
BLOCK
  8
0
  2
$MODEL_SPACE
 70
     0
 10
0.0
 20
0.0
 30
0.0
  3
$MODEL_SPACE
  1

  0
ENDBLK
  5
21
  8
0
  0
BLOCK
 67
     1
  8
0
  2
$PAPER_SPACE
 70
     0
 10
0.0
 20
0.0
 30
0.0
  3
$PAPER_SPACE
  1

  0
ENDBLK
  5
1D
 67
     1
  8
0
  0
ENDSEC
  0
SECTION
  2
ENTITIES
  0
ATTDEF
  5
3930
  8
DEFPOINTS
 10
4547.8345574272016165
 20
221.5291319769889071
 30
0.0
 40
0.001
  1
P70313-BL
  3

  2
MODELNUMBER
 70
     0
1001
ACDBATTR
1070
     0
1070
     1
  0
ATTDEF
  5
3931
  8
DEFPOINTS
 10
4547.8345574272016165
 20
221.5274653103222988
 30
0.0
 40
0.001
  1

  3

  2
TRADENAME
 70
     0
1001
ACDBATTR
1070
     0
1070
     1
  0
ATTDEF
  5
3932
  8
DEFPOINTS
 10
4547.8345574272016165
 20
221.5257986436556052
 30
0.0
 40
0.001
  1
TOILET SEAT
  3

  2
PRODUCT
 70
     0
1001
ACDBATTR
1070
     0
1070
     1
  0
LINE
  5
1076F
  8
0
 10
4546.2956727861874242
 20
220.136951707714104
 30
0.0
 11
4546.2956727861874242
 21
219.817132692528304
 31
0.0
  0
LINE
  5
10770
  8
0
 10
4543.8956722882940085
 20
220.1371068723358064
 30
0.0
 11
4543.8956722882940085
 21
219.8093203958632955
 31
0.0
  0
ARC
  5
10771
  8
0
 10
4545.0964200596608862
 20
215.6626618549180137
 30
0.0
 40
4.7292439616771622
 50
95.7682730426875253
 51
103.4821835871662046
  0
ARC
  5
10772
  8
0
 10
4545.0947217988868942
 20
215.6677323094276062
 30
0.0
 40
4.7242099442006227
 50
76.5001655776395779
 51
84.2215044519110734
  0
ARC
  5
10773
  8
0
 10
4544.0236722882928007
 20
220.1371068723358064
 30
0.0
 40
0.128
 50
103.4821835871662046
 51
179.9999999999967031
  0
ARC
  5
10774
  8
0
 10
4546.1676727861877225
 20
220.136951707714104
 30
0.0
 40
0.128
 50
359.9999999999984084
 51
76.5001655776395779
  0
LINE
  5
10775
  8
0
 10
4544.6861454819872961
 20
220.309158613619303
 30
0.0
 11
4544.6861454819872961
 21
219.817132692528304
 31
0.0
  0
LINE
  5
10776
  8
0
 10
4545.5053185407869023
 20
220.3091368126063117
 30
0.0
 11
4545.5053185407869023
 21
219.817132692528304
 31
0.0
  0
ARC
  5
10777
  8
0
 10
4545.564418540787301
 20
220.3091368126063117
 30
0.0
 40
0.0591
 50
84.2215044519109171
 51
180.0000000000065086
  0
ARC
  5
10778
  8
0
 10
4544.6270454819878069
 20
220.309158613619303
 30
0.0
 40
0.0591
 50
359.9999999999968168
 51
95.7682730426875253
  0
LINE
  5
10779
  8
0
 10
4544.6881454819877035
 20
220.3322586768281894
 30
0.0
 11
4544.6881454819877035
 21
219.817132692528304
 31
0.0
  0
LINE
  5
1077A
  8
0
 10
4544.717673041087437
 20
220.3125586768281892
 30
0.0
 11
4544.717673041087437
 21
219.817132692528304
 31
0.0
  0
LINE
  5
1077B
  8
0
 10
4544.6881454819877035
 20
220.3322586768281894
 30
0.0
 11
4544.6979730410866978
 21
220.3322586768281894
 31
0.0
  0
ARC
  5
1077C
  8
0
 10
4544.6979730410866978
 20
220.3125586768281892
 30
0.0
 40
0.0197
 50
359.9999999999902229
 51
90.0
  0
LINE
  5
1077D
  8
0
 10
4544.6861454839909129
 20
220.2633610390282115
 30
0.0
 11
4544.6881454819877035
 21
220.2633610390282115
 31
0.0
  0
LINE
  5
1077E
  8
0
 10
4544.7316022952873027
 20
220.2769519808433927
 30
0.0
 11
4544.7316022952873027
 21
219.817132692528304
 31
0.0
  0
LINE
  5
1077F
  8
0
 10
4544.717673041087437
 20
220.2151326925283001
 30
0.0
 11
4544.7316022952873027
 21
220.2151326925283001
 31
0.0
  0
LINE
  5
10780
  8
0
 10
4545.473673040986796
 20
220.3322586768281894
 30
0.0
 11
4545.5032006000874389
 21
220.3322586768281894
 31
0.0
  0
LINE
  5
10781
  8
0
 10
4545.5032006000874389
 20
220.3322586768281894
 30
0.0
 11
4545.5032006000874389
 21
219.817132692528304
 31
0.0
  0
LINE
  5
10782
  8
0
 10
4545.5032006000874389
 20
220.2338334799283075
 30
0.0
 11
4545.5053187102867014
 21
220.2338334799283075
 31
0.0
  0
LINE
  5
10783
  8
0
 10
4545.473673040986796
 20
220.3322586768281894
 30
0.0
 11
4545.473673040986796
 21
219.817132692528304
 31
0.0
  0
LINE
  5
10784
  8
0
 10
4545.4596730697739986
 20
220.2765390187209107
 30
0.0
 11
4545.4596733266143929
 21
219.817132692528304
 31
0.0
  0
LINE
  5
10785
  8
0
 10
4545.4636730409865777
 20
220.1851326783543925
 30
0.0
 11
4545.4636730409865777
 21
219.817132692528304
 31
0.0
  0
ARC
  5
10786
  8
0
 10
4545.4336730409877418
 20
220.1851326925282137
 30
0.0
 40
0.030000000000033
 50
359.999972930015474
 51
29.9190324649879784
  0
LINE
  5
10787
  8
0
 10
4545.4636730409865777
 20
219.9779326925282135
 30
0.0
 11
4545.473673040986796
 21
219.9779326925282135
 31
0.0
  0
ARC
  5
10788
  8
0
 10
4544.6019242239854066
 20
220.2767460127219863
 30
0.0
 40
0.1296782348728223
 50
359.90899699522231
 51
50.7308172663469321
  0
ARC
  5
10789
  8
0
 10
4545.0956697827632524
 20
220.8801315293736138
 30
0.0
 40
0.6499747519163928
 50
309.3010824898348119
 51
230.702021228558209
  0
ARC
  5
1078A
  8
0
 10
4545.589838937161403
 20
220.2764625311050963
 30
0.0
 40
0.1301658898603138
 50
129.3190530651966128
 51
179.966332056524891
  0
ARC
  5
1078B
  8
0
 10
4544.7297666792501332
 20
220.5041607588904071
 30
0.0
 40
0.1077985387692712
 50
235.339542945087004
 51
255.9542477475563942
  0
ARC
  5
1078C
  8
0
 10
4544.7094775478162774
 20
220.4230614371687125
 30
0.0
 40
0.0241998017087675
 50
255.9542477475563942
 51
279.8289836215474224
  0
ARC
  5
1078D
  8
0
 10
4545.0954619365638791
 20
216.9221647950022032
 30
0.0
 40
3.4979569630415228
 50
95.7265180899309769
 51
96.2671642539257846
  0
ARC
  5
1078E
  8
0
 10
4545.0956730451825933
 20
216.9201349400495928
 30
0.0
 40
3.4999977524786128
 50
84.2733287077088846
 51
95.72664112186132
  0
ARC
  5
1078F
  8
0
 10
4545.0958802056893546
 20
216.9221281487463955
 30
0.0
 40
3.4979938203541492
 50
83.732834562875496
 51
84.2734472697841852
  0
ARC
  5
10790
  8
0
 10
4545.4817107608096194
 20
220.4285696700740971
 30
0.0
 40
0.0296205205507147
 50
262.2913545054497035
 51
281.7525378780393908
  0
ARC
  5
10791
  8
0
 10
4545.4625056170962125
 20
220.5017611445256875
 30
0.0
 40
0.1052615143825065
 50
283.8728816580825765
 51
305.1455980977963804
  0
ARC
  5
10792
  8
0
 10
4545.0956730409870943
 20
220.8801326925282069
 30
0.0
 40
0.6311902912999989
 50
312.6233703836994096
 51
227.4030653890000053
  0
ARC
  5
10793
  8
0
 10
4544.4194038503110278
 20
220.3901175271913075
 30
0.0
 40
0.2649201338325921
 50
357.1922412899293136
 51
2.4851924524598461
  0
LINE
  5
10794
  8
0
 10
4544.6840748164877368
 20
220.4016047798282045
 30
0.0
 11
4544.6871273132273927
 21
220.4051536408335892
 31
0.0
  0
ARC
  5
10795
  8
0
 10
4545.7068762609060286
 20
220.3899377355072033
 30
0.0
 40
0.1999239758166094
 50
176.6485362918089947
 51
183.6636632847111059
  0
LINE
  5
10796
  8
0
 10
4545.5072942132173921
 20
220.4016254361528127
 30
0.0
 11
4545.5042414506651767
 21
220.4051272653404965
 31
0.0
  0
ARC
  5
10797
  8
0
 10
4544.0408928064662177
 20
218.4013737628415868
 30
0.0
 40
1.415768583960012
 50
90.2115931175608665
 51
93.7953265773248859
  0
ARC
  5
10798
  8
0
 10
4544.0227398423503473
 20
218.6750172842675966
 30
0.0
 40
1.1415236078443669
 50
93.7953265773248859
 51
100.2280229943842045
  0
ARC
  5
10799
  8
0
 10
4544.045051030589093
 20
218.5513639485340036
 30
0.0
 40
1.2671736637882201
 50
100.2280229943842045
 51
141.1935166480880071
  0
ARC
  5
1079A
  8
0
 10
4551.312292658349179
 20
212.7204084133774984
 30
0.0
 40
10.5845139631469394
 50
141.250087497677498
 51
176.8304648469492975
  0
ARC
  5
1079B
  8
0
 10
4552.7215528556116624
 20
212.6432203441104036
 30
0.0
 40
11.99588622652543
 50
176.8345192784215101
 51
181.768886326871808
  0
ARC
  5
1079C
  8
0
 10
4553.8410059855814325
 20
212.6797064573378009
 30
0.0
 40
13.1159322961033507
 50
181.7772451171479133
 51
221.6452867507850044
  0
ARC
  5
1079D
  8
0
 10
4547.8456730410371165
 20
207.3475641826427989
 30
0.0
 40
5.0924818207598062
 50
221.6389258778808937
 51
269.999999999426791
  0
LINE
  5
1079E
  8
0
 10
4549.3956732957867644
 20
220.136951707714104
 30
0.0
 11
4549.3956732957867644
 21
219.817132692528304
 31
0.0
  0
LINE
  5
1079F
  8
0
 10
4551.7956737936810896
 20
220.1371068723358064
 30
0.0
 11
4551.7956737936810896
 21
219.8093203958632955
 31
0.0
  0
ARC
  5
107A0
  8
0
 10
4550.5949260223133024
 20
215.6626618549180137
 30
0.0
 40
4.7292439616771622
 50
76.517816412833767
 51
84.2317269573124605
  0
ARC
  5
107A1
  8
0
 10
4550.5966242830872943
 20
215.6677323094276062
 30
0.0
 40
4.7242099442006227
 50
95.7784955480889266
 51
103.4998344223603937
  0
ARC
  5
107A2
  8
0
 10
4551.6676737936813879
 20
220.1371068723358064
 30
0.0
 40
0.128
 50
0.0000000000032569
 51
76.517816412833767
  0
ARC
  5
107A3
  8
0
 10
4549.5236732957873755
 20
220.136951707714104
 30
0.0
 40
0.128
 50
103.4998344223603937
 51
180.0000000000015916
  0
LINE
  5
107A4
  8
0
 10
4551.005200599987802
 20
220.309158613619303
 30
0.0
 11
4551.005200599987802
 21
219.817132692528304
 31
0.0
  0
LINE
  5
107A5
  8
0
 10
4550.1860275411872863
 20
220.3091368126063117
 30
0.0
 11
4550.1860275411872863
 21
219.817132692528304
 31
0.0
  0
ARC
  5
107A6
  8
0
 10
4550.126927541187797
 20
220.3091368126063117
 30
0.0
 40
0.0591
 50
359.9999999999935199
 51
95.7784955480891256
  0
ARC
  5
107A7
  8
0
 10
4551.0643005999872912
 20
220.309158613619303
 30
0.0
 40
0.0591
 50
84.2317269573124605
 51
180.0000000000032117
  0
LINE
  5
107A8
  8
0
 10
4551.0032005999873945
 20
220.3322586768281894
 30
0.0
 11
4551.0032005999873945
 21
219.817132692528304
 31
0.0
  0
LINE
  5
107A9
  8
0
 10
4550.9736730408867516
 20
220.3125586768281892
 30
0.0
 11
4550.9736730408867516
 21
219.817132692528304
 31
0.0
  0
LINE
  5
107AA
  8
0
 10
4551.0032005999873945
 20
220.3322586768281894
 30
0.0
 11
4550.9933730408884003
 21
220.3322586768281894
 31
0.0
  0
ARC
  5
107AB
  8
0
 10
4550.9933730408884003
 20
220.3125586768281892
 30
0.0
 40
0.0197
 50
90.0
 51
180.0000000000098055
  0
LINE
  5
107AC
  8
0
 10
4551.0052005979841852
 20
220.2633610390282115
 30
0.0
 11
4551.0032005999873945
 21
220.2633610390282115
 31
0.0
  0
LINE
  5
107AD
  8
0
 10
4550.9597437866868859
 20
220.2769519808433927
 30
0.0
 11
4550.9597437866868859
 21
219.817132692528304
 31
0.0
  0
LINE
  5
107AE
  8
0
 10
4550.9736730408867516
 20
220.2151326925283001
 30
0.0
 11
4550.9597437866868859
 21
220.2151326925283001
 31
0.0
  0
LINE
  5
107AF
  8
0
 10
4550.2176730409873926
 20
220.3322586768281894
 30
0.0
 11
4550.1881454818876591
 21
220.3322586768281894
 31
0.0
  0
LINE
  5
107B0
  8
0
 10
4550.1881454818876591
 20
220.3322586768281894
 30
0.0
 11
4550.1881454818876591
 21
219.817132692528304
 31
0.0
  0
LINE
  5
107B1
  8
0
 10
4550.1881454818876591
 20
220.2338334799283075
 30
0.0
 11
4550.1860273716883967
 21
220.2338334799283075
 31
0.0
  0
LINE
  5
107B2
  8
0
 10
4550.2176730409873926
 20
220.3322586768281894
 30
0.0
 11
4550.2176730409873926
 21
219.817132692528304
 31
0.0
  0
LINE
  5
107B3
  8
0
 10
4550.2316730122010995
 20
220.2765390187209107
 30
0.0
 11
4550.2316727553607052
 21
219.817132692528304
 31
0.0
  0
LINE
  5
107B4
  8
0
 10
4550.2276730409867014
 20
220.1851326783543925
 30
0.0
 11
4550.2276730409867014
 21
219.817132692528304
 31
0.0
  0
ARC
  5
107B5
  8
0
 10
4550.2576730409873562
 20
220.1851326925282137
 30
0.0
 40
0.030000000000033
 50
150.0809675350120074
 51
180.0000270699844123
  0
LINE
  5
107B6
  8
0
 10
4551.6556816921556674
 20
219.817132692528304
 30
0.0
 11
4544.0356643898167022
 21
219.8171326925281903
 31
0.0
  0
LINE
  5
107B7
  8
0
 10
4550.2276730409867014
 20
219.9779326925282135
 30
0.0
 11
4550.2176730409873926
 21
219.9779326925282135
 31
0.0
  0
ARC
  5
107B8
  8
0
 10
4551.0894218579896915
 20
220.2767460127219863
 30
0.0
 40
0.1296782348728223
 50
129.2691827336531105
 51
180.0910030047776047
  0
ARC
  5
107B9
  8
0
 10
4550.5956762992118456
 20
220.8801315293736138
 30
0.0
 40
0.6499747519163928
 50
309.2979787714418762
 51
230.6989175101651881
  0
ARC
  5
107BA
  8
0
 10
4550.1015071448127856
 20
220.2764625311050963
 30
0.0
 40
0.1301658898603138
 50
0.0336679434750903
 51
50.6809469348033588
  0
ARC
  5
107BB
  8
0
 10
4550.9615794027240554
 20
220.5041607588904071
 30
0.0
 40
0.1077985387692712
 50
284.0457522524436058
 51
304.6604570549130244
  0
ARC
  5
107BC
  8
0
 10
4550.9818685341588207
 20
220.4230614371687125
 30
0.0
 40
0.0241998017087675
 50
260.1710163784526912
 51
284.0457522524436058
  0
ARC
  5
107BD
  8
0
 10
4550.5958841454103094
 20
216.9221647950022032
 30
0.0
 40
3.4979569630415228
 50
83.7328357460742154
 51
84.2734819100690231
  0
ARC
  5
107BE
  8
0
 10
4550.5956730367915952
 20
216.9201349400495928
 30
0.0
 40
3.4999977524786128
 50
84.2733588781386658
 51
95.7266712922911154
  0
ARC
  5
107BF
  8
0
 10
4550.5954658762857434
 20
216.9221281487463955
 30
0.0
 40
3.4979938203541492
 50
95.7265527302158432
 51
96.2671654371244898
  0
ARC
  5
107C0
  8
0
 10
4550.2096353211645692
 20
220.4285696700740971
 30
0.0
 40
0.0296205205507147
 50
258.2474621219606092
 51
277.7086454945502965
  0
ARC
  5
107C1
  8
0
 10
4550.228840464877976
 20
220.5017611445256875
 30
0.0
 40
0.1052615143825065
 50
234.8544019022035911
 51
256.1271183419174235
  0
ARC
  5
107C2
  8
0
 10
4550.5956730409861848
 20
220.8801326925282069
 30
0.0
 40
0.6311902912999989
 50
312.596934610999881
 51
227.3766296163005904
  0
ARC
  5
107C3
  8
0
 10
4551.2719422316640703
 20
220.3901175271913075
 30
0.0
 40
0.2649201338325921
 50
177.5148075475401015
 51
182.8077587100690096
  0
LINE
  5
107C4
  8
0
 10
4551.0072712654873612
 20
220.4016047798282045
 30
0.0
 11
4551.0042187687467958
 21
220.4051536408335892
 31
0.0
  0
ARC
  5
107C5
  8
0
 10
4549.9844698210690694
 20
220.3899377355072033
 30
0.0
 40
0.1999239758166094
 50
356.3363367152887804
 51
3.351463708190908
  0
LINE
  5
107C6
  8
0
 10
4550.184051868757706
 20
220.4016254361528127
 30
0.0
 11
4550.1871046313099214
 21
220.4051272653404965
 31
0.0
  0
ARC
  5
107C7
  8
0
 10
4551.6504532755079708
 20
218.4013737628415868
 30
0.0
 40
1.415768583960012
 50
86.2046734226751283
 51
89.7884068824391477
  0
ARC
  5
107C8
  8
0
 10
4551.6686062396247507
 20
218.6750172842675966
 30
0.0
 40
1.1415236078443669
 50
79.7719770056157387
 51
86.2046734226751283
  0
ARC
  5
107C9
  8
0
 10
4551.6462950513860051
 20
218.5513639485340036
 30
0.0
 40
1.2671736637882201
 50
38.8064833519119503
 51
79.7719770056157387
  0
ARC
  5
107CA
  8
0
 10
4544.3790534236250096
 20
212.7204084133774984
 30
0.0
 40
10.5845139631469394
 50
3.1695351530507132
 51
38.7499125023225233
  0
ARC
  5
107CB
  8
0
 10
4542.9697932263634357
 20
212.6432203441104036
 30
0.0
 40
11.99588622652543
 50
358.2311136731281067
 51
3.1654807215785219
  0
ARC
  5
107CC
  8
0
 10
4541.8503400963936656
 20
212.6797064573378009
 30
0.0
 40
13.1159322961033507
 50
318.354713249215024
 51
358.2227548828520867
  0
ARC
  5
107CD
  8
0
 10
4547.8456730409370721
 20
207.3475641826427989
 30
0.0
 40
5.0924818207598062
 50
270.000000000573209
 51
318.3610741221190779
  0
ENDSEC
  0
EOF
