  0
SECTION
  2
HEADER
  9
$ACADVER
  1
AC1009
  9
$INSBASE
 10
3055.5610437567352164
 20
33.4421980033930026
 30
0.0
  9
$EXTMIN
 10
3048.2461366098741564
 20
33.4404080385359421
 30
-0.0000000000112498
  9
$EXTMAX
 10
3062.7342170044521481
 20
35.5420262920852679
 30
0.0000000000002956
  9
$LIMMIN
 10
0.0
 20
0.0
  9
$LIMMAX
 10
11.6929133858000007
 20
8.2677165353999982
  9
$ORTHOMODE
 70
     0
  9
$REGENMODE
 70
     1
  9
$FILLMODE
 70
     1
  9
$QTEXTMODE
 70
     0
  9
$MIRRTEXT
 70
     0
  9
$DRAGMODE
 70
     2
  9
$LTSCALE
 40
0.6431102362
  9
$OSMODE
 70
  3839
  9
$ATTMODE
 70
     1
  9
$TEXTSIZE
 40
0.2
  9
$TRACEWID
 40
0.05
  9
$TEXTSTYLE
  7
STANDARD
  9
$CLAYER
  8
0
  9
$CELTYPE
  6
BYLAYER
  9
$CECOLOR
 62
   256
  9
$DIMSCALE
 40
1.0
  9
$DIMASZ
 40
0.1875
  9
$DIMEXO
 40
0.0625
  9
$DIMDLI
 40
0.4443307087
  9
$DIMRND
 40
0.0
  9
$DIMDLE
 40
0.0
  9
$DIMEXE
 40
0.125
  9
$DIMTP
 40
0.01
  9
$DIMTM
 40
0.01
  9
$DIMTXT
 40
2.0
  9
$DIMCEN
 40
0.1052362205
  9
$DIMTSZ
 40
0.0
  9
$DIMTOL
 70
     1
  9
$DIMLIM
 70
     0
  9
$DIMTIH
 70
     1
  9
$DIMTOH
 70
     1
  9
$DIMSE1
 70
     0
  9
$DIMSE2
 70
     0
  9
$DIMTAD
 70
     0
  9
$DIMZIN
 70
     0
  9
$DIMBLK
  1

  9
$DIMASO
 70
     1
  9
$DIMSHO
 70
     1
  9
$DIMPOST
  1
\X
  9
$DIMAPOST
  1

  9
$DIMALT
 70
     1
  9
$DIMALTD
 70
     2
  9
$DIMALTF
 40
25.3999999999999986
  9
$DIMLFAC
 40
1.0
  9
$DIMTOFL
 70
     0
  9
$DIMTVP
 40
0.0
  9
$DIMTIX
 70
     0
  9
$DIMSOXD
 70
     0
  9
$DIMSAH
 70
     0
  9
$DIMBLK1
  1

  9
$DIMBLK2
  1

  9
$DIMSTYLE
  2
STANDARD
  9
$DIMCLRD
 70
     0
  9
$DIMCLRE
 70
     0
  9
$DIMCLRT
 70
     0
  9
$DIMTFAC
 40
1.0
  9
$DIMGAP
 40
0.09
  9
$LUNITS
 70
     2
  9
$LUPREC
 70
     4
  9
$SKETCHINC
 40
0.1
  9
$FILLETRAD
 40
0.0
  9
$AUNITS
 70
     0
  9
$AUPREC
 70
     0
  9
$MENU
  1
.
  9
$ELEVATION
 40
0.0
  9
$PELEVATION
 40
0.0
  9
$THICKNESS
 40
0.0
  9
$LIMCHECK
 70
     0
  9
$BLIPMODE
 70
     0
  9
$CHAMFERA
 40
0.0
  9
$CHAMFERB
 40
0.0
  9
$SKPOLY
 70
     0
  9
$TDCREATE
 40
2458060.468368056230247
  9
$TDUPDATE
 40
2460419.3917592591606081
  9
$TDINDWG
 40
0.4896829861
  9
$TDUSRTIMER
 40
0.4896829861
  9
$USRTIMER
 70
     1
  9
$ANGBASE
 50
0.0
  9
$ANGDIR
 70
     0
  9
$PDMODE
 70
     0
  9
$PDSIZE
 40
0.3125
  9
$PLINEWID
 40
0.0
  9
$COORDS
 70
     1
  9
$SPLFRAME
 70
     0
  9
$SPLINETYPE
 70
     6
  9
$SPLINESEGS
 70
     8
  9
$ATTDIA
 70
     1
  9
$ATTREQ
 70
     1
  9
$HANDLING
 70
     1
  9
$HANDSEED
  5
30EF9
  9
$SURFTAB1
 70
     6
  9
$SURFTAB2
 70
     6
  9
$SURFTYPE
 70
     6
  9
$SURFU
 70
     6
  9
$SURFV
 70
     6
  9
$UCSNAME
  2

  9
$UCSORG
 10
0.0
 20
0.0
 30
0.0
  9
$UCSXDIR
 10
1.0
 20
0.0
 30
0.0
  9
$UCSYDIR
 10
0.0
 20
1.0
 30
0.0
  9
$PUCSNAME
  2

  9
$PUCSORG
 10
0.0
 20
0.0
 30
0.0
  9
$PUCSXDIR
 10
1.0
 20
0.0
 30
0.0
  9
$PUCSYDIR
 10
0.0
 20
1.0
 30
0.0
  9
$USERI1
 70
     0
  9
$USERI2
 70
     0
  9
$USERI3
 70
     0
  9
$USERI4
 70
     0
  9
$USERI5
 70
     0
  9
$USERR1
 40
0.0
  9
$USERR2
 40
0.0
  9
$USERR3
 40
0.0
  9
$USERR4
 40
0.0
  9
$USERR5
 40
0.0
  9
$WORLDVIEW
 70
     1
  9
$SHADEDGE
 70
     3
  9
$SHADEDIF
 70
    70
  9
$TILEMODE
 70
     1
  9
$MAXACTVP
 70
    64
  9
$PLIMCHECK
 70
     0
  9
$PEXTMIN
 10
1.0000000000000000E+20
 20
1.0000000000000000E+20
 30
1.0000000000000000E+20
  9
$PEXTMAX
 10
-1.0000000000000000E+20
 20
-1.0000000000000000E+20
 30
-1.0000000000000000E+20
  9
$PLIMMIN
 10
0.0
 20
0.0
  9
$PLIMMAX
 10
12.0
 20
9.0
  9
$UNITMODE
 70
     0
  9
$VISRETAIN
 70
     1
  9
$PLINEGEN
 70
     0
  9
$PSLTSCALE
 70
     1
  0
ENDSEC
  0
SECTION
  2
TABLES
  0
TABLE
  2
VPORT
 70
     1
  0
VPORT
  2
*ACTIVE
 70
     0
 10
0.0
 20
0.0
 11
1.0
 21
1.0
 12
-748.0538905756493477
 22
-91.5040450314393041
 13
0.0
 23
0.0
 14
1.0
 24
1.0
 15
0.0
 25
0.0
 16
0.0
 26
0.0
 36
17.1152628219792007
 17
3803.5440673828129547
 27
125.9952621967499056
 37
0.0
 40
6.851864531865937
 41
2.1211111111111101
 42
50.0
 43
0.0
 44
0.0
 50
0.0
 51
0.0
 71
     0
 72
   100
 73
     1
 74
     1
 75
     0
 76
     0
 77
     0
 78
     0
  0
ENDTAB
  0
TABLE
  2
LTYPE
 70
     3
  0
LTYPE
  2
CONTINUOUS
 70
     0
  3
Solid line
 72
    65
 73
     0
 40
0.0
  0
LTYPE
  2
PHANTOM2
 70
     0
  3
___ _ _ ___ _ _ ___ _ _ ___ _ _
 72
    65
 73
     6
 40
1.25
 49
0.625
 49
-0.125
 49
0.125
 49
-0.125
 49
0.125
 49
-0.125
  0
ENDTAB
  0
TABLE
  2
LAYER
 70
     2
  0
LAYER
  2
0
 70
     0
 62
   255
  6
CONTINUOUS
  0
LAYER
  2
DEFPOINTS
 70
     0
 62
     7
  6
CONTINUOUS
  0
ENDTAB
  0
TABLE
  2
STYLE
 70
     1
  0
STYLE
  2
STANDARD
 70
     0
 40
0.0
 41
0.8
 50
0.0
 71
     0
 42
0.2
  3
txt
  4

  0
ENDTAB
  0
TABLE
  2
VIEW
 70
     0
  0
ENDTAB
  0
TABLE
  2
UCS
 70
     0
  0
ENDTAB
  0
TABLE
  2
APPID
 70
    10
  0
APPID
  2
ACAD
 70
     0
  0
APPID
  2
ACAD_MLEADERVER
 70
     0
  0
APPID
  2
ACAD_EXEMPT_FROM_CAD_STANDARDS
 70
     0
  0
APPID
  2
ACAD_NAV_VCDISPLAY
 70
     0
  0
APPID
  2
ACAECLAYERSTANDARD
 70
     0
  0
APPID
  2
ACCMTRANSPARENCY
 70
     0
  0
APPID
  2
ACAD_DSTYLE_DIMJAG
 70
     0
  0
APPID
  2
ACAD_DSTYLE_DIMTALN
 70
     0
  0
APPID
  2
ACDBATTR
 70
     0
  0
APPID
  2
DCO15
 70
     0
  0
ENDTAB
  0
TABLE
  2
DIMSTYLE
 70
     2
  0
DIMSTYLE
  2
STANDARD
 70
     0
  3

  4

  5

  6

  7

 40
1.0
 41
0.1875
 42
0.0625
 43
0.38
 44
0.125
 45
0.0
 46
0.0
 47
0.01
 48
0.01
140
0.15625
141
0.09
142
0.0
143
25.3999999999999986
144
1.0
145
0.0
146
1.0
147
0.09
 71
     1
 72
     0
 73
     1
 74
     1
 75
     0
 76
     0
 77
     0
 78
     4
170
     0
171
     2
172
     0
173
     0
174
     0
175
     0
176
     0
177
     0
178
     0
  0
ENDTAB
  0
ENDSEC
  0
SECTION
  2
BLOCKS
  0
BLOCK
  8
0
  2
$MODEL_SPACE
 70
     0
 10
0.0
 20
0.0
 30
0.0
  3
$MODEL_SPACE
  1

  0
ENDBLK
  5
21
  8
0
  0
BLOCK
 67
     1
  8
0
  2
$PAPER_SPACE
 70
     0
 10
0.0
 20
0.0
 30
0.0
  3
$PAPER_SPACE
  1

  0
ENDBLK
  5
1D
 67
     1
  8
0
  0
BLOCK
  8
0
  2
_FILLED
 70
     0
 10
0.0
 20
0.0
 30
0.0
  3
_FILLED
  1

  0
SOLID
  5
2F55F
  8
0
  6
BYBLOCK
 62
     0
 10
0.0
 20
0.0
 30
0.0
 11
-1.0
 21
0.1666666667
 31
0.0
 12
-1.0
 22
-0.1666666667
 32
0.0
 13
-1.0
 23
-0.1666666667
 33
0.0
  0
ENDBLK
  5
2F560
  8
0
  6
BYBLOCK
 62
     0
  0
ENDSEC
  0
SECTION
  2
ENTITIES
  0
ATTDEF
  5
306B3
  8
DEFPOINTS
 10
3055.5611641569480526
 20
33.4464970677482683
 30
0.0
 40
0.001
  1
P703013-BGP
  3

  2
MODELNUMBER
 70
     0
1001
ACDBATTR
1070
     0
1070
     1
  0
ATTDEF
  5
306B4
  8
DEFPOINTS
 10
3055.5611641569480526
 20
33.4448304010816102
 30
0.0
 40
0.001
  1

  3

  2
TRADENAME
 70
     0
1001
ACDBATTR
1070
     0
1070
     1
  0
ATTDEF
  5
306B5
  8
DEFPOINTS
 10
3055.5611641569480526
 20
33.4431637344149379
 30
0.0
 40
0.001
  1
TOILET SEAT
  3

  2
PRODUCT
 70
     0
1001
ACDBATTR
1070
     0
1070
     1
  0
LINE
  5
30B70
  8
0
 10
3050.7249333957911404
 20
33.4422541064195613
 30
0.0
 11
3051.0306050391818644
 21
33.4422541064195613
 31
0.0
  0
LINE
  5
30B71
  8
0
 10
3052.1726533260980432
 20
33.4422541064195613
 30
0.0
 11
3053.4494339239831788
 21
33.4422541064195613
 31
0.0
  0
LINE
  5
30B73
  8
0
 10
3051.7510437565351822
 20
35.5395218379195583
 30
0.0
 11
3059.3710437569361602
 21
35.5395218379195583
 31
0.0
  0
LINE
  5
30B74
  8
0
 10
3048.5793086263620353
 20
34.4993411498500819
 30
0.0
 11
3062.5431285306840437
 21
34.499324469571377
 31
0.0
  0
LINE
  5
30B76
  8
0
 10
3048.7657255547787827
 20
35.2023329266195617
 30
0.0
 11
3062.3563619586898312
 21
35.2023329266195617
 31
0.0
  0
LINE
  5
30B78
  8
0
 10
3048.4410373448349674
 20
34.5623328054195582
 30
0.0
 11
3062.6810501686350108
 21
34.5623328054195582
 31
0.0
  0
LINE
  5
30B7A
  8
0
 10
3048.5687150178268894
 20
33.6833575697195471
 30
0.0
 11
3062.5533724956430888
 21
33.6833575697195613
 31
0.0
  0
LINE
  5
30B7C
  8
0
 10
3048.4410373448349674
 20
33.7466546582195477
 30
0.0
 11
3062.6810501686350108
 21
33.7466546582195477
 31
0.0
  0
ARC
  5
30B7E
  8
0
 10
3297.7823076521331132
 20
25.8481993446701885
 30
0.0
 40
249.4934973109089071
 50
177.9754273081688893
 51
177.9984061930605037
  0
ARC
  5
30B7F
  8
0
 10
3049.6911683409648504
 20
34.6181841848777268
 30
0.0
 40
1.2473975680651841
 50
161.2713606079298927
 51
177.9717580375819068
  0
ARC
  5
30B80
  8
0
 10
3048.7659701537140791
 20
34.9318620080850479
 30
0.0
 40
0.2704710291353505
 50
90.0518151188950355
 51
161.2713567917220985
  0
ARC
  5
30B81
  8
0
 10
3048.7645085758958885
 20
36.1014659028008822
 30
0.0
 40
0.8991337997730305
 50
270.0775499432082825
 51
279.6484360473431821
  0
ARC
  5
30B82
  8
0
 10
3096.8952756658582075
 20
-306.7479803252912234
 30
0.0
 40
345.3126144155920088
 50
97.6383326041111843
 51
97.986904600515814
  0
ARC
  5
30B83
  8
0
 10
3051.7437877556631065
 20
28.3433536394886403
 30
0.0
 40
7.1961718565954964
 50
89.942227853245214
 51
95.9607094384606967
  0
ARC
  5
30B84
  8
0
 10
3048.5729094104999604
 20
34.6298054141981027
 30
0.0
 40
0.1306211094559933
 50
211.101256246573314
 51
272.8080827493166112
  0
LINE
  5
30B85
  8
0
 10
3048.7423795013860399
 20
34.3564407209560869
 30
0.0
 11
3060.453452278282839
 21
34.3564407209560869
 31
0.0
  0
ARC
  5
30B87
  8
0
 10
3048.5748139635120424
 20
33.81697022776045
 30
0.0
 40
0.1337517832674939
 50
211.7165154799803872
 51
267.3864643142152886
  0
ARC
  5
30B88
  8
0
 10
3053.3974957998248101
 20
33.5739782263301834
 30
0.0
 40
4.9594654516563539
 50
176.8482238487966072
 51
178.0046981068159084
  0
ARC
  5
30B89
  8
0
 10
3049.6940965364369731
 20
33.7779037719005117
 30
0.0
 40
1.2504559164567211
 50
161.6397531471540105
 51
176.8482238487966072
  0
ARC
  5
30B8A
  8
0
 10
3048.7643785878531162
 20
34.0864634924993908
 30
0.0
 40
0.2708720430213446
 50
94.6584526910465343
 51
161.6397531471536126
  0
ARC
  5
30B8B
  8
0
 10
3051.5748240249417904
 20
-23.5077771342589799
 30
0.0
 40
57.9335002392813578
 50
91.0396703858450991
 51
92.8023827316062153
  0
ARC
  5
30B8C
  8
0
 10
3050.750411885945141
 20
34.7607243392811469
 30
0.0
 40
0.4124714107123578
 50
219.3240398444806942
 51
258.5825221428711984
  0
ARC
  5
30B8D
  8
0
 10
3050.8761364143770152
 20
34.761616246767332
 30
0.0
 40
0.4134538969829303
 50
281.4597057293004809
 51
320.6275372139480169
  0
LINE
  5
30B8E
  8
0
 10
3051.6110430605349393
 20
34.4105403515556389
 30
0.0
 11
3054.0110443015369128
 21
34.4083244004595201
 31
0.0
  0
LINE
  5
30B8F
  8
0
 10
3051.6110430605349393
 20
34.4993319129195584
 30
0.0
 11
3051.6110430605349393
 21
34.4105403515556389
 31
0.0
  0
LINE
  5
30B90
  8
0
 10
3052.401516159834955
 20
34.4993328077114825
 30
0.0
 11
3052.401516159834955
 21
34.4098104978785102
 31
0.0
  0
LINE
  5
30B91
  8
0
 10
3052.4470437567351837
 20
34.4993328076899815
 30
0.0
 11
3052.4470437567351837
 21
34.4097684616801516
 31
0.0
  0
LINE
  5
30B92
  8
0
 10
3052.43304375673506
 20
34.4993328076965895
 30
0.0
 11
3052.43304375673506
 21
34.40978138805486
 31
0.0
  0
LINE
  5
30B93
  8
0
 10
3054.0110443015369128
 20
34.4993328069514575
 30
0.0
 11
3054.0110443015369128
 21
34.4083244004595201
 31
0.0
  0
LINE
  5
30B94
  8
0
 10
3053.2185713158351064
 20
34.4993342493195527
 30
0.0
 11
3053.2185713158351064
 21
34.4090561006567199
 31
0.0
  0
LINE
  5
30B95
  8
0
 10
3053.1890437567349181
 20
34.4993328073396128
 30
0.0
 11
3053.1890437567349181
 21
34.4090833638205069
 31
0.0
  0
LINE
  5
30B96
  8
0
 10
3053.1750437567347944
 20
34.4993342234195524
 30
0.0
 11
3053.1750437567347944
 21
34.4090962901952224
 31
0.0
  0
LINE
  5
30B97
  8
0
 10
3050.0435831141007839
 20
33.6833575697195471
 30
0.0
 11
3050.047073386908778
 21
33.6375523361380502
 31
0.0
  0
ARC
  5
30B98
  8
0
 10
3050.059112000335972
 20
33.638469655880769
 30
0.0
 40
0.0120735118645827
 50
184.357410588341196
 51
222.9210109924628966
  0
ARC
  5
30B99
  8
0
 10
3050.4139389482979823
 20
33.9684377651697673
 30
0.0
 40
0.4966156835564596
 50
222.9210109924628966
 51
251.8313167067589973
  0
ARC
  5
30B9A
  8
0
 10
3050.5303237713228555
 20
34.3679324820863599
 30
0.0
 40
0.9125904366269516
 50
252.7094760667085893
 51
264.8713540159010904
  0
ARC
  5
30B9B
  8
0
 10
3051.3121784105737788
 20
45.4167028162323518
 30
0.0
 40
11.9888397525082997
 50
265.8699970720928718
 51
267.1923780063197
  0
LINE
  5
30B9C
  8
0
 10
3051.6465043999019144
 20
33.6833575697195471
 30
0.0
 11
3051.6429354843348847
 21
33.636805587819552
 31
0.0
  0
ARC
  5
30B9D
  8
0
 10
3051.6328563143038082
 20
33.6375783090949483
 30
0.0
 40
0.0101087470384198
 50
313.5167829115774225
 51
355.6159850372288247
  0
ARC
  5
30B9E
  8
0
 10
3050.7126297674658417
 20
34.6067260578210423
 30
0.0
 40
1.3465458972123301
 50
308.8095105175041795
 51
313.5167829115774225
  0
ARC
  5
30B9F
  8
0
 10
3051.2695875900399187
 20
33.9852767297698506
 30
0.0
 40
0.5151546625319255
 50
282.8427195995229795
 51
303.8520628375715091
  0
ARC
  5
30BA0
  8
0
 10
3050.3151930295530292
 20
41.2007340603295091
 30
0.0
 40
7.7913943257124263
 50
275.2683646831143278
 51
277.8852719195700161
  0
LINE
  5
30BA1
  8
0
 10
3050.1320580235910711
 20
33.5585440680050908
 30
0.0
 11
3050.1335565258232236
 21
33.5585440785612832
 31
0.0
  0
LINE
  5
30BA2
  8
0
 10
3051.5579234598508265
 20
33.5585541125205822
 30
0.0
 11
3059.5640941224878588
 21
33.5586105120259006
 31
0.0
  0
LINE
  5
30BA5
  8
0
 10
3052.1635072857679916
 20
33.5586299225974614
 30
0.0
 11
3052.1610701686868197
 21
33.4543066584532411
 31
0.0
  0
ARC
  5
30BA6
  8
0
 10
3052.1728459862770251
 20
33.4540315611733803
 30
0.0
 40
0.0117790304534325
 50
178.6617450061127101
 51
269.0628169750528969
  0
LINE
  5
30BA7
  8
0
 10
3053.4585828710169153
 20
33.5585675017243688
 30
0.0
 11
3053.4610173447831585
 21
33.4543066584532411
 31
0.0
  0
ARC
  5
30BA8
  8
0
 10
3053.4492413954990297
 20
33.4540316919490621
 30
0.0
 40
0.01177915905836
 50
270.9365321237522721
 51
1.3376040921514061
  0
LINE
  5
30BA9
  8
0
 10
3052.5680322802209048
 20
33.5585612282367123
 30
0.0
 11
3052.5680322802209048
 21
33.4422540653195597
 31
0.0
  0
LINE
  5
30BAA
  8
0
 10
3053.0540544728169152
 20
33.5585646520222411
 30
0.0
 11
3053.0540544728169152
 21
33.4422540653195526
 31
0.0
  0
LINE
  5
30BDA
  8
0
 10
3060.3971541176779283
 20
33.4422541064195613
 30
0.0
 11
3060.0914824742881137
 21
33.4422541064195613
 31
0.0
  0
LINE
  5
30BDB
  8
0
 10
3058.949434187371935
 20
33.4422541064195613
 30
0.0
 11
3057.6726535894858898
 21
33.4422541064195613
 31
0.0
  0
ARC
  5
30BDC
  8
0
 10
2813.3397795207060881
 20
25.8481993326692709
 30
0.0
 40
249.4934976517515111
 50
2.0015938069614978
 51
2.0245726918221232
  0
ARC
  5
30BDD
  8
0
 10
3061.4309191725042183
 20
34.6181841848777268
 30
0.0
 40
1.2473975680651841
 50
2.028241962418444
 51
18.7286393920700611
  0
ARC
  5
30BDE
  8
0
 10
3062.3561173597558991
 20
34.9318620080850479
 30
0.0
 40
0.2704710291353505
 50
18.7286432082778695
 51
89.9481848811049787
  0
ARC
  5
30BDF
  8
0
 10
3062.3575789375740897
 20
36.1014659028008822
 30
0.0
 40
0.8991337997730305
 50
260.3515639526568179
 51
269.9224500567916039
  0
ARC
  5
30BE0
  8
0
 10
3014.2268118476122254
 20
-306.7479803252912234
 30
0.0
 40
345.3126144155920088
 50
82.0130953994842002
 51
82.3616673958888441
  0
ARC
  5
30BE1
  8
0
 10
3059.3782997578077811
 20
28.3433536394886403
 30
0.0
 40
7.1961718565954964
 50
84.0392905615393033
 51
90.0577721467547718
  0
ARC
  5
30BE2
  8
0
 10
3062.5491781029691083
 20
34.6298054141981027
 30
0.0
 40
0.1306211094559933
 50
267.1919172506832751
 51
328.898743753426686
  0
ARC
  5
30BE3
  8
0
 10
3062.5472735499570263
 20
33.81697022776045
 30
0.0
 40
0.1337517832674939
 50
272.6135356857847114
 51
328.2834845200196128
  0
ARC
  5
30BE4
  8
0
 10
3057.7245917136451681
 20
33.5739782263301834
 30
0.0
 40
4.9594654516563539
 50
1.9953018931840401
 51
3.151776151203368
  0
ARC
  5
30BE5
  8
0
 10
3061.427990977033005
 20
33.7779037719005117
 30
0.0
 40
1.2504559164567211
 50
3.151776151203368
 51
18.3602468528459717
  0
ARC
  5
30BE6
  8
0
 10
3062.357708925616862
 20
34.0864634924993908
 30
0.0
 40
0.2708720430213446
 50
18.3602468528459717
 51
85.3415473089534657
  0
ARC
  5
30BE7
  8
0
 10
3059.5472634885281877
 20
-23.5077771342589799
 30
0.0
 40
57.9335002392813578
 50
87.1976172683937847
 51
88.9603296141549151
  0
ARC
  5
30BE8
  8
0
 10
3060.3718300276391346
 20
34.7604679382489579
 30
0.0
 40
0.4121895002467175
 50
281.4212667427636916
 51
320.6899301554864223
  0
ARC
  5
30BE9
  8
0
 10
3060.245951099092963
 20
34.761616246767332
 30
0.0
 40
0.4134538969829303
 50
219.3724627860518979
 51
258.5402942706995191
  0
LINE
  5
30BEA
  8
0
 10
3059.5110444529350389
 20
34.4105403515556389
 30
0.0
 11
3057.1110432119330653
 21
34.4083244004595201
 31
0.0
  0
LINE
  5
30BEB
  8
0
 10
3059.5110444529350389
 20
34.4993319129195584
 30
0.0
 11
3059.5110444529350389
 21
34.4105403515556389
 31
0.0
  0
LINE
  5
30BEC
  8
0
 10
3058.7205713536350231
 20
34.4993328077114825
 30
0.0
 11
3058.7205713536350231
 21
34.4098104978785102
 31
0.0
  0
LINE
  5
30BED
  8
0
 10
3058.6750437567347944
 20
34.4993328076899815
 30
0.0
 11
3058.6750437567347944
 21
34.4097684616801516
 31
0.0
  0
LINE
  5
30BEE
  8
0
 10
3058.6890437567349181
 20
34.4993328076965895
 30
0.0
 11
3058.6890437567349181
 21
34.40978138805486
 31
0.0
  0
LINE
  5
30BEF
  8
0
 10
3057.1110432119330653
 20
34.4993328069514575
 30
0.0
 11
3057.1110432119330653
 21
34.4083244004595201
 31
0.0
  0
LINE
  5
30BF0
  8
0
 10
3057.9035161976348718
 20
34.4993342493195527
 30
0.0
 11
3057.9035161976348718
 21
34.4090561006567199
 31
0.0
  0
LINE
  5
30BF1
  8
0
 10
3057.93304375673506
 20
34.4993328073396128
 30
0.0
 11
3057.93304375673506
 21
34.4090833638205069
 31
0.0
  0
LINE
  5
30BF2
  8
0
 10
3057.9470437567351837
 20
34.4993342234195524
 30
0.0
 11
3057.9470437567351837
 21
34.4090962901952224
 31
0.0
  0
LINE
  5
30BF3
  8
0
 10
3061.0785043993691943
 20
33.6833575697195471
 30
0.0
 11
3061.0750141265612001
 21
33.6375523361380502
 31
0.0
  0
ARC
  5
30BF4
  8
0
 10
3061.0629755131340062
 20
33.638469655880769
 30
0.0
 40
0.0120735118645827
 50
317.0789890075371886
 51
355.6425894116583208
  0
ARC
  5
30BF5
  8
0
 10
3060.7081485651719959
 20
33.9684377651697673
 30
0.0
 40
0.4966156835564596
 50
288.1686832932409743
 51
317.0789890075371886
  0
ARC
  5
30BF6
  8
0
 10
3060.5917637421471227
 20
34.3679324820863599
 30
0.0
 40
0.9125904366269516
 50
275.1286459840989096
 51
287.2905239332914107
  0
ARC
  5
30BF7
  8
0
 10
3059.8099091028961993
 20
45.4167028162323518
 30
0.0
 40
11.9888397525082997
 50
272.8076219936803
 51
274.1300029279071282
  0
LINE
  5
30BF8
  8
0
 10
3059.4755831135680637
 20
33.6833575697195471
 30
0.0
 11
3059.4791520291350935
 21
33.636805587819552
 31
0.0
  0
ARC
  5
30BF9
  8
0
 10
3059.48923119916617
 20
33.6375783090949483
 30
0.0
 40
0.0101087470384198
 50
184.3840149627706921
 51
226.4832170884226059
  0
ARC
  5
30BFA
  8
0
 10
3060.4094577460032269
 20
34.6067260578210423
 30
0.0
 40
1.3465458972123301
 50
226.4832170884226059
 51
231.1904894824959058
  0
ARC
  5
30BFB
  8
0
 10
3059.8524999234300594
 20
33.9852767297698506
 30
0.0
 40
0.5151546625319255
 50
236.1479371624284056
 51
257.1572804004769068
  0
ARC
  5
30BFC
  8
0
 10
3060.806894483916949
 20
41.2007340603295091
 30
0.0
 40
7.7913943257124263
 50
262.1147280804299839
 51
264.7316353168856722
  0
LINE
  5
30BFD
  8
0
 10
3060.990029489878907
 20
33.5585440680050908
 30
0.0
 11
3060.9885309876472093
 21
33.5585440785612832
 31
0.0
  0
LINE
  5
30BFE
  8
0
 10
3058.9585802277010771
 20
33.5586299225974614
 30
0.0
 11
3058.9610173447831585
 21
33.4543066584532411
 31
0.0
  0
ARC
  5
30BFF
  8
0
 10
3058.9492415271929531
 20
33.4540315611733803
 30
0.0
 40
0.0117790304534325
 50
270.9371830249469895
 51
1.3382549938873169
  0
LINE
  5
30C00
  8
0
 10
3057.6635046424530628
 20
33.5585675017243688
 30
0.0
 11
3057.6610701686868197
 21
33.4543066584532411
 31
0.0
  0
ARC
  5
30C01
  8
0
 10
3057.6728461179709484
 20
33.4540316919490621
 30
0.0
 40
0.01177915905836
 50
178.6623959078482073
 51
269.0634678762477279
  0
LINE
  5
30C02
  8
0
 10
3058.5540552332490734
 20
33.5585612282367123
 30
0.0
 11
3058.5540552332490734
 21
33.4422540653195597
 31
0.0
  0
LINE
  5
30C03
  8
0
 10
3058.0680330406530629
 20
33.5585646520222411
 30
0.0
 11
3058.0680330406530629
 21
33.4422540653195526
 31
0.0
  0
LINE
  5
30CC9
  8
0
 10
3050.0500049349948313
 20
33.6305493447751402
 30
0.0
 11
3051.6401213282251774
 21
33.6305493447751402
 31
0.0
  0
LINE
  5
30CCA
  8
0
 10
3059.4819661852448007
 20
33.6305493447751473
 30
0.0
 11
3061.0720880517887963
 21
33.6305493447751402
 31
0.0
  0
ENDSEC
  0
EOF
