  0
SECTION
  2
HEADER
  9
$ACADVER
  1
AC1009
  9
$INSBASE
 10
4548.9462791340683907
 20
214.7205887335950081
 30
0.0
  9
$EXTMIN
 10
4541.8262727221672321
 20
214.7166221491401927
 30
0.0
  9
$EXTMAX
 10
4556.0662855459686398
 20
216.8178601232596066
 30
0.0
  9
$LIMMIN
 10
0.0
 20
0.0
  9
$LIMMAX
 10
11.6929133858000007
 20
8.2677165353999982
  9
$ORTHOMODE
 70
     0
  9
$REGENMODE
 70
     1
  9
$FILLMODE
 70
     1
  9
$QTEXTMODE
 70
     0
  9
$MIRRTEXT
 70
     0
  9
$DRAGMODE
 70
     2
  9
$LTSCALE
 40
0.6431102362
  9
$OSMODE
 70
  4095
  9
$ATTMODE
 70
     1
  9
$TEXTSIZE
 40
0.2
  9
$TRACEWID
 40
0.05
  9
$TEXTSTYLE
  7
STANDARD
  9
$CLAYER
  8
0
  9
$CELTYPE
  6
BYLAYER
  9
$CECOLOR
 62
   256
  9
$DIMSCALE
 40
1.0
  9
$DIMASZ
 40
0.1875
  9
$DIMEXO
 40
0.0625
  9
$DIMDLI
 40
0.4443307087
  9
$DIMRND
 40
0.0
  9
$DIMDLE
 40
0.0
  9
$DIMEXE
 40
0.125
  9
$DIMTP
 40
0.01
  9
$DIMTM
 40
0.01
  9
$DIMTXT
 40
2.0
  9
$DIMCEN
 40
0.1052362205
  9
$DIMTSZ
 40
0.0
  9
$DIMTOL
 70
     1
  9
$DIMLIM
 70
     0
  9
$DIMTIH
 70
     1
  9
$DIMTOH
 70
     1
  9
$DIMSE1
 70
     0
  9
$DIMSE2
 70
     0
  9
$DIMTAD
 70
     0
  9
$DIMZIN
 70
     0
  9
$DIMBLK
  1

  9
$DIMASO
 70
     1
  9
$DIMSHO
 70
     1
  9
$DIMPOST
  1
\X
  9
$DIMAPOST
  1

  9
$DIMALT
 70
     1
  9
$DIMALTD
 70
     2
  9
$DIMALTF
 40
25.3999999999999986
  9
$DIMLFAC
 40
1.0
  9
$DIMTOFL
 70
     0
  9
$DIMTVP
 40
0.0
  9
$DIMTIX
 70
     0
  9
$DIMSOXD
 70
     0
  9
$DIMSAH
 70
     0
  9
$DIMBLK1
  1

  9
$DIMBLK2
  1

  9
$DIMSTYLE
  2
STANDARD
  9
$DIMCLRD
 70
     0
  9
$DIMCLRE
 70
     0
  9
$DIMCLRT
 70
     0
  9
$DIMTFAC
 40
1.0
  9
$DIMGAP
 40
0.09
  9
$LUNITS
 70
     2
  9
$LUPREC
 70
     4
  9
$SKETCHINC
 40
0.1
  9
$FILLETRAD
 40
0.0
  9
$AUNITS
 70
     0
  9
$AUPREC
 70
     0
  9
$MENU
  1
.
  9
$ELEVATION
 40
0.0
  9
$PELEVATION
 40
0.0
  9
$THICKNESS
 40
0.0
  9
$LIMCHECK
 70
     0
  9
$BLIPMODE
 70
     0
  9
$CHAMFERA
 40
0.0
  9
$CHAMFERB
 40
0.0
  9
$SKPOLY
 70
     0
  9
$TDCREATE
 40
2458060.468368056230247
  9
$TDUPDATE
 40
2459773.6519675930030644
  9
$TDINDWG
 40
0.5241158565
  9
$TDUSRTIMER
 40
0.5241158565
  9
$USRTIMER
 70
     1
  9
$ANGBASE
 50
0.0
  9
$ANGDIR
 70
     0
  9
$PDMODE
 70
     0
  9
$PDSIZE
 40
0.3125
  9
$PLINEWID
 40
0.0
  9
$COORDS
 70
     1
  9
$SPLFRAME
 70
     0
  9
$SPLINETYPE
 70
     6
  9
$SPLINESEGS
 70
     8
  9
$ATTDIA
 70
     1
  9
$ATTREQ
 70
     1
  9
$HANDLING
 70
     1
  9
$HANDSEED
  5
108A9
  9
$SURFTAB1
 70
     6
  9
$SURFTAB2
 70
     6
  9
$SURFTYPE
 70
     6
  9
$SURFU
 70
     6
  9
$SURFV
 70
     6
  9
$UCSNAME
  2

  9
$UCSORG
 10
0.0
 20
0.0
 30
0.0
  9
$UCSXDIR
 10
1.0
 20
0.0
 30
0.0
  9
$UCSYDIR
 10
0.0
 20
1.0
 30
0.0
  9
$PUCSNAME
  2

  9
$PUCSORG
 10
0.0
 20
0.0
 30
0.0
  9
$PUCSXDIR
 10
1.0
 20
0.0
 30
0.0
  9
$PUCSYDIR
 10
0.0
 20
1.0
 30
0.0
  9
$USERI1
 70
     0
  9
$USERI2
 70
     0
  9
$USERI3
 70
     0
  9
$USERI4
 70
     0
  9
$USERI5
 70
     0
  9
$USERR1
 40
0.0
  9
$USERR2
 40
0.0
  9
$USERR3
 40
0.0
  9
$USERR4
 40
0.0
  9
$USERR5
 40
0.0
  9
$WORLDVIEW
 70
     1
  9
$SHADEDGE
 70
     3
  9
$SHADEDIF
 70
    70
  9
$TILEMODE
 70
     1
  9
$MAXACTVP
 70
    64
  9
$PLIMCHECK
 70
     0
  9
$PEXTMIN
 10
1.0000000000000000E+20
 20
1.0000000000000000E+20
 30
1.0000000000000000E+20
  9
$PEXTMAX
 10
-1.0000000000000000E+20
 20
-1.0000000000000000E+20
 30
-1.0000000000000000E+20
  9
$PLIMMIN
 10
0.0
 20
0.0
  9
$PLIMMAX
 10
12.0
 20
9.0
  9
$UNITMODE
 70
     0
  9
$VISRETAIN
 70
     1
  9
$PLINEGEN
 70
     0
  9
$PSLTSCALE
 70
     1
  0
ENDSEC
  0
SECTION
  2
TABLES
  0
TABLE
  2
VPORT
 70
     1
  0
VPORT
  2
*ACTIVE
 70
     0
 10
0.0
 20
0.0
 11
1.0
 21
1.0
 12
745.3848429642762312
 22
88.7276733445632004
 13
0.0
 23
0.0
 14
1.0
 24
1.0
 15
0.0
 25
0.0
 16
0.0
 26
0.0
 36
17.1152628219792007
 17
3803.5440673828129547
 27
125.9952621967499056
 37
0.0
 40
0.0925379200190719
 41
2.0416666666666661
 42
50.0
 43
0.0
 44
0.0
 50
0.0
 51
0.0
 71
     0
 72
   100
 73
     1
 74
     1
 75
     0
 76
     0
 77
     0
 78
     0
  0
ENDTAB
  0
TABLE
  2
LTYPE
 70
     2
  0
LTYPE
  2
CONTINUOUS
 70
     0
  3
Solid line
 72
    65
 73
     0
 40
0.0
  0
LTYPE
  2
PHANTOM2
 70
     0
  3
___ _ _ ___ _ _ ___ _ _ ___ _ _
 72
    65
 73
     6
 40
1.25
 49
0.625
 49
-0.125
 49
0.125
 49
-0.125
 49
0.125
 49
-0.125
  0
ENDTAB
  0
TABLE
  2
LAYER
 70
     2
  0
LAYER
  2
0
 70
     0
 62
   255
  6
CONTINUOUS
  0
LAYER
  2
DEFPOINTS
 70
     0
 62
     7
  6
CONTINUOUS
  0
ENDTAB
  0
TABLE
  2
STYLE
 70
     1
  0
STYLE
  2
STANDARD
 70
     0
 40
0.0
 41
0.8
 50
0.0
 71
     0
 42
0.2
  3
txt
  4

  0
ENDTAB
  0
TABLE
  2
VIEW
 70
     0
  0
ENDTAB
  0
TABLE
  2
UCS
 70
     0
  0
ENDTAB
  0
TABLE
  2
APPID
 70
     9
  0
APPID
  2
ACAD
 70
     0
  0
APPID
  2
ACAD_MLEADERVER
 70
     0
  0
APPID
  2
ACAD_EXEMPT_FROM_CAD_STANDARDS
 70
     0
  0
APPID
  2
ACAD_NAV_VCDISPLAY
 70
     0
  0
APPID
  2
ACAECLAYERSTANDARD
 70
     0
  0
APPID
  2
ACCMTRANSPARENCY
 70
     0
  0
APPID
  2
ACAD_DSTYLE_DIMJAG
 70
     0
  0
APPID
  2
ACAD_DSTYLE_DIMTALN
 70
     0
  0
APPID
  2
ACDBATTR
 70
     0
  0
ENDTAB
  0
TABLE
  2
DIMSTYLE
 70
     1
  0
DIMSTYLE
  2
STANDARD
 70
     0
  3

  4

  5

  6

  7

 40
1.0
 41
0.1875
 42
0.0625
 43
0.38
 44
0.125
 45
0.0
 46
0.0
 47
0.01
 48
0.01
140
0.15625
141
0.09
142
0.0
143
25.3999999999999986
144
1.0
145
0.0
146
1.0
147
0.09
 71
     1
 72
     0
 73
     1
 74
     1
 75
     0
 76
     0
 77
     0
 78
     4
170
     0
171
     2
172
     0
173
     0
174
     0
175
     0
176
     0
177
     0
178
     0
  0
ENDTAB
  0
ENDSEC
  0
SECTION
  2
BLOCKS
  0
BLOCK
  8
0
  2
$MODEL_SPACE
 70
     0
 10
0.0
 20
0.0
 30
0.0
  3
$MODEL_SPACE
  1

  0
ENDBLK
  5
21
  8
0
  0
BLOCK
 67
     1
  8
0
  2
$PAPER_SPACE
 70
     0
 10
0.0
 20
0.0
 30
0.0
  3
$PAPER_SPACE
  1

  0
ENDBLK
  5
1D
 67
     1
  8
0
  0
ENDSEC
  0
SECTION
  2
ENTITIES
  0
ATTDEF
  5
3930
  8
DEFPOINTS
 10
4548.9354696377258733
 20
214.7199554824736083
 30
0.0
 40
0.001
  1
P70313-AG
  3

  2
MODELNUMBER
 70
     0
1001
ACDBATTR
1070
     0
1070
     1
  0
ATTDEF
  5
3931
  8
DEFPOINTS
 10
4548.9354696377258733
 20
214.7182888158068863
 30
0.0
 40
0.001
  1

  3

  2
TRADENAME
 70
     0
1001
ACDBATTR
1070
     0
1070
     1
  0
ATTDEF
  5
3932
  8
DEFPOINTS
 10
4548.9354696377258733
 20
214.7166221491401927
 30
0.0
 40
0.001
  1
TOILET SEAT
  3

  2
PRODUCT
 70
     0
1001
ACDBATTR
1070
     0
1070
     1
  0
LINE
  5
1052F
  8
0
 10
4544.1101687731261336
 20
214.7205887335950081
 30
0.0
 11
4544.4158404165145839
 21
214.7205887335950081
 31
0.0
  0
LINE
  5
10530
  8
0
 10
4545.5578887034298532
 20
214.7205887335950081
 30
0.0
 11
4546.8346693013172626
 21
214.7205887335950081
 31
0.0
  0
LINE
  5
10531
  8
0
 10
4545.1362791338679017
 20
216.8178564650951046
 30
0.0
 11
4552.7562791342688797
 21
216.8178564650951046
 31
0.0
  0
LINE
  5
10532
  8
0
 10
4541.9645440036947548
 20
215.7776757770255927
 30
0.0
 11
4555.9283639080185822
 21
215.7776590967469019
 31
0.0
  0
LINE
  5
10533
  8
0
 10
4542.1509609321119569
 20
216.4806675537950014
 30
0.0
 11
4555.741597336022096
 21
216.4806675537950014
 31
0.0
  0
LINE
  5
10534
  8
0
 10
4541.8262727221672321
 20
215.8406674325950974
 30
0.0
 11
4556.0662855459686398
 21
215.8406674325950974
 31
0.0
  0
LINE
  5
10535
  8
0
 10
4541.9539503951600636
 20
214.961692196895001
 30
0.0
 11
4555.9386078729767178
 21
214.961692196895001
 31
0.0
  0
LINE
  5
10536
  8
0
 10
4541.8262727221672321
 20
215.0249892853950939
 30
0.0
 11
4556.0662855459686398
 21
215.0249892853950939
 31
0.0
  0
ARC
  5
10537
  8
0
 10
4791.1675430294653779
 20
207.1265339718457028
 30
0.0
 40
249.4934973109089071
 50
177.9754273081694009
 51
177.9984061930601058
  0
ARC
  5
10538
  8
0
 10
4543.0764037182980246
 20
215.8965188120531877
 30
0.0
 40
1.2473975680651841
 50
161.2713606079294948
 51
177.9717580375815089
  0
ARC
  5
10539
  8
0
 10
4542.1512055310467986
 20
216.2101966352605871
 30
0.0
 40
0.2704710291353505
 50
90.0518151188689728
 51
161.2713567917305113
  0
ARC
  5
1053A
  8
0
 10
4542.149743953228608
 20
217.3798005299763929
 30
0.0
 40
0.8991337997730305
 50
270.0775499432082825
 51
279.6484360473176025
  0
ARC
  5
1053B
  8
0
 10
4590.2805110431918365
 20
-125.4696456981156985
 30
0.0
 40
345.3126144155920088
 50
97.6383326040853916
 51
97.9869046005158566
  0
ARC
  5
1053C
  8
0
 10
4545.129023132995826
 20
209.6216882666641084
 30
0.0
 40
7.1961718565954964
 50
89.942227853245214
 51
95.9607094384866741
  0
ARC
  5
1053D
  8
0
 10
4541.9581447878326799
 20
215.9081400413735992
 30
0.0
 40
0.1306211094559933
 50
211.1012562465739961
 51
272.8080827493166112
  0
LINE
  5
1053E
  8
0
 10
4542.1276148787192142
 20
215.6347753481315976
 30
0.0
 11
4553.8386876556151037
 21
215.6347753481315976
 31
0.0
  0
ARC
  5
1053F
  8
0
 10
4541.9600493408461261
 20
215.0953048549359039
 30
0.0
 40
0.1337517832674939
 50
211.7165154799940865
 51
267.3864643142413229
  0
ARC
  5
10540
  8
0
 10
4546.7827311771579843
 20
214.8523128535057083
 30
0.0
 40
4.9594654516563539
 50
176.8482238487981135
 51
178.0046981068167895
  0
ARC
  5
10541
  8
0
 10
4543.0793319137692379
 20
215.056238399075994
 30
0.0
 40
1.2504559164567211
 50
161.6397531471465925
 51
176.8482238487981135
  0
ARC
  5
10542
  8
0
 10
4542.1496139651862904
 20
215.3647981196749015
 30
0.0
 40
0.2708720430213446
 50
94.658452691020571
 51
161.6397531471450009
  0
ARC
  5
10543
  8
0
 10
4544.9600594022740552
 20
157.7705574929165095
 30
0.0
 40
57.9335002392813578
 50
91.039670385871176
 51
92.8023827316062437
  0
ARC
  5
10544
  8
0
 10
4544.135647263276951
 20
216.0390589664565937
 30
0.0
 40
0.4124714107123578
 50
219.32403984448041
 51
258.5825221428456189
  0
ARC
  5
10545
  8
0
 10
4544.2613717917101894
 20
216.0399508739427858
 30
0.0
 40
0.4134538969829303
 50
281.4597057292749014
 51
320.6275372139483011
  0
LINE
  5
10546
  8
0
 10
4544.9962784378676588
 20
215.6888749787312065
 30
0.0
 11
4547.3962796788700871
 21
215.6866590276349882
 31
0.0
  0
LINE
  5
10547
  8
0
 10
4544.9962784378676588
 20
215.777666540094998
 30
0.0
 11
4544.9962784378676588
 21
215.6888749787312065
 31
0.0
  0
LINE
  5
10548
  8
0
 10
4545.7867515371681293
 20
215.7776674348870074
 30
0.0
 11
4545.7867515371681293
 21
215.6881451250540067
 31
0.0
  0
LINE
  5
10549
  8
0
 10
4545.8322791340669937
 20
215.7776674348654922
 30
0.0
 11
4545.8322791340669937
 21
215.6881030888555983
 31
0.0
  0
LINE
  5
1054A
  8
0
 10
4545.818279134068689
 20
215.777667434872086
 30
0.0
 11
4545.818279134068689
 21
215.6881160152304062
 31
0.0
  0
LINE
  5
1054B
  8
0
 10
4547.3962796788700871
 20
215.7776674341270109
 30
0.0
 11
4547.3962796788700871
 21
215.6866590276349882
 31
0.0
  0
LINE
  5
1054C
  8
0
 10
4546.6038066931678259
 20
215.7776688764949995
 30
0.0
 11
4546.6038066931678259
 21
215.6873907278321951
 31
0.0
  0
LINE
  5
1054D
  8
0
 10
4546.5742791340680924
 20
215.7776674345151093
 30
0.0
 11
4546.5742791340680924
 21
215.6874179909960105
 31
0.0
  0
LINE
  5
1054E
  8
0
 10
4546.5602791340679687
 20
215.7776688505950915
 30
0.0
 11
4546.5602791340679687
 21
215.6874309173707047
 31
0.0
  0
LINE
  5
1054F
  8
0
 10
4543.4288184914348676
 20
214.961692196895001
 30
0.0
 11
4543.4323087642424071
 21
214.9158869633135964
 31
0.0
  0
ARC
  5
10550
  8
0
 10
4543.4443473776682367
 20
214.9168042830563081
 30
0.0
 40
0.0120735118645827
 50
184.3574105883407981
 51
222.921010992444792
  0
ARC
  5
10551
  8
0
 10
4543.7991743256297923
 20
215.2467723923452922
 30
0.0
 40
0.4966156835564596
 50
222.921010992444792
 51
251.8313167067838094
  0
ARC
  5
10552
  8
0
 10
4543.9155591486560297
 20
215.6462671092619132
 30
0.0
 40
0.9125904366269516
 50
252.7094760666838056
 51
264.871354015875113
  0
ARC
  5
10553
  8
0
 10
4544.6974137879069531
 20
226.6950374434078981
 30
0.0
 40
11.9888397525082997
 50
265.8699970720928718
 51
267.1923780063456775
  0
LINE
  5
10554
  8
0
 10
4545.0317397772350887
 20
214.961692196895001
 30
0.0
 11
4545.0281708616694232
 21
214.9151402149950059
 31
0.0
  0
ARC
  5
10555
  8
0
 10
4545.0180916916369824
 20
214.9159129362705016
 30
0.0
 40
0.0101087470384198
 50
313.5167829115767972
 51
355.6159850372271762
  0
ARC
  5
10556
  8
0
 10
4544.0978651448003802
 20
215.885060684996489
 30
0.0
 40
1.3465458972123301
 50
308.8095105175044068
 51
313.5167829115767972
  0
ARC
  5
10557
  8
0
 10
4544.6548229673717287
 20
215.2636113569454039
 30
0.0
 40
0.5151546625319255
 50
282.8427195995229795
 51
303.8520628375715091
  0
ARC
  5
10558
  8
0
 10
4543.7004284068862034
 20
222.4790686875049914
 30
0.0
 40
7.7913943257124263
 50
275.2683646831143278
 51
277.885271919595823
  0
LINE
  5
10559
  8
0
 10
4543.5172934009242454
 20
214.8368786951805873
 30
0.0
 11
4543.5187919031559431
 21
214.8368787057368081
 31
0.0
  0
LINE
  5
1055A
  8
0
 10
4544.943158837183546
 20
214.8368887396960929
 30
0.0
 11
4552.9493294998219426
 21
214.83694513920139
 31
0.0
  0
LINE
  5
1055B
  8
0
 10
4545.5487426631007111
 20
214.8369645497730005
 30
0.0
 11
4545.5463055460213582
 21
214.7326412856286879
 31
0.0
  0
ARC
  5
1055C
  8
0
 10
4545.5580813636106541
 20
214.7323661883488057
 30
0.0
 40
0.0117790304534325
 50
178.6617450061129091
 51
269.0628169750269194
  0
LINE
  5
1055D
  8
0
 10
4546.8438182483496348
 20
214.8369021288999079
 30
0.0
 11
4546.8462527221163327
 21
214.7326412856286879
 31
0.0
  0
ARC
  5
1055E
  8
0
 10
4546.834476772832204
 20
214.7323663191245942
 30
0.0
 40
0.01177915905836
 50
270.936532123726181
 51
1.3376040921512049
  0
LINE
  5
1055F
  8
0
 10
4545.9532676575527148
 20
214.8368958554121946
 30
0.0
 11
4545.9532676575527148
 21
214.7205886924949993
 31
0.0
  0
LINE
  5
10560
  8
0
 10
4546.4392898501500895
 20
214.8368992791978087
 30
0.0
 11
4546.4392898501500895
 21
214.7205886924949993
 31
0.0
  0
LINE
  5
10561
  8
0
 10
4553.7823894950106478
 20
214.7205887335950081
 30
0.0
 11
4553.476717851621288
 21
214.7205887335950081
 31
0.0
  0
LINE
  5
10562
  8
0
 10
4552.3346695647051092
 20
214.7205887335950081
 30
0.0
 11
4551.0578889668186093
 21
214.7205887335950081
 31
0.0
  0
ARC
  5
10563
  8
0
 10
4306.7250148980392623
 20
207.1265339598448065
 30
0.0
 40
249.4934976517515111
 50
2.001593806961091
 51
2.0245726918207958
  0
ARC
  5
10564
  8
0
 10
4554.8161545498378473
 20
215.8965188120531877
 30
0.0
 40
1.2473975680651841
 50
2.028241962418444
 51
18.7286393920704484
  0
ARC
  5
10565
  8
0
 10
4555.7413527370890733
 20
216.2101966352605871
 30
0.0
 40
0.2704710291353505
 50
18.7286432082694994
 51
89.948184881131013
  0
ARC
  5
10566
  8
0
 10
4555.7428143149081734
 20
217.3798005299763929
 30
0.0
 40
0.8991337997730305
 50
260.3515639526823975
 51
269.9224500567916039
  0
ARC
  5
10567
  8
0
 10
4507.6120472249440354
 20
-125.4696456981156985
 30
0.0
 40
345.3126144155920088
 50
82.0130953994841434
 51
82.3616673959145942
  0
ARC
  5
10568
  8
0
 10
4552.7635351351409554
 20
209.6216882666641084
 30
0.0
 40
7.1961718565954964
 50
84.0392905615133543
 51
90.0577721467547718
  0
ARC
  5
10569
  8
0
 10
4555.934413480303192
 20
215.9081400413735992
 30
0.0
 40
0.1306211094559933
 50
267.1919172506832751
 51
328.8987437534260039
  0
ARC
  5
1056A
  8
0
 10
4555.9325089272897458
 20
215.0953048549359039
 30
0.0
 40
0.1337517832674939
 50
272.6135356857586771
 51
328.2834845200059135
  0
ARC
  5
1056B
  8
0
 10
4551.1098270909778876
 20
214.8523128535057083
 30
0.0
 40
4.9594654516563539
 50
1.995301893183133
 51
3.1517761512019349
  0
ARC
  5
1056C
  8
0
 10
4554.8132263543657245
 20
215.056238399075994
 30
0.0
 40
1.2504559164567211
 50
3.1517761512019349
 51
18.3602468528534004
  0
ARC
  5
1056D
  8
0
 10
4555.7429443029495815
 20
215.3647981196749015
 30
0.0
 40
0.2708720430213446
 50
18.3602468528549387
 51
85.341547308979429
  0
ARC
  5
1056E
  8
0
 10
4552.9324988658599977
 20
157.7705574929165095
 30
0.0
 40
57.9335002392813578
 50
87.1976172683937421
 51
88.960329614128824
  0
ARC
  5
1056F
  8
0
 10
4553.7569110048589209
 20
216.0390589664565937
 30
0.0
 40
0.4124714107123578
 50
281.4174778571543811
 51
320.67596015551959
  0
ARC
  5
10570
  8
0
 10
4553.6311864764256825
 20
216.0399508739427858
 30
0.0
 40
0.4134538969829303
 50
219.3724627860516136
 51
258.5402942707250986
  0
LINE
  5
10571
  8
0
 10
4552.8962798302682131
 20
215.6888749787312065
 30
0.0
 11
4550.4962785892657848
 21
215.6866590276349882
 31
0.0
  0
LINE
  5
10572
  8
0
 10
4552.8962798302682131
 20
215.777666540094998
 30
0.0
 11
4552.8962798302682131
 21
215.6888749787312065
 31
0.0
  0
LINE
  5
10573
  8
0
 10
4552.1058067309686521
 20
215.7776674348870074
 30
0.0
 11
4552.1058067309686521
 21
215.6881451250540067
 31
0.0
  0
LINE
  5
10574
  8
0
 10
4552.0602791340670592
 20
215.7776674348654922
 30
0.0
 11
4552.0602791340670592
 21
215.6881030888555983
 31
0.0
  0
LINE
  5
10575
  8
0
 10
4552.0742791340680924
 20
215.777667434872086
 30
0.0
 11
4552.0742791340680924
 21
215.6881160152304062
 31
0.0
  0
LINE
  5
10576
  8
0
 10
4550.4962785892657848
 20
215.7776674341270109
 30
0.0
 11
4550.4962785892657848
 21
215.6866590276349882
 31
0.0
  0
LINE
  5
10577
  8
0
 10
4551.288751574968046
 20
215.7776688764949995
 30
0.0
 11
4551.288751574968046
 21
215.6873907278321951
 31
0.0
  0
LINE
  5
10578
  8
0
 10
4551.3182791340677795
 20
215.7776674345151093
 30
0.0
 11
4551.3182791340677795
 21
215.6874179909960105
 31
0.0
  0
LINE
  5
10579
  8
0
 10
4551.3322791340679032
 20
215.7776688505950915
 30
0.0
 11
4551.3322791340679032
 21
215.6874309173707047
 31
0.0
  0
LINE
  5
1057A
  8
0
 10
4554.4637397767019138
 20
214.961692196895001
 30
0.0
 11
4554.4602495038943744
 21
214.9158869633135964
 31
0.0
  0
ARC
  5
1057B
  8
0
 10
4554.4482108904667257
 20
214.9168042830563081
 30
0.0
 40
0.0120735118645827
 50
317.078989007555208
 51
355.6425894116591166
  0
ARC
  5
1057C
  8
0
 10
4554.0933839425051701
 20
215.2467723923452922
 30
0.0
 40
0.4966156835564596
 50
288.1686832932160769
 51
317.078989007555208
  0
ARC
  5
1057D
  8
0
 10
4553.9769991194798422
 20
215.6462671092619132
 30
0.0
 40
0.9125904366269516
 50
275.128645984124887
 51
287.2905239333161944
  0
ARC
  5
1057E
  8
0
 10
4553.1951444802298283
 20
226.6950374434078981
 30
0.0
 40
11.9888397525082997
 50
272.8076219936543225
 51
274.1300029279071282
  0
LINE
  5
1057F
  8
0
 10
4552.8608184909007832
 20
214.961692196895001
 30
0.0
 11
4552.8643874064682677
 21
214.9151402149950059
 31
0.0
  0
ARC
  5
10580
  8
0
 10
4552.874466576499799
 20
214.9159129362705016
 30
0.0
 40
0.0101087470384198
 50
184.3840149627727101
 51
226.4832170884230891
  0
ARC
  5
10581
  8
0
 10
4553.7946931233364012
 20
215.885060684996489
 30
0.0
 40
1.3465458972123301
 50
226.4832170884230891
 51
231.1904894824955079
  0
ARC
  5
10582
  8
0
 10
4553.2377353007632337
 20
215.2636113569454039
 30
0.0
 40
0.5151546625319255
 50
236.1479371624284056
 51
257.1572804004769068
  0
ARC
  5
10583
  8
0
 10
4554.1921298612496685
 20
222.4790686875049914
 30
0.0
 40
7.7913943257124263
 50
262.114728080404177
 51
264.7316353168856722
  0
LINE
  5
10584
  8
0
 10
4554.3752648672116266
 20
214.8368786951805873
 30
0.0
 11
4554.3737663649799288
 21
214.8368787057368081
 31
0.0
  0
LINE
  5
10585
  8
0
 10
4552.3438156050351608
 20
214.8369645497730005
 30
0.0
 11
4552.3462527221163327
 21
214.7326412856286879
 31
0.0
  0
ARC
  5
10586
  8
0
 10
4552.3344769045252178
 20
214.7323661883488057
 30
0.0
 40
0.0117790304534325
 50
270.9371830249731943
 51
1.338254993887116
  0
LINE
  5
10587
  8
0
 10
4551.0487400197862371
 20
214.8369021288999079
 30
0.0
 11
4551.0463055460204487
 21
214.7326412856286879
 31
0.0
  0
ARC
  5
10588
  8
0
 10
4551.0580814953036679
 20
214.7323663191245942
 30
0.0
 40
0.01177915905836
 50
178.6623959078488042
 51
269.063467876273819
  0
LINE
  5
10589
  8
0
 10
4551.9392906105822476
 20
214.8368958554121946
 30
0.0
 11
4551.9392906105822476
 21
214.7205886924949993
 31
0.0
  0
LINE
  5
1058A
  8
0
 10
4551.4532684179857824
 20
214.8368992791978087
 30
0.0
 11
4551.4532684179857824
 21
214.7205886924949993
 31
0.0
  0
ENDSEC
  0
EOF
