  0
SECTION
  2
HEADER
  9
$ACADVER
  1
AC1009
  9
$INSBASE
 10
4577.9428755795561301
 20
214.8663485407793132
 30
0.0
  9
$EXTMIN
 10
4558.6679164095048691
 20
214.861647854074306
 30
0.0
  9
$EXTMAX
 10
4577.9429051816241554
 20
216.963616272279296
 30
0.0
  9
$LIMMIN
 10
0.0
 20
0.0
  9
$LIMMAX
 10
11.6929133858000007
 20
8.2677165353999982
  9
$ORTHOMODE
 70
     0
  9
$REGENMODE
 70
     1
  9
$FILLMODE
 70
     1
  9
$QTEXTMODE
 70
     0
  9
$MIRRTEXT
 70
     0
  9
$DRAGMODE
 70
     2
  9
$LTSCALE
 40
0.6431102362
  9
$OSMODE
 70
  4095
  9
$ATTMODE
 70
     1
  9
$TEXTSIZE
 40
0.2
  9
$TRACEWID
 40
0.05
  9
$TEXTSTYLE
  7
STANDARD
  9
$CLAYER
  8
0
  9
$CELTYPE
  6
BYLAYER
  9
$CECOLOR
 62
   256
  9
$DIMSCALE
 40
1.0
  9
$DIMASZ
 40
0.1875
  9
$DIMEXO
 40
0.0625
  9
$DIMDLI
 40
0.4443307087
  9
$DIMRND
 40
0.0
  9
$DIMDLE
 40
0.0
  9
$DIMEXE
 40
0.125
  9
$DIMTP
 40
0.01
  9
$DIMTM
 40
0.01
  9
$DIMTXT
 40
2.0
  9
$DIMCEN
 40
0.1052362205
  9
$DIMTSZ
 40
0.0
  9
$DIMTOL
 70
     1
  9
$DIMLIM
 70
     0
  9
$DIMTIH
 70
     1
  9
$DIMTOH
 70
     1
  9
$DIMSE1
 70
     0
  9
$DIMSE2
 70
     0
  9
$DIMTAD
 70
     0
  9
$DIMZIN
 70
     0
  9
$DIMBLK
  1

  9
$DIMASO
 70
     1
  9
$DIMSHO
 70
     1
  9
$DIMPOST
  1
\X
  9
$DIMAPOST
  1

  9
$DIMALT
 70
     1
  9
$DIMALTD
 70
     2
  9
$DIMALTF
 40
25.3999999999999986
  9
$DIMLFAC
 40
1.0
  9
$DIMTOFL
 70
     0
  9
$DIMTVP
 40
0.0
  9
$DIMTIX
 70
     0
  9
$DIMSOXD
 70
     0
  9
$DIMSAH
 70
     0
  9
$DIMBLK1
  1

  9
$DIMBLK2
  1

  9
$DIMSTYLE
  2
STANDARD
  9
$DIMCLRD
 70
     0
  9
$DIMCLRE
 70
     0
  9
$DIMCLRT
 70
     0
  9
$DIMTFAC
 40
1.0
  9
$DIMGAP
 40
0.09
  9
$LUNITS
 70
     2
  9
$LUPREC
 70
     4
  9
$SKETCHINC
 40
0.1
  9
$FILLETRAD
 40
0.0
  9
$AUNITS
 70
     0
  9
$AUPREC
 70
     0
  9
$MENU
  1
.
  9
$ELEVATION
 40
0.0
  9
$PELEVATION
 40
0.0
  9
$THICKNESS
 40
0.0
  9
$LIMCHECK
 70
     0
  9
$BLIPMODE
 70
     0
  9
$CHAMFERA
 40
0.0
  9
$CHAMFERB
 40
0.0
  9
$SKPOLY
 70
     0
  9
$TDCREATE
 40
2458060.468368056230247
  9
$TDUPDATE
 40
2459773.6263078711926937
  9
$TDINDWG
 40
0.5215695602
  9
$TDUSRTIMER
 40
0.5215695602
  9
$USRTIMER
 70
     1
  9
$ANGBASE
 50
0.0
  9
$ANGDIR
 70
     0
  9
$PDMODE
 70
     0
  9
$PDSIZE
 40
0.3125
  9
$PLINEWID
 40
0.0
  9
$COORDS
 70
     1
  9
$SPLFRAME
 70
     0
  9
$SPLINETYPE
 70
     6
  9
$SPLINESEGS
 70
     8
  9
$ATTDIA
 70
     1
  9
$ATTREQ
 70
     1
  9
$HANDLING
 70
     1
  9
$HANDSEED
  5
10875
  9
$SURFTAB1
 70
     6
  9
$SURFTAB2
 70
     6
  9
$SURFTYPE
 70
     6
  9
$SURFU
 70
     6
  9
$SURFV
 70
     6
  9
$UCSNAME
  2

  9
$UCSORG
 10
0.0
 20
0.0
 30
0.0
  9
$UCSXDIR
 10
1.0
 20
0.0
 30
0.0
  9
$UCSYDIR
 10
0.0
 20
1.0
 30
0.0
  9
$PUCSNAME
  2

  9
$PUCSORG
 10
0.0
 20
0.0
 30
0.0
  9
$PUCSXDIR
 10
1.0
 20
0.0
 30
0.0
  9
$PUCSYDIR
 10
0.0
 20
1.0
 30
0.0
  9
$USERI1
 70
     0
  9
$USERI2
 70
     0
  9
$USERI3
 70
     0
  9
$USERI4
 70
     0
  9
$USERI5
 70
     0
  9
$USERR1
 40
0.0
  9
$USERR2
 40
0.0
  9
$USERR3
 40
0.0
  9
$USERR4
 40
0.0
  9
$USERR5
 40
0.0
  9
$WORLDVIEW
 70
     1
  9
$SHADEDGE
 70
     3
  9
$SHADEDIF
 70
    70
  9
$TILEMODE
 70
     1
  9
$MAXACTVP
 70
    64
  9
$PLIMCHECK
 70
     0
  9
$PEXTMIN
 10
1.0000000000000000E+20
 20
1.0000000000000000E+20
 30
1.0000000000000000E+20
  9
$PEXTMAX
 10
-1.0000000000000000E+20
 20
-1.0000000000000000E+20
 30
-1.0000000000000000E+20
  9
$PLIMMIN
 10
0.0
 20
0.0
  9
$PLIMMAX
 10
12.0
 20
9.0
  9
$UNITMODE
 70
     0
  9
$VISRETAIN
 70
     1
  9
$PLINEGEN
 70
     0
  9
$PSLTSCALE
 70
     1
  0
ENDSEC
  0
SECTION
  2
TABLES
  0
TABLE
  2
VPORT
 70
     1
  0
VPORT
  2
*ACTIVE
 70
     0
 10
0.0
 20
0.0
 11
1.0
 21
1.0
 12
758.2510873656913191
 22
83.6720829844280161
 13
0.0
 23
0.0
 14
1.0
 24
1.0
 15
0.0
 25
0.0
 16
0.0
 26
0.0
 36
17.1152628219792007
 17
3803.5440673828129547
 27
125.9952621967499056
 37
0.0
 40
64.6955311614493098
 41
2.0416666666666661
 42
50.0
 43
0.0
 44
0.0
 50
0.0
 51
0.0
 71
     0
 72
   100
 73
     1
 74
     1
 75
     0
 76
     0
 77
     0
 78
     0
  0
ENDTAB
  0
TABLE
  2
LTYPE
 70
     2
  0
LTYPE
  2
CONTINUOUS
 70
     0
  3
Solid line
 72
    65
 73
     0
 40
0.0
  0
LTYPE
  2
PHANTOM2
 70
     0
  3
___ _ _ ___ _ _ ___ _ _ ___ _ _
 72
    65
 73
     6
 40
1.25
 49
0.625
 49
-0.125
 49
0.125
 49
-0.125
 49
0.125
 49
-0.125
  0
ENDTAB
  0
TABLE
  2
LAYER
 70
     2
  0
LAYER
  2
0
 70
     0
 62
   255
  6
CONTINUOUS
  0
LAYER
  2
DEFPOINTS
 70
     0
 62
     7
  6
CONTINUOUS
  0
ENDTAB
  0
TABLE
  2
STYLE
 70
     1
  0
STYLE
  2
STANDARD
 70
     0
 40
0.0
 41
0.8
 50
0.0
 71
     0
 42
0.2
  3
txt
  4

  0
ENDTAB
  0
TABLE
  2
VIEW
 70
     0
  0
ENDTAB
  0
TABLE
  2
UCS
 70
     0
  0
ENDTAB
  0
TABLE
  2
APPID
 70
     9
  0
APPID
  2
ACAD
 70
     0
  0
APPID
  2
ACAD_MLEADERVER
 70
     0
  0
APPID
  2
ACAD_EXEMPT_FROM_CAD_STANDARDS
 70
     0
  0
APPID
  2
ACAD_NAV_VCDISPLAY
 70
     0
  0
APPID
  2
ACAECLAYERSTANDARD
 70
     0
  0
APPID
  2
ACCMTRANSPARENCY
 70
     0
  0
APPID
  2
ACAD_DSTYLE_DIMJAG
 70
     0
  0
APPID
  2
ACAD_DSTYLE_DIMTALN
 70
     0
  0
APPID
  2
ACDBATTR
 70
     0
  0
ENDTAB
  0
TABLE
  2
DIMSTYLE
 70
     1
  0
DIMSTYLE
  2
STANDARD
 70
     0
  3

  4

  5

  6

  7

 40
1.0
 41
0.1875
 42
0.0625
 43
0.38
 44
0.125
 45
0.0
 46
0.0
 47
0.01
 48
0.01
140
0.15625
141
0.09
142
0.0
143
25.3999999999999986
144
1.0
145
0.0
146
1.0
147
0.09
 71
     1
 72
     0
 73
     1
 74
     1
 75
     0
 76
     0
 77
     0
 78
     4
170
     0
171
     2
172
     0
173
     0
174
     0
175
     0
176
     0
177
     0
178
     0
  0
ENDTAB
  0
ENDSEC
  0
SECTION
  2
BLOCKS
  0
BLOCK
  8
0
  2
$MODEL_SPACE
 70
     0
 10
0.0
 20
0.0
 30
0.0
  3
$MODEL_SPACE
  1

  0
ENDBLK
  5
21
  8
0
  0
BLOCK
 67
     1
  8
0
  2
$PAPER_SPACE
 70
     0
 10
0.0
 20
0.0
 30
0.0
  3
$PAPER_SPACE
  1

  0
ENDBLK
  5
1D
 67
     1
  8
0
  0
ENDSEC
  0
SECTION
  2
ENTITIES
  0
ATTDEF
  5
3930
  8
DEFPOINTS
 10
4577.9322385149562251
 20
214.8649811874076079
 30
0.0
 40
0.001
  1
P70313-AD
  3

  2
MODELNUMBER
 70
     0
1001
ACDBATTR
1070
     0
1070
     1
  0
ATTDEF
  5
3931
  8
DEFPOINTS
 10
4577.9322385149562251
 20
214.8633145207409996
 30
0.0
 40
0.001
  1

  3

  2
TRADENAME
 70
     0
1001
ACDBATTR
1070
     0
1070
     1
  0
ATTDEF
  5
3932
  8
DEFPOINTS
 10
4577.9322385149562251
 20
214.861647854074306
 30
0.0
 40
0.001
  1
TOILET SEAT
  3

  2
PRODUCT
 70
     0
1001
ACDBATTR
1070
     0
1070
     1
  0
LINE
  5
1064C
  8
0
 10
4575.9298634002843755
 20
214.8663485407793132
 30
0.0
 11
4577.9316490801447799
 21
214.8663485407793132
 31
0.0
  0
LINE
  5
1064D
  8
0
 10
4569.7041527078408762
 20
215.9234272442793099
 30
0.0
 11
4569.7995150949409435
 21
215.9234272442793099
 31
0.0
  0
LINE
  5
1064E
  8
0
 10
4558.9934881498838877
 20
216.6264273609793065
 30
0.0
 11
4569.729898310462886
 21
216.6264273609793065
 31
0.0
  0
LINE
  5
1064F
  8
0
 10
4558.6688948072633139
 20
215.9864272397792888
 30
0.0
 11
4569.728687327163243
 21
215.9864272397792888
 31
0.0
  0
LINE
  5
10650
  8
0
 10
4558.7992139463640342
 20
215.1074520040793061
 30
0.0
 11
4570.1268012280543189
 21
215.1074520040793061
 31
0.0
  0
LINE
  5
10651
  8
0
 10
4558.6679164095057786
 20
215.1707490925793138
 30
0.0
 11
4569.0728050915959102
 21
215.1707490925793138
 31
0.0
  0
LINE
  5
10652
  8
0
 10
4558.9903754249853591
 20
215.7805351553159028
 30
0.0
 11
4568.8583349893433478
 21
215.7805351553159028
 31
0.0
  0
LINE
  5
10653
  8
0
 10
4561.0734283945139396
 20
214.9827684436876893
 30
0.0
 11
4563.3945263695050016
 21
214.9827847946729094
 31
0.0
  0
LINE
  5
10654
  8
0
 10
4564.4121673979361731
 20
214.9827919634496993
 30
0.0
 11
4572.9749123650872207
 21
214.9828522837451885
 31
0.0
  0
ARC
  5
10655
  8
0
 10
4558.8007559416892036
 20
215.2400168739632988
 30
0.0
 40
0.132573837829829
 50
211.4990579303735103
 51
269.3335652208414217
  0
ARC
  5
10656
  8
0
 10
4563.555095745797189
 20
215.0005427792397086
 30
0.0
 40
4.8901423347577184
 50
176.8360022778595919
 51
178.0053599974937981
  0
ARC
  5
10657
  8
0
 10
4559.9243693044336396
 20
215.2012434532252882
 30
0.0
 40
1.2538729205703549
 50
161.6777315457163979
 51
176.8360022778595919
  0
ARC
  5
10658
  8
0
 10
4558.9903754249853591
 20
215.5105351553158926
 30
0.0
 40
0.27
 50
90.0
 51
161.6777315457163979
  0
ARC
  5
10659
  8
0
 10
4558.8003520474376273
 20
216.0534763320015941
 30
0.0
 40
0.1300481189474623
 50
211.0323082486303008
 51
269.4258738912179183
  0
ARC
  5
1065A
  8
0
 10
4676.505014579546696
 20
211.8965298078591104
 30
0.0
 40
117.9070752075192985
 50
177.9635323108863929
 51
178.0121559365450992
  0
ARC
  5
1065B
  8
0
 10
4559.9202426646106687
 20
216.0420559252135888
 30
0.0
 40
1.248623180899562
 50
161.2621597724117919
 51
177.9635323108863929
  0
ARC
  5
1065C
  8
0
 10
4558.9934881498838877
 20
216.3564273609792963
 30
0.0
 40
0.27
 50
90.0
 51
161.2621597724086939
  0
ARC
  5
1065D
  8
0
 10
4574.9770781237630217
 20
216.4115964640793948
 30
0.0
 40
1.25013134859982
 50
2.0551204872984599
 51
16.7225069201340091
  0
ARC
  5
1065E
  8
0
 10
4575.915759266797977
 20
216.6936162722792858
 30
0.0
 40
0.27
 50
16.7225069201433705
 51
96.2401664134733039
  0
ARC
  5
1065F
  8
0
 10
4569.729898310462886
 20
273.2660273609815249
 30
0.0
 40
56.6396000000000015
 50
270.0
 51
276.2401664134732755
  0
ARC
  5
10660
  8
0
 10
5521.3123904866833982
 20
249.384466190127597
 30
0.0
 40
945.6594392256374704
 50
181.9954531460352882
 51
182.0015156566612973
  0
ARC
  5
10661
  8
0
 10
4569.7299265470956016
 20
273.265462168855322
 30
0.0
 40
57.2790349424810472
 50
269.9987604177989056
 51
276.5159045279592078
  0
ARC
  5
10662
  8
0
 10
4569.7607372933352963
 20
270.5132296758546886
 30
0.0
 40
54.5898162044564685
 50
269.9593066671229167
 51
276.6840201352711119
  0
ARC
  5
10663
  8
0
 10
4576.0985772625690515
 20
216.4232961519907121
 30
0.0
 40
0.1298425440437186
 50
277.1106536172077881
 51
327.7301611581727911
  0
ARC
  5
10664
  8
0
 10
4567.1553890072245849
 20
691.7882245337749509
 30
0.0
 40
476.0107355642704192
 50
270.2049782039533738
 51
270.9374204854447044
  0
ARC
  5
10665
  8
0
 10
4575.0225176265130358
 20
211.0187059275374111
 30
0.0
 40
4.8231461042036381
 50
86.1028141857845668
 51
90.9436092448713254
  0
ARC
  5
10666
  8
0
 10
4575.2874573512626739
 20
215.468124426902591
 30
0.0
 40
0.3679853479519823
 50
3.7184743621477918
 51
80.162548931323272
  0
ARC
  5
10667
  8
0
 10
4570.5747494881761668
 20
215.0715904988379918
 30
0.0
 40
5.0972843407939301
 50
2.0114056084682801
 51
4.7308515458646632
  0
ARC
  5
10668
  8
0
 10
4568.6426140572939403
 20
523.7580356165725561
 30
0.0
 40
308.5875863811879753
 50
270.0798740445720227
 51
271.3046897272254228
  0
ARC
  5
10669
  8
0
 10
4568.0650837393550319
 20
537.6951511645612527
 30
0.0
 40
322.5942875015874733
 50
270.3661829096428164
 51
271.1457387810137902
  0
ARC
  5
1066A
  8
0
 10
4575.5375521819487403
 20
215.3173491703516049
 30
0.0
 40
0.1298941133508372
 50
271.3278341426251927
 51
328.7609199823858148
  0
LINE
  5
1066B
  8
0
 10
4575.5405622186626715
 20
215.1874899374793983
 30
0.0
 11
4575.8250002761642463
 21
215.1874508618793982
 31
0.0
  0
ARC
  5
1066C
  8
0
 10
4575.7980648359180122
 20
215.4290350250248025
 30
0.0
 40
0.243081109557741
 50
276.3619210817798262
 51
303.7071783497668207
  0
ARC
  5
1066D
  8
0
 10
4560.1203362369633396
 20
213.7686267084789051
 30
0.0
 40
1.50208388090045
 50
56.6584386308093571
 51
63.0385103540146403
  0
ARC
  5
1066E
  8
0
 10
4561.0824144883054032
 20
215.2309248276665983
 30
0.0
 40
0.2483190302636671
 50
236.6567453626232123
 51
267.9261448958205278
  0
LINE
  5
1066F
  8
0
 10
4563.3159373018634142
 20
215.1074508618793004
 30
0.0
 11
4563.3218588924628421
 21
215.0608945006792965
 31
0.0
  0
ARC
  5
10670
  8
0
 10
4563.3339442438318656
 20
215.0624316591087961
 30
0.0
 40
0.0121827161893682
 50
187.2486355831082108
 51
219.1398723553089951
  0
ARC
  5
10671
  8
0
 10
4563.7639921880481779
 20
215.4124193493229882
 30
0.0
 40
0.5666487815404225
 50
219.1398723553089951
 51
232.925687393390092
  0
ARC
  5
10672
  8
0
 10
4563.6589422571287287
 20
215.2964564571155961
 30
0.0
 40
0.4110332128898138
 50
234.8645149734865925
 51
256.1990429428950051
  0
ARC
  5
10673
  8
0
 10
4563.7725536787829697
 20
215.7589659597462912
 30
0.0
 40
0.8872921709726529
 50
256.1990429428950051
 51
265.2906203972884782
  0
ARC
  5
10674
  8
0
 10
4563.864255395773398
 20
216.8721240380129984
 30
0.0
 40
2.004221046107185
 50
265.2906203972884782
 51
268.4138764489388791
  0
ARC
  5
10675
  8
0
 10
4563.7718550352819875
 20
213.5351846089918126
 30
0.0
 40
1.333997427806014
 50
86.2649334879067169
 51
88.4138764489389501
  0
LINE
  5
10676
  8
0
 10
4564.4898523125630163
 20
215.1074508618793004
 30
0.0
 11
4564.486741947439441
 21
215.0832644514752019
 31
0.0
  0
LINE
  5
10677
  8
0
 10
4564.486741947439441
 20
215.0832644514752019
 30
0.0
 11
4564.4839293987643032
 21
215.0608929165794052
 31
0.0
  0
ARC
  5
10678
  8
0
 10
4564.4718978966648137
 20
215.062405516651495
 30
0.0
 40
0.0121262113509812
 50
321.3894783978354894
 51
352.8343706991456088
  0
ARC
  5
10679
  8
0
 10
4564.0537867375569476
 20
215.3963049984702138
 30
0.0
 40
0.5472017250207293
 50
310.9145965982451116
 51
321.3894783978354894
  0
ARC
  5
1067A
  8
0
 10
4564.1477236375276334
 20
215.287917083323407
 30
0.0
 40
0.4037720163616183
 50
278.2972666817843788
 51
310.9145965982451116
  0
ARC
  5
1067B
  8
0
 10
4563.8711388188430647
 20
217.2760563999879935
 30
0.0
 40
2.4110507341606748
 50
271.9123721115213925
 51
277.9831864836173736
  0
ARC
  5
1067C
  8
0
 10
4573.8604562794462254
 20
213.730498069329002
 30
0.0
 40
1.499821376072259
 50
109.4969218508815061
 51
120.8907857353635933
  0
ARC
  5
1067D
  8
0
 10
4572.9639163064766763
 20
215.2290540624686059
 30
0.0
 40
0.2464472137222676
 50
272.5572899369394122
 51
300.8907857353635791
  0
LINE
  5
1067E
  8
0
 10
4574.8883329905993378
 20
216.1647633166120954
 30
0.0
 11
4574.8907003473523218
 21
216.1513450689743081
 31
0.0
  0
ARC
  5
1067F
  8
0
 10
4574.9682582625637224
 20
216.1650284693239996
 30
0.0
 40
0.078755734122895
 50
190.00562229775079
 51
269.9902785296757202
  0
ARC
  5
10680
  8
0
 10
4575.2509733865827002
 20
1882.4133098947079361
 30
0.0
 40
1666.3270611438799733
 50
269.9902785296757202
 51
270.008780923112397
  0
ARC
  5
10681
  8
0
 10
4575.5063779393822188
 20
215.8911600361387002
 30
0.0
 40
0.1951082858318656
 50
4.4987449185777537
 51
90.0087809231123686
  0
ARC
  5
10682
  8
0
 10
4582.0248495598680165
 20
216.4040312052794093
 30
0.0
 40
6.3435084718018304
 50
184.4987449185776995
 51
185.5013069310724063
  0
ARC
  5
10683
  8
0
 10
4575.6617842636705973
 20
215.2269592249008952
 30
0.0
 40
0.0396958263182255
 50
275.57050274744239
 51
356.8228258050357908
  0
ARC
  5
10684
  8
0
 10
4946.7199006104528962
 20
195.7688980984057139
 30
0.0
 40
371.5282548742454765
 50
176.9272945693140002
 51
176.9982125632830048
  0
ARC
  5
10685
  8
0
 10
4576.2538176008220034
 20
215.6556282060030867
 30
0.0
 40
0.5287930217091269
 50
107.1157194073360017
 51
176.9272945693140002
  0
ARC
  5
10686
  8
0
 10
4576.2532363182308472
 20
215.6575158517001114
 30
0.0
 40
0.5268179025413122
 50
40.2740292258349299
 51
107.1157194073360017
  0
ARC
  5
10687
  8
0
 10
4576.250900624660062
 20
215.6555368589517059
 30
0.0
 40
0.5298792546538379
 50
346.801733972373313
 51
40.2740292258349299
  0
ARC
  5
10688
  8
0
 10
4576.2599368170222078
 20
215.6534177276764126
 30
0.0
 40
0.5205979029329639
 50
328.3728726541867218
 51
346.801733972373313
  0
ARC
  5
10689
  8
0
 10
4575.7778412539037163
 20
215.9503196309167095
 30
0.0
 40
1.086784155085476
 50
315.9853104660612075
 51
328.3728726541867218
  0
ARC
  5
1068A
  8
0
 10
4576.0909512478156103
 20
215.647797600544493
 30
0.0
 40
0.6514021996155775
 50
266.9258647794729882
 51
315.9853135653432901
  0
LINE
  5
1068B
  8
0
 10
4576.0560178229634403
 20
214.997332780979292
 30
0.0
 11
4574.6111548392636905
 21
214.9973449408292936
 31
0.0
  0
ARC
  5
1068C
  8
0
 10
4574.6111554919707487
 20
215.0749012119973997
 30
0.0
 40
0.0775562711708181
 50
191.1605744581405872
 51
269.999517803350102
  0
ARC
  5
1068D
  8
0
 10
4589.8208013366729574
 20
217.9437000756427949
 30
0.0
 40
15.5553871956376604
 50
190.2887763999472952
 51
190.6838612300529974
  0
ARC
  5
1068E
  8
0
 10
4574.9361081214510705
 20
213.5702538385436071
 30
0.0
 40
1.451746865310021
 50
90.5976366542186042
 51
92.3599191762474732
  0
ARC
  5
1068F
  8
0
 10
4574.9232496568793067
 20
213.8822641361439878
 30
0.0
 40
1.1394717207342131
 50
92.3599191762474732
 51
94.1719077231563517
  0
ARC
  5
10690
  8
0
 10
4574.8899531873767046
 20
214.3387398314812913
 30
0.0
 40
0.68178327286277
 50
94.1719077231563517
 51
96.7286336387877981
  0
ARC
  5
10691
  8
0
 10
4574.8392728697763232
 20
214.7683080252606942
 30
0.0
 40
0.2492357868002768
 50
96.7286336387877981
 51
101.075191719303902
  0
ARC
  5
10692
  8
0
 10
4574.801183294407565
 20
214.9628981561434102
 30
0.0
 40
0.0509528203390631
 50
101.075191719303902
 51
110.1456031284920982
  0
ARC
  5
10693
  8
0
 10
4574.7859315649029668
 20
215.0044729028801953
 30
0.0
 40
0.0066687959157633
 50
110.1456031284915014
 51
129.1167690676967084
  0
ARC
  5
10694
  8
0
 10
4574.7824074542531889
 20
215.0088067278717006
 30
0.0
 40
0.0010829750329938
 50
129.116769067680309
 51
230.9301363572039065
  0
ARC
  5
10695
  8
0
 10
4574.7939665100811908
 20
215.0336875051845027
 30
0.0
 40
0.0284860789411119
 50
244.5489116448150071
 51
264.594835971220391
  0
ARC
  5
10696
  8
0
 10
4574.8474918133997562
 20
215.4753201182504938
 30
0.0
 40
0.4733412270353269
 50
263.1801103276309846
 51
268.4405876955332815
  0
ARC
  5
10697
  8
0
 10
4574.9277564249114221
 20
217.7880906051179011
 30
0.0
 40
2.7874931088585071
 50
268.085067844916523
 51
270.0358661974258894
  0
ARC
  5
10698
  8
0
 10
4574.9445607132620353
 20
217.7690797973224051
 30
0.0
 40
2.76852271288586
 50
269.6883383764192104
 51
272.1830648703901829
  0
ARC
  5
10699
  8
0
 10
4575.0389334446017529
 20
215.3359173482976132
 30
0.0
 40
0.3335352477234106
 50
271.9049269193624809
 51
278.2473313074734165
  0
ARC
  5
1069A
  8
0
 10
4575.0827668888259723
 20
215.0311786740591913
 30
0.0
 40
0.0256625726085299
 50
278.9921283130806842
 51
292.2112872830534229
  0
ARC
  5
1069B
  8
0
 10
4575.0908958563441047
 20
215.0108953262422915
 30
0.0
 40
0.0038140267344766
 50
294.3420860771785783
 51
315.0062555665575132
  0
ARC
  5
1069C
  8
0
 10
4575.0929989272453895
 20
215.0087927145173126
 30
0.0
 40
0.0008401600113228
 50
315.0062555666301023
 51
39.0505073839786974
  0
ARC
  5
1069D
  8
0
 10
4575.090664891013148
 20
215.0068992401037917
 30
0.0
 40
0.0038456500683963
 50
39.0505073839711088
 51
72.1102119698012132
  0
ARC
  5
1069E
  8
0
 10
4575.0602151176190091
 20
214.9125674460287883
 30
0.0
 40
0.1029701983561521
 50
72.1102119698012132
 51
78.9551767362306123
  0
ARC
  5
1069F
  8
0
 10
4575.0444757901314006
 20
214.831932466664
 30
0.0
 40
0.1851269164436649
 50
78.9551767362309107
 51
85.1201310015271133
  0
ARC
  5
106A0
  8
0
 10
4574.8554047424468081
 20
212.6173716556135105
 30
0.0
 40
2.407744167999335
 50
85.1201310015271133
 51
86.4815739618343287
  0
ARC
  5
106A1
  8
0
 10
4574.9376719264510029
 20
213.5295073782097006
 30
0.0
 40
1.492507854774654
 50
87.4849113919630241
 51
90.6413506098058406
  0
ARC
  5
106A2
  8
0
 10
8330.3898950770399097
 20
18.6825015703063606
 30
0.0
 40
3759.5979211204571584
 50
176.9965320096549988
 51
177.0033243165059105
  0
ARC
  5
106A3
  8
0
 10
4576.2529036759297014
 20
215.6563390814949912
 30
0.0
 40
0.2970229653147279
 50
90.0016981131564791
 51
176.9965320096549988
  0
ARC
  5
106A4
  8
0
 10
4576.2529036754904155
 20
215.6563539512769978
 30
0.0
 40
0.2970080955327662
 50
328.5009722701939268
 51
90.0016981131564791
  0
ARC
  5
106A5
  8
0
 10
4575.7953862772728826
 20
215.936710294362598
 30
0.0
 40
0.8335915920919909
 50
310.2129557455862141
 51
328.5009722701939268
  0
ARC
  5
106A6
  8
0
 10
4575.903935332367837
 20
215.8083187337410038
 30
0.0
 40
0.6654628015742104
 50
270.771866449927586
 51
310.2129557455862141
  0
ARC
  5
106A7
  8
0
 10
4574.7786381338728461
 20
230.2420231463437119
 30
0.0
 40
15.1416504002577792
 50
270.1588524671665255
 51
274.2960539904232746
  0
ARC
  5
106A8
  8
0
 10
4574.8334356662717255
 20
213.5301151951325096
 30
0.0
 40
1.570368054706184
 50
90.4676547287474762
 51
98.601299477765707
  0
ARC
  5
106A9
  8
0
 10
4574.6171644654723423
 20
214.8856471267062034
 30
0.0
 40
0.1980485472128297
 50
95.3859141988761081
 51
108.1374526178117037
  0
ARC
  5
106AA
  8
0
 10
4574.5950687851773182
 20
214.993992173846209
 30
0.0
 40
0.0891223764037587
 50
116.3493607207145004
 51
132.3194647545153941
  0
ARC
  5
106AB
  8
0
 10
4576.2528868813487861
 20
215.6563473568438951
 30
0.0
 40
0.5599920740869007
 50
165.5707259476145055
 51
196.4559313470984137
  0
ARC
  5
106AC
  8
0
 10
4576.2529041850129943
 20
215.6563429045930889
 30
0.0
 40
0.5600099413565577
 50
124.7360767931233028
 51
165.5707259476145055
  0
ARC
  5
106AD
  8
0
 10
4576.2528945086942258
 20
215.6563568601868894
 30
0.0
 40
0.5599929593154829
 50
59.3544408776799273
 51
124.7360767931233028
  0
ARC
  5
106AE
  8
0
 10
4576.2528868782428617
 20
215.6563439811810952
 30
0.0
 40
0.5600079290378064
 50
0.000462298593374
 51
59.3544408776799273
  0
LINE
  5
106AF
  8
0
 10
4576.8128948072635467
 20
215.6563484996792965
 30
0.0
 11
4576.8128983459573647
 21
215.217774243528595
 31
0.0
  0
ARC
  5
106B0
  8
0
 10
4576.8844811392618794
 20
215.2046732571546102
 30
0.0
 40
0.0727717812147131
 50
169.6285867420554894
 51
190.3559257140408079
  0
ARC
  5
106B1
  8
0
 10
4576.8654853718280719
 20
215.1994897970685088
 30
0.0
 40
0.0531803410217213
 50
188.5409852222863947
 51
267.8043467536979279
  0
LINE
  5
106B2
  8
0
 10
4576.7667835496631596
 20
215.5345540824793034
 30
0.0
 11
4576.7673062668627608
 21
215.2685236318793045
 31
0.0
  0
ARC
  5
106B3
  8
0
 10
4577.5995252426437219
 20
215.2061246337395914
 30
0.0
 40
0.8345550063460173
 50
175.7120396246662892
 51
185.322417284006292
  0
LINE
  5
106B4
  8
0
 10
4576.8634479255333645
 20
215.1463484997210003
 30
0.0
 11
4577.9278948072487765
 21
215.1463484997210003
 31
0.0
  0
LINE
  5
106B5
  8
0
 10
4576.816109857462834
 20
215.2263484996792897
 30
0.0
 11
4577.8798023557310444
 21
215.2263484996792897
 31
0.0
  0
LINE
  5
106B6
  8
0
 10
4577.9093474151541159
 20
215.2047340984198058
 30
0.0
 11
4577.9278948072487765
 21
215.1463484997210003
 31
0.0
  0
ARC
  5
106B7
  8
0
 10
4577.8798023557310444
 20
215.1953484996793975
 30
0.0
 40
0.031
 50
17.6235259088656804
 51
90.0
  0
ARC
  5
106B8
  8
0
 10
4576.8341199739033982
 20
215.2160153063971961
 30
0.0
 40
0.0212943972092451
 50
153.1742421328484056
 51
175.2619166339526942
  0
ARC
  5
106B9
  8
0
 10
4576.8163208094701986
 20
215.2250163571422945
 30
0.0
 40
0.00134874181678
 50
98.9983786253291242
 51
153.1742421328061994
  0
LINE
  5
106BA
  8
0
 10
4576.8143864414632844
 20
215.1310422906794031
 30
0.0
 11
4577.9183199044427965
 21
215.1310422906794031
 31
0.0
  0
LINE
  5
106BB
  8
0
 10
4577.9183199044427965
 20
215.1310422906794031
 30
0.0
 11
4577.9250625585027592
 21
215.0987576683093891
 31
0.0
  0
ARC
  5
106BC
  8
0
 10
4577.8997611227059679
 20
215.1274441318653885
 30
0.0
 40
0.0189043679191825
 50
10.9723225402076494
 51
89.9952988882194234
  0
LINE
  5
106BD
  8
0
 10
4577.9250625585027592
 20
215.0987576683093891
 30
0.0
 11
4577.9307682727239808
 21
215.0987576683093891
 31
0.0
  0
LINE
  5
106BE
  8
0
 10
4577.9307682727239808
 20
215.0987576683093891
 30
0.0
 11
4577.9345751514611038
 21
215.0726333862467925
 31
0.0
  0
LINE
  5
106BF
  8
0
 10
4577.9345751514611038
 20
215.0726333862467925
 30
0.0
 11
4577.9369975713825625
 21
215.0463486020794051
 31
0.0
  0
ARC
  5
106C0
  8
0
 10
4577.911060975363398
 20
215.0953484996792895
 30
0.0
 40
0.0200000000000183
 50
9.8144742941095124
 51
55.730523243284452
  0
ARC
  5
106C1
  8
0
 10
476.8518652104274906
 20
71.6455393883126135
 30
0.0
 40
4103.5914824645060435
 50
2.0002728746862282
 51
2.002619982738731
  0
ARC
  5
106C2
  8
0
 10
4577.9312744988428676
 20
214.877943572584087
 30
0.0
 40
0.011601080712787
 50
271.8503154255618028
 51
2.0002728745430121
  0
ARC
  5
106C3
  8
0
 10
4583.2500721948636055
 20
88.1863835005219272
 30
0.0
 40
127.1076883845585002
 50
92.9022269731761554
 51
92.9229068699199274
  0
ARC
  5
106C4
  8
0
 10
4577.4424057938631449
 20
214.9289306564309072
 30
0.0
 40
0.7557001788613708
 50
153.2963907151556953
 51
184.7502996330752865
  0
LINE
  5
106C5
  8
0
 10
4575.9178948072631101
 20
214.9973327516792949
 30
0.0
 11
4575.9178948072631101
 21
214.8783485407793137
 31
0.0
  0
ARC
  5
106C6
  8
0
 10
4575.3236581027686043
 20
214.4772612498765056
 30
0.0
 40
1.636624839166009
 50
89.7792936641521209
 51
91.7375476521706759
  0
ARC
  5
106C7
  8
0
 10
4575.3121546542897704
 20
214.8564721366201979
 30
0.0
 40
1.257239512681384
 50
91.7375476521706759
 51
94.2605427993316169
  0
ARC
  5
106C8
  8
0
 10
4575.254090421561159
 20
215.6358801783408978
 30
0.0
 40
0.4756716329542061
 50
94.2605427993316169
 51
98.961877898697665
  0
ARC
  5
106C9
  8
0
 10
4575.1889112410808593
 20
216.0491849448135895
 30
0.0
 40
0.0572589711512309
 50
98.961877898697665
 51
109.282137944131307
  0
ARC
  5
106CA
  8
0
 10
4575.17213453657223
 20
216.0971396132077871
 30
0.0
 40
0.0064543647163564
 50
109.2821379441328986
 51
133.823080626858598
  0
ARC
  5
106CB
  8
0
 10
4575.1681832581616618
 20
216.1012566470882064
 30
0.0
 40
0.0007480025602976
 50
133.8230806268495883
 51
222.8099148811072894
  0
ARC
  5
106CC
  8
0
 10
4575.1723599742554143
 20
216.1060550959550994
 30
0.0
 40
0.007105755054169
 50
228.3162403199497135
 51
257.549285567778611
  0
ARC
  5
106CD
  8
0
 10
4575.1893245207838845
 20
216.1694848199242074
 30
0.0
 40
0.072758703490903
 50
255.2727688060413982
 51
263.3938389351347951
  0
ARC
  5
106CE
  8
0
 10
4575.2434724693121098
 20
216.6672576238854901
 30
0.0
 40
0.57346643313474
 50
263.7412657134714209
 51
268.2407765101938253
  0
ARC
  5
106CF
  8
0
 10
4575.316182223656142
 20
218.6428773068398925
 30
0.0
 40
2.5504154272971431
 50
267.9706281493026836
 51
269.986090914039778
  0
ARC
  5
106D0
  8
0
 10
4575.3288338298134477
 20
218.6590288115878025
 30
0.0
 40
2.5666011656541352
 50
269.7037479051246009
 51
272.2613569051151785
  0
ARC
  5
106D1
  8
0
 10
4575.4194416831942362
 20
216.4531305363771025
 30
0.0
 40
0.3588626150494075
 50
271.7029829890034875
 51
278.7481899979591731
  0
ARC
  5
106D2
  8
0
 10
4575.4703949189479317
 20
216.1184445266441116
 30
0.0
 40
0.0203278933316346
 50
280.2778944980780125
 51
295.0616372497387943
  0
ARC
  5
106D3
  8
0
 10
4575.4777767774876338
 20
216.1024396026996897
 30
0.0
 40
0.0027044765360785
 50
297.0258746496608069
 51
321.3735578529394843
  0
ARC
  5
106D4
  8
0
 10
4575.4791962388953834
 20
216.101261180410205
 30
0.0
 40
0.0008606218930108
 50
323.6734629392291254
 51
47.5591437594668704
  0
ARC
  5
106D5
  8
0
 10
4575.4739773170804256
 20
216.0948201424627086
 30
0.0
 40
0.0091492305801409
 50
50.6615772518061007
 51
74.9227255926833209
  0
ARC
  5
106D6
  8
0
 10
4575.4254727361703772
 20
215.8929833933262046
 30
0.0
 40
0.2167291226600577
 50
76.4211195160570753
 51
85.6951985556203937
  0
ARC
  5
106D7
  8
0
 10
4575.3408113659379524
 20
214.9866783679379978
 30
0.0
 40
1.1269514372187921
 50
84.8617162922906232
 51
88.7530395371034615
  0
ARC
  5
106D8
  8
0
 10
4575.3240507262016763
 20
214.4801121771436954
 30
0.0
 40
1.6337724652222061
 50
88.5519901049299989
 51
89.7926775858698534
  0
ARC
  5
106D9
  8
0
 10
4575.9909650948939088
 20
215.3754964832473888
 30
0.0
 40
0.9011782397061316
 50
68.0412186639405832
 51
92.3080421801788873
  0
ARC
  5
106DA
  8
0
 10
4576.3875370282075892
 20
215.9935263549058106
 30
0.0
 40
0.5879212925668945
 50
152.3952058816475983
 51
157.6203916790109929
  0
LINE
  5
106DB
  8
0
 10
4575.8438970274628446
 20
216.2173722747793079
 30
0.0
 11
4575.8346502216636509
 21
216.1650108043793068
 31
0.0
  0
ARC
  5
106DC
  8
0
 10
4575.652490555597069
 20
216.2573136264809932
 30
0.0
 40
0.2042105665097885
 50
282.5840954753015239
 51
333.1280353986479099
  0
ARC
  5
106DD
  8
0
 10
4575.7055502430021079
 20
216.1513556232409883
 30
0.0
 40
0.0937392457941537
 50
258.0602843077414263
 51
264.755792792116381
  0
ARC
  5
106DE
  8
0
 10
4575.4603153218113221
 20
215.1629123461601125
 30
0.0
 40
0.9247339395196053
 50
75.864040068010766
 51
86.8657310682813062
  0
ARC
  5
106DF
  8
0
 10
4575.2894346815182871
 20
209.3622061676823023
 30
0.0
 40
6.8211382280910442
 50
87.8721303772501727
 51
92.1663990666187942
  0
ARC
  5
106E0
  8
0
 10
4575.4679337398056305
 20
214.1663258144629083
 30
0.0
 40
2.0137036217347242
 50
82.458137734931654
 51
87.8721303772501727
  0
ARC
  5
106E1
  8
0
 10
4571.7909781083699272
 20
207.5889557903473133
 30
0.0
 40
9.436155406217102
 50
65.1743462376310418
 51
65.3120518030638522
  0
ARC
  5
106E2
  8
0
 10
4575.6291080278788286
 20
217.2911595670169902
 30
0.0
 40
1.14475265418436
 50
276.2044053096229277
 51
280.3436440045265954
  0
LINE
  5
106E3
  8
0
 10
4558.7990489362546214
 20
215.9234347419505013
 30
0.0
 11
4569.7219658271633307
 21
215.9234272397793006
 31
0.0
  0
LINE
  5
106E4
  8
0
 10
4563.8587556917864276
 20
214.8663485407793132
 30
0.0
 11
4563.9515979759644324
 21
214.8663485407793132
 31
0.0
  0
ARC
  5
106E5
  8
0
 10
4575.9298948777413898
 20
214.8783485699717914
 30
0.0
 40
0.0120000704768906
 50
180.0001393829786878
 51
269.8497069308784262
  0
ARC
  5
106E7
  8
0
 10
4563.2731504837620378
 20
216.3404794644116009
 30
0.0
 40
0.5621697183847691
 50
227.8895400147804935
 51
264.9002107965608275
  0
ARC
  5
106E8
  8
0
 10
4563.5922253204689696
 20
216.3278778360339061
 30
0.0
 40
0.5487669271565804
 50
274.1288605052258163
 51
312.5226786683685987
  0
ARC
  5
106E9
  8
0
 10
4568.0650837392249741
 20
537.6951511714258913
 30
0.0
 40
322.594287508453192
 50
271.1457387810137902
 51
271.3278341426251927
  0
ENDSEC
  0
EOF
