  0
SECTION
  2
HEADER
  9
$ACADVER
  1
AC1009
  9
$INSBASE
 10
3083.7287738038639873
 20
33.4484249071565074
 30
0.0
  9
$EXTMIN
 10
3064.4286808991259932
 20
33.4463058011843088
 30
-0.0015258207003583
  9
$EXTMAX
 10
3083.956922316075179
 20
35.5683128889867319
 30
0.0000000349246037
  9
$LIMMIN
 10
0.0
 20
0.0
  9
$LIMMAX
 10
11.6929133858000007
 20
8.2677165353999982
  9
$ORTHOMODE
 70
     0
  9
$REGENMODE
 70
     1
  9
$FILLMODE
 70
     1
  9
$QTEXTMODE
 70
     0
  9
$MIRRTEXT
 70
     0
  9
$DRAGMODE
 70
     2
  9
$LTSCALE
 40
0.6431102362
  9
$OSMODE
 70
  3839
  9
$ATTMODE
 70
     1
  9
$TEXTSIZE
 40
0.2
  9
$TRACEWID
 40
0.05
  9
$TEXTSTYLE
  7
STANDARD
  9
$CLAYER
  8
0
  9
$CELTYPE
  6
BYLAYER
  9
$CECOLOR
 62
   256
  9
$DIMSCALE
 40
1.0
  9
$DIMASZ
 40
0.1875
  9
$DIMEXO
 40
0.0625
  9
$DIMDLI
 40
0.4443307087
  9
$DIMRND
 40
0.0
  9
$DIMDLE
 40
0.0
  9
$DIMEXE
 40
0.125
  9
$DIMTP
 40
0.01
  9
$DIMTM
 40
0.01
  9
$DIMTXT
 40
2.0
  9
$DIMCEN
 40
0.1052362205
  9
$DIMTSZ
 40
0.0
  9
$DIMTOL
 70
     1
  9
$DIMLIM
 70
     0
  9
$DIMTIH
 70
     1
  9
$DIMTOH
 70
     1
  9
$DIMSE1
 70
     0
  9
$DIMSE2
 70
     0
  9
$DIMTAD
 70
     0
  9
$DIMZIN
 70
     0
  9
$DIMBLK
  1

  9
$DIMASO
 70
     1
  9
$DIMSHO
 70
     1
  9
$DIMPOST
  1
\X
  9
$DIMAPOST
  1

  9
$DIMALT
 70
     1
  9
$DIMALTD
 70
     2
  9
$DIMALTF
 40
25.3999999999999986
  9
$DIMLFAC
 40
1.0
  9
$DIMTOFL
 70
     0
  9
$DIMTVP
 40
0.0
  9
$DIMTIX
 70
     0
  9
$DIMSOXD
 70
     0
  9
$DIMSAH
 70
     0
  9
$DIMBLK1
  1

  9
$DIMBLK2
  1

  9
$DIMSTYLE
  2
STANDARD
  9
$DIMCLRD
 70
     0
  9
$DIMCLRE
 70
     0
  9
$DIMCLRT
 70
     0
  9
$DIMTFAC
 40
1.0
  9
$DIMGAP
 40
0.09
  9
$LUNITS
 70
     2
  9
$LUPREC
 70
     4
  9
$SKETCHINC
 40
0.1
  9
$FILLETRAD
 40
0.0
  9
$AUNITS
 70
     0
  9
$AUPREC
 70
     0
  9
$MENU
  1
.
  9
$ELEVATION
 40
0.0
  9
$PELEVATION
 40
0.0
  9
$THICKNESS
 40
0.0
  9
$LIMCHECK
 70
     0
  9
$BLIPMODE
 70
     0
  9
$CHAMFERA
 40
0.0
  9
$CHAMFERB
 40
0.0
  9
$SKPOLY
 70
     0
  9
$TDCREATE
 40
2458060.468368056230247
  9
$TDUPDATE
 40
2460419.3935185191221535
  9
$TDINDWG
 40
0.4880163194
  9
$TDUSRTIMER
 40
0.4880163194
  9
$USRTIMER
 70
     1
  9
$ANGBASE
 50
0.0
  9
$ANGDIR
 70
     0
  9
$PDMODE
 70
     0
  9
$PDSIZE
 40
0.3125
  9
$PLINEWID
 40
0.0
  9
$COORDS
 70
     1
  9
$SPLFRAME
 70
     0
  9
$SPLINETYPE
 70
     6
  9
$SPLINESEGS
 70
     8
  9
$ATTDIA
 70
     1
  9
$ATTREQ
 70
     1
  9
$HANDLING
 70
     1
  9
$HANDSEED
  5
30BE2
  9
$SURFTAB1
 70
     6
  9
$SURFTAB2
 70
     6
  9
$SURFTYPE
 70
     6
  9
$SURFU
 70
     6
  9
$SURFV
 70
     6
  9
$UCSNAME
  2

  9
$UCSORG
 10
0.0
 20
0.0
 30
0.0
  9
$UCSXDIR
 10
1.0
 20
0.0
 30
0.0
  9
$UCSYDIR
 10
0.0
 20
1.0
 30
0.0
  9
$PUCSNAME
  2

  9
$PUCSORG
 10
0.0
 20
0.0
 30
0.0
  9
$PUCSXDIR
 10
1.0
 20
0.0
 30
0.0
  9
$PUCSYDIR
 10
0.0
 20
1.0
 30
0.0
  9
$USERI1
 70
     0
  9
$USERI2
 70
     0
  9
$USERI3
 70
     0
  9
$USERI4
 70
     0
  9
$USERI5
 70
     0
  9
$USERR1
 40
0.0
  9
$USERR2
 40
0.0
  9
$USERR3
 40
0.0
  9
$USERR4
 40
0.0
  9
$USERR5
 40
0.0
  9
$WORLDVIEW
 70
     1
  9
$SHADEDGE
 70
     3
  9
$SHADEDIF
 70
    70
  9
$TILEMODE
 70
     1
  9
$MAXACTVP
 70
    64
  9
$PLIMCHECK
 70
     0
  9
$PEXTMIN
 10
1.0000000000000000E+20
 20
1.0000000000000000E+20
 30
1.0000000000000000E+20
  9
$PEXTMAX
 10
-1.0000000000000000E+20
 20
-1.0000000000000000E+20
 30
-1.0000000000000000E+20
  9
$PLIMMIN
 10
0.0
 20
0.0
  9
$PLIMMAX
 10
12.0
 20
9.0
  9
$UNITMODE
 70
     0
  9
$VISRETAIN
 70
     1
  9
$PLINEGEN
 70
     0
  9
$PSLTSCALE
 70
     1
  0
ENDSEC
  0
SECTION
  2
TABLES
  0
TABLE
  2
VPORT
 70
     1
  0
VPORT
  2
*ACTIVE
 70
     0
 10
0.0
 20
0.0
 11
1.0
 21
1.0
 12
-729.3512657752125961
 22
-91.4879528516644029
 13
0.0
 23
0.0
 14
1.0
 24
1.0
 15
0.0
 25
0.0
 16
0.0
 26
0.0
 36
17.1152628219792007
 17
3803.5440673828129547
 27
125.9952621967499056
 37
0.0
 40
9.235513683688648
 41
2.1211111111111101
 42
50.0
 43
0.0
 44
0.0
 50
0.0
 51
0.0
 71
     0
 72
   100
 73
     1
 74
     1
 75
     0
 76
     0
 77
     0
 78
     0
  0
ENDTAB
  0
TABLE
  2
LTYPE
 70
     2
  0
LTYPE
  2
CONTINUOUS
 70
     0
  3
Solid line
 72
    65
 73
     0
 40
0.0
  0
LTYPE
  2
PHANTOM2
 70
     0
  3
___ _ _ ___ _ _ ___ _ _ ___ _ _
 72
    65
 73
     6
 40
1.25
 49
0.625
 49
-0.125
 49
0.125
 49
-0.125
 49
0.125
 49
-0.125
  0
ENDTAB
  0
TABLE
  2
LAYER
 70
     2
  0
LAYER
  2
0
 70
     0
 62
   255
  6
CONTINUOUS
  0
LAYER
  2
DEFPOINTS
 70
     0
 62
     7
  6
CONTINUOUS
  0
ENDTAB
  0
TABLE
  2
STYLE
 70
     1
  0
STYLE
  2
STANDARD
 70
     0
 40
0.0
 41
0.8
 50
0.0
 71
     0
 42
0.2
  3
txt
  4

  0
ENDTAB
  0
TABLE
  2
VIEW
 70
     0
  0
ENDTAB
  0
TABLE
  2
UCS
 70
     0
  0
ENDTAB
  0
TABLE
  2
APPID
 70
    10
  0
APPID
  2
ACAD
 70
     0
  0
APPID
  2
ACAD_MLEADERVER
 70
     0
  0
APPID
  2
ACAD_EXEMPT_FROM_CAD_STANDARDS
 70
     0
  0
APPID
  2
ACAD_NAV_VCDISPLAY
 70
     0
  0
APPID
  2
ACAECLAYERSTANDARD
 70
     0
  0
APPID
  2
ACCMTRANSPARENCY
 70
     0
  0
APPID
  2
ACAD_DSTYLE_DIMJAG
 70
     0
  0
APPID
  2
ACAD_DSTYLE_DIMTALN
 70
     0
  0
APPID
  2
ACDBATTR
 70
     0
  0
APPID
  2
DCO15
 70
     0
  0
ENDTAB
  0
TABLE
  2
DIMSTYLE
 70
     1
  0
DIMSTYLE
  2
STANDARD
 70
     0
  3

  4

  5

  6

  7

 40
1.0
 41
0.1875
 42
0.0625
 43
0.38
 44
0.125
 45
0.0
 46
0.0
 47
0.01
 48
0.01
140
0.15625
141
0.09
142
0.0
143
25.3999999999999986
144
1.0
145
0.0
146
1.0
147
0.09
 71
     1
 72
     0
 73
     1
 74
     1
 75
     0
 76
     0
 77
     0
 78
     4
170
     0
171
     2
172
     0
173
     0
174
     0
175
     0
176
     0
177
     0
178
     0
  0
ENDTAB
  0
ENDSEC
  0
SECTION
  2
BLOCKS
  0
BLOCK
  8
0
  2
$MODEL_SPACE
 70
     0
 10
0.0
 20
0.0
 30
0.0
  3
$MODEL_SPACE
  1

  0
ENDBLK
  5
21
  8
0
  0
BLOCK
 67
     1
  8
0
  2
$PAPER_SPACE
 70
     0
 10
0.0
 20
0.0
 30
0.0
  3
$PAPER_SPACE
  1

  0
ENDBLK
  5
1D
 67
     1
  8
0
  0
BLOCK
  8
0
  2
_FILLED
 70
     0
 10
0.0
 20
0.0
 30
0.0
  3
_FILLED
  1

  0
SOLID
  5
2F55F
  8
0
  6
BYBLOCK
 62
     0
 10
0.0
 20
0.0
 30
0.0
 11
-1.0
 21
0.1666666667
 31
0.0
 12
-1.0
 22
-0.1666666667
 32
0.0
 13
-1.0
 23
-0.1666666667
 33
0.0
  0
ENDBLK
  5
2F560
  8
0
  6
BYBLOCK
 62
     0
  0
ENDSEC
  0
SECTION
  2
ENTITIES
  0
ATTDEF
  5
2FFB7
  8
DEFPOINTS
 10
3083.7304965291577901
 20
33.4539924177597214
 30
0.0
 40
0.001
  1
P70303-PGP
  3

  2
MODELNUMBER
 70
     0
1001
ACDBATTR
1070
     0
1070
     1
  0
ATTDEF
  5
2FFB8
  8
DEFPOINTS
 10
3083.7304965291577901
 20
33.4523257510930634
 30
0.0
 40
0.001
  1

  3

  2
TRADENAME
 70
     0
1001
ACDBATTR
1070
     0
1070
     1
  0
ATTDEF
  5
2FFB9
  8
DEFPOINTS
 10
3083.7304965291577901
 20
33.4506590844263911
 30
0.0
 40
0.001
  1
TOILET SEAT
  3

  2
PRODUCT
 70
     0
1001
ACDBATTR
1070
     0
1070
     1
  0
LINE
  5
30583
  8
0
 10
3081.6718154933009828
 20
35.5656021019565216
 30
0.0
 11
3081.6867790806240919
 21
35.5656021019565216
 31
0.0
  0
LINE
  5
30584
  8
0
 10
3064.5852254969040587
 20
33.689466780501931
 30
0.0
 11
3075.9081009914411879
 21
33.6895303619565283
 31
0.0
  0
LINE
  5
30585
  8
0
 10
3064.6954913538270375
 20
34.2153780699019023
 30
0.0
 11
3075.3405725809247997
 21
34.2154416513564996
 31
0.0
  0
LINE
  5
30586
  8
0
 10
3064.5862254969038077
 20
34.3984422289019278
 30
0.0
 11
3076.2755280969208798
 21
34.3985058103565322
 31
0.0
  0
LINE
  5
30587
  8
0
 10
3064.4548208291039373
 20
34.4614422283019408
 30
0.0
 11
3075.2636173585920005
 21
34.461505809756531
 31
0.0
  0
LINE
  5
30588
  8
0
 10
3064.7772219634798603
 20
35.0954648430142697
 30
0.0
 11
3067.4254137048451412
 21
35.0955284244688386
 31
0.0
  0
LINE
  5
30589
  8
0
 10
3066.8630669929079886
 20
33.5647556673565219
 30
0.0
 11
3069.1766520515079719
 21
33.5647556673565219
 31
0.0
  0
LINE
  5
3058A
  8
0
 10
3070.1949360750381857
 20
33.5647556673565219
 30
0.0
 11
3078.7487882049299515
 21
33.5647556673565219
 31
0.0
  0
LINE
  5
3058B
  8
0
 10
3069.6111263806660645
 20
33.4498344021065108
 30
0.0
 11
3069.7667278656631424
 21
33.4498344021065108
 31
0.0
  0
ARC
  5
3058C
  8
0
 10
3065.7182047521760069
 20
34.5155462448352566
 30
0.0
 40
1.2607058827519071
 50
161.7703764065423115
 51
177.913722070592712
  0
ARC
  5
3058D
  8
0
 10
3180.0132282473200576
 20
30.4510842633424694
 30
0.0
 40
115.6279745392158986
 50
177.9628135088028102
 51
178.0123955372060038
  0
ARC
  5
3058E
  8
0
 10
3064.7772219634798603
 20
34.8254648430142595
 30
0.0
 40
0.27
 50
90.0
 51
161.7703764065423115
  0
ARC
  5
3058F
  8
0
 10
3064.5881814306790147
 20
34.5318066376397113
 30
0.0
 40
0.133378750912247
 50
211.8402943616553955
 51
269.1597554590343861
  0
ARC
  5
30590
  8
0
 10
3064.5866798195470437
 20
33.8220297253967885
 30
0.0
 40
0.1325709222022546
 50
211.6500357585373138
 51
269.3714442085237124
  0
ARC
  5
30591
  8
0
 10
3069.4772800696941886
 20
33.576215215642442
 30
0.0
 40
5.0265502115391678
 50
176.8495412794933088
 51
177.9905725540182004
  0
ARC
  5
30592
  8
0
 10
3065.7024687940829608
 20
33.7839859633005304
 30
0.0
 40
1.2460252678230139
 50
170.4820560303228945
 51
176.8495412794933088
  0
ARC
  5
30593
  8
0
 10
3064.7405656542000543
 20
33.9490741812151882
 30
0.0
 40
0.2700915653696774
 50
99.6067704428815404
 51
171.2794258616401919
  0
ARC
  5
30594
  8
0
 10
3064.6604657187658631
 20
34.4228065185643288
 30
0.0
 40
0.210364817462247
 50
279.5843540424741036
 51
323.1041996339009756
  0
ARC
  5
30595
  8
0
 10
3065.0638219717029642
 20
34.1101824800019315
 30
0.0
 40
0.3000010581999981
 50
106.0843288355053033
 51
141.6038778970570888
  0
ARC
  5
30596
  8
0
 10
3065.8353924407610975
 20
32.3974864755566969
 30
0.0
 40
1.502217828799743
 50
53.9808052214299892
 51
59.3282762945081572
  0
ARC
  5
30597
  8
0
 10
3066.8656746170281622
 20
33.8144844504524116
 30
0.0
 40
0.2497423969015097
 50
233.9720070756646066
 51
269.401749269153413
  0
ARC
  5
30598
  8
0
 10
3049.5457627351438532
 20
31.1788826535278787
 30
0.0
 40
19.713600479419231
 50
7.1804345956455178
 51
7.3168365705949006
  0
ARC
  5
30599
  8
0
 10
3069.1167952003620485
 20
33.6444895258465095
 30
0.0
 40
0.0121321813326604
 50
187.1804345956502971
 51
219.2080726685090895
  0
ARC
  5
3059A
  8
0
 10
3069.5846438409489565
 20
34.0261673426600026
 30
0.0
 40
0.6159204772995643
 50
219.2080726685098
 51
228.5160785461528974
  0
ARC
  5
3059B
  8
0
 10
3069.4304340748999493
 20
33.8517663170935492
 30
0.0
 40
0.3831193397085453
 50
228.5160785461528974
 51
259.8978872510340921
  0
ARC
  5
3059C
  8
0
 10
3069.6480216007298623
 20
35.0730348732023316
 30
0.0
 40
1.623619729687144
 50
259.8978872510340921
 51
268.6978956148382167
  0
ARC
  5
3059D
  8
0
 10
3079.7594392527780656
 20
32.4592451262242179
 30
0.0
 40
9.5661299568289007
 50
172.6108177113505917
 51
172.8919111224267908
  0
ARC
  5
3059E
  8
0
 10
3070.2550133865879616
 20
33.6444466012977017
 30
0.0
 40
0.0119081294609214
 50
324.9602778290392848
 51
352.8919111224219023
  0
ARC
  5
3059F
  8
0
 10
3069.8111254362797808
 20
34.002510434830171
 30
0.0
 40
0.5821854024879555
 50
311.2433415141928208
 51
321.1872161454509751
  0
ARC
  5
305A0
  8
0
 10
3069.7582963706968258
 20
34.705249758780802
 30
0.0
 40
1.255443669736322
 50
270.3847983942360997
 51
281.9420054191465965
  0
ARC
  5
305A1
  8
0
 10
3069.9362318730231891
 20
33.8639428435992969
 30
0.0
 40
0.3955260175624351
 50
281.9419986334469854
 51
310.8496486970050228
  0
ARC
  5
305A2
  8
0
 10
3078.7486530497958483
 20
33.8050749302204707
 30
0.0
 40
0.2403193008694545
 50
270.0322230431750086
 51
301.5813071463329038
  0
ARC
  5
305A3
  8
0
 10
3079.6513080154568343
 20
32.3174021322671692
 30
0.0
 40
1.499787823541239
 50
110.047901702485305
 51
121.1940701035106969
  0
ARC
  5
305A4
  8
0
 10
3063.4105502935940422
 20
90.9001733253638093
 30
0.0
 40
55.9488831052594122
 50
274.1150528717083148
 51
275.5818894396155088
  0
ARC
  5
305A5
  8
0
 10
3077.990532737579997
 20
-55.7867140570221807
 30
0.0
 40
91.4609364400361784
 50
94.4399230663715343
 51
95.7340299119129696
  0
ARC
  5
305A6
  8
0
 10
3072.783697935391956
 20
12.0739356525662203
 30
0.0
 40
23.4009348469984602
 50
91.0648935523651346
 51
94.5920635386935942
  0
ARC
  5
305A7
  8
0
 10
3073.1713949594000042
 20
-8.7834029334828898
 30
0.0
 40
44.2618763855655928
 50
87.9257203175970403
 51
91.0648935523651346
  0
ARC
  5
305A8
  8
0
 10
3071.2056709195539952
 20
-63.0569333378282622
 30
0.0
 40
98.5709932404015632
 50
86.6001476391474085
 51
87.9257203175970403
  0
ARC
  5
305A9
  8
0
 10
3078.1944189816717881
 20
54.5821989844053874
 30
0.0
 40
19.2755512698374716
 50
266.6001476391473943
 51
271.1195424017349751
  0
ARC
  5
305AA
  8
0
 10
3078.1256803631399634
 20
58.0996463642741077
 30
0.0
 40
22.7936702371015016
 50
271.1195424017349751
 51
274.9063203107297113
  0
ARC
  5
305AB
  8
0
 10
3036.7331389290038715
 20
435.6737454187302205
 30
0.0
 40
402.6239076355831799
 50
276.1798013300027037
 51
276.408394286263615
  0
ARC
  5
305AC
  8
0
 10
3080.7590195068428329
 20
34.9765386766529076
 30
0.0
 40
1.2510908704636969
 50
2.059788025126398
 51
18.9784750872549992
  0
ARC
  5
305AD
  8
0
 10
3081.6867790806240919
 20
35.2956021019565895
 30
0.0
 40
0.27
 50
18.9784750872469203
 51
90.0
  0
ARC
  5
305AE
  8
0
 10
3086.22373545577193
 20
35.0942608125644568
 30
0.0
 40
4.2144835450393323
 50
180.9880738352657943
 51
182.3492573701228991
  0
ARC
  5
305AF
  8
0
 10
3075.2628346581741425
 20
84.2153730905640003
 30
0.0
 40
49.7538672869640095
 50
270.0009013456282787
 51
277.2493404128190946
  0
ARC
  5
305B0
  8
0
 10
3075.2630093890647913
 20
84.2139994672316732
 30
0.0
 40
49.7524825949610516
 50
277.2493404128190946
 51
277.7972080369743821
  0
ARC
  5
305B1
  8
0
 10
3081.8786378760792104
 20
34.99279242491356
 30
0.0
 40
0.1345783360494671
 50
280.9983298131371043
 51
326.4870500425345767
  0
ARC
  5
305B2
  8
0
 10
3077.8275825327009443
 20
61.5932261350118111
 30
0.0
 40
27.0416056418613486
 50
278.3891391789326235
 51
278.6708388781556778
  0
ARC
  5
305B3
  8
0
 10
3077.4373185787630973
 20
64.5943287047749806
 30
0.0
 40
30.0675787385210391
 50
276.2299790093769047
 51
278.2905084509436051
  0
ARC
  5
305B4
  8
0
 10
3074.8250797398532086
 20
87.5472192430811162
 30
0.0
 40
53.1685013893602729
 50
271.5632353446835054
 51
276.3441553234243884
  0
ARC
  5
305B5
  8
0
 10
3072.7406917590251396
 20
453.5124950208455061
 30
0.0
 40
419.8349129553478178
 50
270.432267296102907
 51
270.8729753208680222
  0
ARC
  5
305B6
  8
0
 10
3075.2977049884239023
 20
285.7016466983866962
 30
0.0
 40
252.0045845538379012
 50
270.8729753208680222
 51
271.1529410938283036
  0
ARC
  5
305B7
  8
0
 10
3082.3319450301341931
 20
-43.903636441350713
 30
0.0
 40
77.6765405101440933
 50
90.6571523568416211
 51
91.4485379733649353
  0
ARC
  5
305B8
  8
0
 10
3074.4229142655008218
 20
342.4651470548566863
 30
0.0
 40
308.712646006680302
 50
270.02456941266081
 51
271.3046436999994739
  0
ARC
  5
305B9
  8
0
 10
3074.0789828543970543
 20
351.6950510423936862
 30
0.0
 40
317.4821160124200219
 50
270.2276788310334155
 51
271.2190521803465799
  0
ARC
  5
305BA
  8
0
 10
3080.7672603291521227
 20
37.3916512026320831
 30
0.0
 40
3.107562006513743
 50
271.2190521803465799
 51
275.1378797374811143
  0
ARC
  5
305BB
  8
0
 10
3081.0198633023319417
 20
34.5822686615602919
 30
0.0
 40
0.286846047020801
 50
275.1378797374811143
 51
305.5124865149522861
  0
ARC
  5
305BC
  8
0
 10
3079.7958312903720071
 20
-141.1407052815123961
 30
0.0
 40
175.5745060233105903
 50
89.7451316244831219
 51
91.148868572988377
  0
ARC
  5
305BD
  8
0
 10
3080.5240801830400414
 20
9.1648933227050833
 30
0.0
 40
25.2672254225710411
 50
88.8299780354240482
 51
89.880372469869485
  0
ARC
  5
305BE
  8
0
 10
3081.0626257243711734
 20
34.0464555258650279
 30
0.0
 40
0.3810662279355792
 50
2.100681619592474
 51
93.4009663267835606
  0
LINE
  5
305BF
  8
0
 10
3081.4517950779841158
 20
33.8325294672630932
 30
0.0
 11
3081.4434358597109167
 21
34.0604237360305007
 31
0.0
  0
ARC
  5
305C0
  8
0
 10
3081.1152227997681621
 20
34.0221496872551583
 30
0.0
 40
0.3343132160202676
 50
14.2416180482941108
 51
77.692130136749384
  0
ARC
  5
305C1
  8
0
 10
3081.3094204168828583
 20
33.9119427270581895
 30
0.0
 40
0.1459011739318404
 50
273.3018704470861735
 51
326.8050232232545227
  0
ARC
  5
305C2
  8
0
 10
3081.4417806808201021
 20
33.8108090187074524
 30
0.0
 40
0.0430201318762579
 50
269.0343080785254983
 51
354.7190423469435814
  0
ARC
  5
305C3
  8
0
 10
3169.6834427626799879
 20
29.4145727872564287
 30
0.0
 40
88.3081239036582417
 50
176.8506942444687127
 51
177.149041531065194
  0
ARC
  5
305C4
  8
0
 10
3082.0357917777009789
 20
34.2384298224076105
 30
0.0
 40
0.5278299753039098
 50
116.1074210248020933
 51
177.0002853908191867
  0
ARC
  5
305C5
  8
0
 10
3082.0357941395609487
 20
34.2384271368565081
 30
0.0
 40
0.5278334261999963
 50
28.75302509282605
 51
116.1075229619610951
  0
ARC
  5
305C6
  8
0
 10
3082.0380539583579775
 20
34.2383884393683928
 30
0.0
 40
0.5258720496085602
 50
329.1627480469592228
 51
28.8751600661517607
  0
ARC
  5
305C7
  8
0
 10
3081.8839712882268032
 20
34.279366675809392
 30
0.0
 40
0.6805877837385529
 50
269.9744268604808894
 51
332.8524604563149865
  0
ARC
  5
305C8
  8
0
 10
3125.2563287107118413
 20
41.6493807720023668
 30
0.0
 40
45.6461608710581785
 50
189.9697737393939008
 51
190.0777881543664023
  0
ARC
  5
305C9
  8
0
 10
3080.389084452473071
 20
33.6752516415465806
 30
0.0
 40
0.0758158787531661
 50
190.0777881543631906
 51
270.9184284058204071
  0
ARC
  5
305CA
  8
0
 10
3080.7417845801360272
 20
-851.8312763642665004
 30
0.0
 40
885.430791630793351
 50
89.9261093111156242
 51
90.0227444098462399
  0
ARC
  5
305CB
  8
0
 10
3080.7203144679879188
 20
32.1211179116278771
 30
0.0
 40
1.502989147304068
 50
89.5658077420830949
 51
92.2804325429957828
  0
ARC
  5
305CC
  8
0
 10
3080.7028772335070244
 20
32.5589963895248076
 30
0.0
 40
1.0647636134157941
 50
92.2804325429957828
 51
95.109217951456273
  0
ARC
  5
305CD
  8
0
 10
3080.6454222714201023
 20
33.2015989752448704
 30
0.0
 40
0.4195976224936428
 50
95.109217951456273
 51
98.9996291617693629
  0
ARC
  5
305CE
  8
0
 10
3080.594289833548828
 20
33.5244500064909374
 30
0.0
 40
0.0927225476113974
 50
98.9996291617693629
 51
106.5427479230694985
  0
ARC
  5
305CF
  8
0
 10
3080.5709484848298416
 20
33.6030337304512585
 30
0.0
 40
0.0107455982203236
 50
106.5427479231237982
 51
126.6853284335708025
  0
ARC
  5
305D0
  8
0
 10
3080.5650848024110928
 20
33.6109046694093507
 30
0.0
 40
0.000930586676675
 50
126.6853284335717973
 51
226.4261819601723005
  0
ARC
  5
305D1
  8
0
 10
3080.5677572941331164
 20
33.6137136313098068
 30
0.0
 40
0.0048077607718783
 50
226.426181960171192
 51
258.687269829320087
  0
ARC
  5
305D2
  8
0
 10
3080.5851000038201164
 20
33.6755413504297607
 30
0.0
 40
0.0690088278388331
 50
254.6343560234159042
 51
264.2902045538651805
  0
ARC
  5
305D3
  8
0
 10
3080.6368218215739034
 20
34.1834801127107966
 30
0.0
 40
0.5795740338398115
 50
264.1982222230441266
 51
268.3866461997582746
  0
ARC
  5
305D4
  8
0
 10
3080.7219896467890976
 20
37.1366355071275933
 30
0.0
 40
3.5339571662624278
 50
268.3543969050859914
 51
271.3413222146040198
  0
ARC
  5
305D5
  8
0
 10
3080.7932028171721868
 20
34.3241616856317009
 30
0.0
 40
0.7206069380581465
 50
270.9152787687925752
 51
275.6286825555202995
  0
ARC
  5
305D6
  8
0
 10
3080.8576789148878561
 20
33.6657769608450721
 30
0.0
 40
0.0590741998996873
 50
276.0262252778222773
 51
286.4922994705224255
  0
ARC
  5
305D7
  8
0
 10
3080.8726640380750723
 20
33.6147648698642314
 30
0.0
 40
0.0059078612754207
 50
287.5886450545182811
 51
308.8900278522477265
  0
ARC
  5
305D8
  8
0
 10
3080.8756779339501009
 20
33.6109079495015379
 30
0.0
 40
0.0010164269079037
 50
313.155968037663115
 51
56.3853090525506602
  0
ARC
  5
305D9
  8
0
 10
3080.8598538155310962
 20
33.5796404879838377
 30
0.0
 40
0.0360531787764718
 50
62.9660763062959816
 51
81.9752420121991747
  0
ARC
  5
305DA
  8
0
 10
3080.8081943689558102
 20
33.3014471885581926
 30
0.0
 40
0.3189719920297409
 50
79.7621388504328763
 51
84.471671637151502
  0
ARC
  5
305DB
  8
0
 10
3080.7435101554087851
 20
32.6486025070088814
 30
0.0
 40
0.975012767998108
 50
84.3841324699793915
 51
87.8639188311930894
  0
ARC
  5
305DC
  8
0
 10
3080.7216098589938156
 20
32.1626623247729384
 30
0.0
 40
1.4614364394940691
 50
87.7160125479256152
 51
89.604249523795886
  0
LINE
  5
305DD
  8
0
 10
3081.7038068022611697
 20
33.5989789608442422
 30
0.0
 11
3081.7038068022611697
 21
33.4604249258329034
 31
0.0
  0
ARC
  5
305DE
  8
0
 10
3082.0357940811609296
 20
34.238427069656538
 30
0.0
 40
0.5600000000000068
 50
165.5708861215942989
 51
196.4256529774131081
  0
ARC
  5
305DF
  8
0
 10
3082.0357940811609296
 20
34.238427069656538
 30
0.0
 40
0.5599999999999845
 50
101.7607271388859971
 51
165.5708861215942989
  0
ARC
  5
305E0
  8
0
 10
3082.0357940811609296
 20
34.2384270696564812
 30
0.0
 40
0.5600000000000137
 50
34.9090012089780686
 51
101.7607271388859971
  0
ARC
  5
305E1
  8
0
 10
3082.0357940815511029
 20
34.2384270699286972
 30
0.0
 40
0.5599999995243832
 50
1.399999966630477
 51
34.9090012089780686
  0
LINE
  5
305E2
  8
0
 10
3083.7229095632610552
 20
33.6284250095565298
 30
0.0
 11
3083.7287671066628718
 21
33.4608257661680426
 31
0.0
  0
ARC
  5
305E3
  8
0
 10
3083.2239818479429232
 20
33.5956976403756897
 30
0.0
 40
0.499999945806526
 50
3.7529637425156039
 51
9.8032362479372601
  0
ARC
  5
305E4
  8
0
 10
3083.6969729703619123
 20
33.6774249071565208
 30
0.0
 40
0.0199999999999824
 50
9.8032357904242655
 51
54.6340522388826528
  0
LINE
  5
305E5
  8
0
 10
3082.5956269153598441
 20
34.252109089356523
 30
0.0
 11
3082.6020072296619219
 21
33.8081709861565329
 31
0.0
  0
ARC
  5
305E6
  8
0
 10
3082.6507182173909314
 20
33.7818591107427579
 30
0.0
 40
0.0534984777533299
 50
172.9899003946659093
 51
267.1911494200169841
  0
ARC
  5
305E7
  8
0
 10
3082.6411332735478936
 20
33.7891153839241696
 30
0.0
 40
0.0435196884948323
 50
154.0324751621004111
 51
180.9572924094956932
  0
LINE
  5
305E8
  8
0
 10
3082.6020072296619219
 20
33.8081709861565329
 30
0.0
 11
3083.665083251912165
 21
33.8080235769143513
 31
0.0
  0
LINE
  5
305E9
  8
0
 10
3083.694510533905941
 20
33.7867591853916878
 30
0.0
 11
3083.7138271189028274
 21
33.7283634882019072
 31
0.0
  0
ARC
  5
305EA
  8
0
 10
3083.6650789533609895
 20
33.7770235772123826
 30
0.0
 40
0.031
 50
18.3035859532612797
 51
89.9920551990436337
  0
LINE
  5
305EB
  8
0
 10
3083.7138271189028274
 20
33.7283634882019072
 30
0.0
 11
3082.6480965749619827
 21
33.7284249071565085
 31
0.0
  0
LINE
  5
305EC
  8
0
 10
3083.7041387170729649
 20
33.7135673238760134
 30
0.0
 11
3083.7109752039168598
 21
33.680830345449678
 31
0.0
  0
ARC
  5
305ED
  8
0
 10
3083.6859314915350296
 20
33.7097650958196695
 30
0.0
 40
0.0186
 50
11.7955990415513998
 51
89.9966979956637942
  0
LINE
  5
305EE
  8
0
 10
3083.7109752039168598
 20
33.680830345449678
 30
0.0
 11
3083.7166809360469415
 21
33.6808302101565218
 31
0.0
  0
ARC
  5
305EF
  8
0
 10
3083.0788201038558327
 20
32.7006006517876386
 30
0.0
 40
1.1358242554467699
 50
77.1906586320497894
 51
102.8063634850276031
  0
ARC
  5
305F0
  8
0
 10
3080.7475116181458361
 20
34.7668158061970374
 30
0.0
 40
0.078378470828096
 50
232.882530357281496
 51
270.0647917719621773
  0
ARC
  5
305F1
  8
0
 10
3080.928193770560938
 20
-125.0115022876698987
 30
0.0
 40
159.7000417834263999
 50
89.8681477968363964
 51
90.06479177196222
  0
ARC
  5
305F2
  8
0
 10
3081.2854190823109093
 20
34.4909868106083408
 30
0.0
 40
0.1973979332423914
 50
5.1252843294566004
 51
87.0134033325357734
  0
ARC
  5
305F3
  8
0
 10
3082.8642410498769095
 20
34.5634247121595806
 30
0.0
 40
1.383299313881998
 50
182.2705398651469011
 51
187.7294601126588134
  0
ARC
  5
305F4
  8
0
 10
3081.7933221784701345
 20
34.0223893343516366
 30
0.0
 40
0.8338039797243093
 50
67.6178694154911426
 51
85.5400460012310475
  0
ARC
  5
305F5
  8
0
 10
3081.1069911847898766
 20
33.2132880683558795
 30
0.0
 40
1.502989147304068
 50
89.5658077420830949
 51
92.2804325429957828
  0
ARC
  5
305F6
  8
0
 10
3081.0895539503089822
 20
33.65116654625281
 30
0.0
 40
1.0647636134157941
 50
92.2804325429957828
 51
95.109217951456273
  0
ARC
  5
305F7
  8
0
 10
3081.0320989882220601
 20
34.2937691319728728
 30
0.0
 40
0.4195976224936428
 50
95.109217951456273
 51
98.9996291617693629
  0
ARC
  5
305F8
  8
0
 10
3080.9809665503507858
 20
34.6166201632189399
 30
0.0
 40
0.0927225476113974
 50
98.9996291617693629
 51
106.5427479230694985
  0
ARC
  5
305F9
  8
0
 10
3080.9576252016317994
 20
34.695203887179261
 30
0.0
 40
0.0107455982203236
 50
106.5427479231237982
 51
126.6853284335708025
  0
ARC
  5
305FA
  8
0
 10
3080.9517615192130506
 20
34.7030748261373603
 30
0.0
 40
0.000930586676675
 50
126.6853284335717973
 51
226.4261819601723005
  0
ARC
  5
305FB
  8
0
 10
3080.9544340109350742
 20
34.7058837880378093
 30
0.0
 40
0.0048077607718783
 50
226.426181960171192
 51
258.687269829320087
  0
ARC
  5
305FC
  8
0
 10
3080.9717767206211647
 20
34.7677115071577276
 30
0.0
 40
0.0690088278388331
 50
254.6343560234159042
 51
264.2902045538651805
  0
ARC
  5
305FD
  8
0
 10
3081.0234985383758612
 20
35.275650269438799
 30
0.0
 40
0.5795740338398115
 50
264.1982222230441266
 51
268.3866461997582746
  0
ARC
  5
305FE
  8
0
 10
3081.1086663635910554
 20
38.2288056638556029
 30
0.0
 40
3.5339571662624278
 50
268.3543969050859914
 51
271.3413222146040198
  0
ARC
  5
305FF
  8
0
 10
3081.1798795339741446
 20
35.4163318423597033
 30
0.0
 40
0.7206069380581465
 50
270.9152787687925752
 51
275.6286825555202995
  0
ARC
  5
30600
  8
0
 10
3081.2443556316889044
 20
34.7579471175730674
 30
0.0
 40
0.0590741998996873
 50
276.0262252778222773
 51
286.4922994705224255
  0
ARC
  5
30601
  8
0
 10
3081.2593407548779396
 20
34.7069350265922267
 30
0.0
 40
0.0059078612754207
 50
287.5886450545182811
 51
308.8900278522477265
  0
ARC
  5
30602
  8
0
 10
3081.2623546507520587
 20
34.7030781062295404
 30
0.0
 40
0.0010164269079037
 50
313.155968037663115
 51
56.3853090525506602
  0
ARC
  5
30603
  8
0
 10
3081.246530532333054
 20
34.6718106447118117
 30
0.0
 40
0.0360531787764718
 50
62.9660763062959816
 51
81.9752420121991747
  0
ARC
  5
30604
  8
0
 10
3081.1948710857582228
 20
34.3936173452861595
 30
0.0
 40
0.3189719920297409
 50
79.7621388504328763
 51
84.471671637151502
  0
ARC
  5
30605
  8
0
 10
3081.1301868722111976
 20
33.7407726637368768
 30
0.0
 40
0.975012767998108
 50
84.3841324699793915
 51
87.8639188311930894
  0
ARC
  5
30606
  8
0
 10
3081.1082865757948639
 20
33.2548324815009408
 30
0.0
 40
1.4614364394940691
 50
87.7160125479256152
 51
89.604249523795886
  0
LINE
  5
30607
  8
0
 10
3064.4538208290041439
 20
33.7524658504019115
 30
0.0
 11
3074.5552955373318582
 21
33.7525294318565017
 31
0.0
  0
LINE
  5
30608
  8
0
 10
3083.7167738038629068
 20
33.4484249071565074
 30
0.0
 11
3081.7158068022608859
 21
33.4484249071565074
 31
0.0
  0
ARC
  5
30609
  8
0
 10
3083.7167738038629068
 20
33.4604249071565079
 30
0.0
 40
0.012
 50
270.0000000000521254
 51
1.9143169350028431
  0
ARC
  5
3060A
  8
0
 10
3081.7158068022608859
 20
33.4604249071565079
 30
0.0
 40
0.012
 50
180.0000000000098055
 51
269.9999999999478746
  0
LINE
  5
3060B
  8
0
 10
3069.1077207767921209
 20
33.6364207259564907
 30
0.0
 11
3070.2638043157589891
 21
33.6364207259564907
 31
0.0
  0
LINE
  5
30658
  8
0
 10
3067.4281564992038511
 20
35.0954871756019031
 30
0.0
 11
3075.2251941797030668
 21
35.0958845350019075
 31
0.0
  0
ARC
  5
30659
  8
0
 10
3075.2227302880719435
 20
83.4426856679211255
 30
0.0
 40
48.3468011957027173
 50
270.0029199572260836
 51
272.3639126155746908
  0
ARC
  5
3065A
  8
0
 10
3075.3502696357491004
 20
80.3531807928416555
 30
0.0
 40
45.2546649344189902
 50
272.3639126155746908
 51
275.5089188558964111
  0
ARC
  5
3065B
  8
0
 10
3075.1559213646828539
 20
82.3682768496306892
 30
0.0
 40
47.2791113695101615
 50
275.5089188558964111
 51
277.485103868811791
  0
ARC
  5
3065C
  8
0
 10
3083.6980203332041128
 20
17.3539828202030506
 30
0.0
 40
18.2939462298795412
 50
96.3880609468939156
 51
97.4851038688118194
  0
ARC
  5
3065D
  8
0
 10
3081.6936830570539314
 20
35.2567280084971202
 30
0.0
 40
0.2793506697913709
 50
27.7407296826552603
 51
96.3880609468939156
  0
ENDSEC
  0
EOF
