  0
SECTION
  2
HEADER
  9
$ACADVER
  1
AC1009
  9
$INSBASE
 10
3055.5723581091751839
 20
58.3602197727013206
 30
0.0
  9
$EXTMIN
 10
3048.2424038999129152
 20
39.085186947873467
 30
-0.0015258207003583
  9
$EXTMAX
 10
3062.7304665532069521
 20
58.3615008733981426
 30
0.0000000349246037
  9
$LIMMIN
 10
0.0
 20
0.0
  9
$LIMMAX
 10
11.6929133858000007
 20
8.2677165353999982
  9
$ORTHOMODE
 70
     0
  9
$REGENMODE
 70
     1
  9
$FILLMODE
 70
     1
  9
$QTEXTMODE
 70
     0
  9
$MIRRTEXT
 70
     0
  9
$DRAGMODE
 70
     2
  9
$LTSCALE
 40
0.6431102362
  9
$OSMODE
 70
  3839
  9
$ATTMODE
 70
     1
  9
$TEXTSIZE
 40
0.2
  9
$TRACEWID
 40
0.05
  9
$TEXTSTYLE
  7
STANDARD
  9
$CLAYER
  8
0
  9
$CELTYPE
  6
BYLAYER
  9
$CECOLOR
 62
   256
  9
$DIMSCALE
 40
1.0
  9
$DIMASZ
 40
0.1875
  9
$DIMEXO
 40
0.0625
  9
$DIMDLI
 40
0.4443307087
  9
$DIMRND
 40
0.0
  9
$DIMDLE
 40
0.0
  9
$DIMEXE
 40
0.125
  9
$DIMTP
 40
0.01
  9
$DIMTM
 40
0.01
  9
$DIMTXT
 40
2.0
  9
$DIMCEN
 40
0.1052362205
  9
$DIMTSZ
 40
0.0
  9
$DIMTOL
 70
     1
  9
$DIMLIM
 70
     0
  9
$DIMTIH
 70
     1
  9
$DIMTOH
 70
     1
  9
$DIMSE1
 70
     0
  9
$DIMSE2
 70
     0
  9
$DIMTAD
 70
     0
  9
$DIMZIN
 70
     0
  9
$DIMBLK
  1

  9
$DIMASO
 70
     1
  9
$DIMSHO
 70
     1
  9
$DIMPOST
  1
\X
  9
$DIMAPOST
  1

  9
$DIMALT
 70
     1
  9
$DIMALTD
 70
     2
  9
$DIMALTF
 40
25.3999999999999986
  9
$DIMLFAC
 40
1.0
  9
$DIMTOFL
 70
     0
  9
$DIMTVP
 40
0.0
  9
$DIMTIX
 70
     0
  9
$DIMSOXD
 70
     0
  9
$DIMSAH
 70
     0
  9
$DIMBLK1
  1

  9
$DIMBLK2
  1

  9
$DIMSTYLE
  2
STANDARD
  9
$DIMCLRD
 70
     0
  9
$DIMCLRE
 70
     0
  9
$DIMCLRT
 70
     0
  9
$DIMTFAC
 40
1.0
  9
$DIMGAP
 40
0.09
  9
$LUNITS
 70
     2
  9
$LUPREC
 70
     4
  9
$SKETCHINC
 40
0.1
  9
$FILLETRAD
 40
0.0
  9
$AUNITS
 70
     0
  9
$AUPREC
 70
     0
  9
$MENU
  1
.
  9
$ELEVATION
 40
0.0
  9
$PELEVATION
 40
0.0
  9
$THICKNESS
 40
0.0
  9
$LIMCHECK
 70
     0
  9
$BLIPMODE
 70
     0
  9
$CHAMFERA
 40
0.0
  9
$CHAMFERB
 40
0.0
  9
$SKPOLY
 70
     0
  9
$TDCREATE
 40
2458060.468368056230247
  9
$TDUPDATE
 40
2460419.3937268517911434
  9
$TDINDWG
 40
0.4887107639
  9
$TDUSRTIMER
 40
0.4887107639
  9
$USRTIMER
 70
     1
  9
$ANGBASE
 50
0.0
  9
$ANGDIR
 70
     0
  9
$PDMODE
 70
     0
  9
$PDSIZE
 40
0.3125
  9
$PLINEWID
 40
0.0
  9
$COORDS
 70
     1
  9
$SPLFRAME
 70
     0
  9
$SPLINETYPE
 70
     6
  9
$SPLINESEGS
 70
     8
  9
$ATTDIA
 70
     1
  9
$ATTREQ
 70
     1
  9
$HANDLING
 70
     1
  9
$HANDSEED
  5
30C22
  9
$SURFTAB1
 70
     6
  9
$SURFTAB2
 70
     6
  9
$SURFTYPE
 70
     6
  9
$SURFU
 70
     6
  9
$SURFV
 70
     6
  9
$UCSNAME
  2

  9
$UCSORG
 10
0.0
 20
0.0
 30
0.0
  9
$UCSXDIR
 10
1.0
 20
0.0
 30
0.0
  9
$UCSYDIR
 10
0.0
 20
1.0
 30
0.0
  9
$PUCSNAME
  2

  9
$PUCSORG
 10
0.0
 20
0.0
 30
0.0
  9
$PUCSXDIR
 10
1.0
 20
0.0
 30
0.0
  9
$PUCSYDIR
 10
0.0
 20
1.0
 30
0.0
  9
$USERI1
 70
     0
  9
$USERI2
 70
     0
  9
$USERI3
 70
     0
  9
$USERI4
 70
     0
  9
$USERI5
 70
     0
  9
$USERR1
 40
0.0
  9
$USERR2
 40
0.0
  9
$USERR3
 40
0.0
  9
$USERR4
 40
0.0
  9
$USERR5
 40
0.0
  9
$WORLDVIEW
 70
     1
  9
$SHADEDGE
 70
     3
  9
$SHADEDIF
 70
    70
  9
$TILEMODE
 70
     1
  9
$MAXACTVP
 70
    64
  9
$PLIMCHECK
 70
     0
  9
$PEXTMIN
 10
1.0000000000000000E+20
 20
1.0000000000000000E+20
 30
1.0000000000000000E+20
  9
$PEXTMAX
 10
-1.0000000000000000E+20
 20
-1.0000000000000000E+20
 30
-1.0000000000000000E+20
  9
$PLIMMIN
 10
0.0
 20
0.0
  9
$PLIMMAX
 10
12.0
 20
9.0
  9
$UNITMODE
 70
     0
  9
$VISRETAIN
 70
     1
  9
$PLINEGEN
 70
     0
  9
$PSLTSCALE
 70
     1
  0
ENDSEC
  0
SECTION
  2
TABLES
  0
TABLE
  2
VPORT
 70
     1
  0
VPORT
  2
*ACTIVE
 70
     0
 10
0.0
 20
0.0
 11
1.0
 21
1.0
 12
-748.0576321562530211
 22
-77.2719182861141149
 13
0.0
 23
0.0
 14
1.0
 24
1.0
 15
0.0
 25
0.0
 16
0.0
 26
0.0
 36
17.1152628219792007
 17
3803.5440673828129547
 27
125.9952621967499056
 37
0.0
 40
19.4046800559943016
 41
2.1211111111111101
 42
50.0
 43
0.0
 44
0.0
 50
0.0
 51
0.0
 71
     0
 72
   100
 73
     1
 74
     1
 75
     0
 76
     0
 77
     0
 78
     0
  0
ENDTAB
  0
TABLE
  2
LTYPE
 70
     2
  0
LTYPE
  2
CONTINUOUS
 70
     0
  3
Solid line
 72
    65
 73
     0
 40
0.0
  0
LTYPE
  2
PHANTOM2
 70
     0
  3
___ _ _ ___ _ _ ___ _ _ ___ _ _
 72
    65
 73
     6
 40
1.25
 49
0.625
 49
-0.125
 49
0.125
 49
-0.125
 49
0.125
 49
-0.125
  0
ENDTAB
  0
TABLE
  2
LAYER
 70
     2
  0
LAYER
  2
0
 70
     0
 62
   255
  6
CONTINUOUS
  0
LAYER
  2
DEFPOINTS
 70
     0
 62
     7
  6
CONTINUOUS
  0
ENDTAB
  0
TABLE
  2
STYLE
 70
     1
  0
STYLE
  2
STANDARD
 70
     0
 40
0.0
 41
0.8
 50
0.0
 71
     0
 42
0.2
  3
txt
  4

  0
ENDTAB
  0
TABLE
  2
VIEW
 70
     0
  0
ENDTAB
  0
TABLE
  2
UCS
 70
     0
  0
ENDTAB
  0
TABLE
  2
APPID
 70
    10
  0
APPID
  2
ACAD
 70
     0
  0
APPID
  2
ACAD_MLEADERVER
 70
     0
  0
APPID
  2
ACAD_EXEMPT_FROM_CAD_STANDARDS
 70
     0
  0
APPID
  2
ACAD_NAV_VCDISPLAY
 70
     0
  0
APPID
  2
ACAECLAYERSTANDARD
 70
     0
  0
APPID
  2
ACCMTRANSPARENCY
 70
     0
  0
APPID
  2
ACAD_DSTYLE_DIMJAG
 70
     0
  0
APPID
  2
ACAD_DSTYLE_DIMTALN
 70
     0
  0
APPID
  2
ACDBATTR
 70
     0
  0
APPID
  2
DCO15
 70
     0
  0
ENDTAB
  0
TABLE
  2
DIMSTYLE
 70
     1
  0
DIMSTYLE
  2
STANDARD
 70
     0
  3

  4

  5

  6

  7

 40
1.0
 41
0.1875
 42
0.0625
 43
0.38
 44
0.125
 45
0.0
 46
0.0
 47
0.01
 48
0.01
140
0.15625
141
0.09
142
0.0
143
25.3999999999999986
144
1.0
145
0.0
146
1.0
147
0.09
 71
     1
 72
     0
 73
     1
 74
     1
 75
     0
 76
     0
 77
     0
 78
     4
170
     0
171
     2
172
     0
173
     0
174
     0
175
     0
176
     0
177
     0
178
     0
  0
ENDTAB
  0
ENDSEC
  0
SECTION
  2
BLOCKS
  0
BLOCK
  8
0
  2
$MODEL_SPACE
 70
     0
 10
0.0
 20
0.0
 30
0.0
  3
$MODEL_SPACE
  1

  0
ENDBLK
  5
21
  8
0
  0
BLOCK
 67
     1
  8
0
  2
$PAPER_SPACE
 70
     0
 10
0.0
 20
0.0
 30
0.0
  3
$PAPER_SPACE
  1

  0
ENDBLK
  5
1D
 67
     1
  8
0
  0
BLOCK
  8
0
  2
_FILLED
 70
     0
 10
0.0
 20
0.0
 30
0.0
  3
_FILLED
  1

  0
SOLID
  5
2F55F
  8
0
  6
BYBLOCK
 62
     0
 10
0.0
 20
0.0
 30
0.0
 11
-1.0
 21
0.1666666667
 31
0.0
 12
-1.0
 22
-0.1666666667
 32
0.0
 13
-1.0
 23
-0.1666666667
 33
0.0
  0
ENDBLK
  5
2F560
  8
0
  6
BYBLOCK
 62
     0
  0
ENDSEC
  0
SECTION
  2
ENTITIES
  0
LINE
  5
30578
  8
0
 10
3051.7623580909748853
 20
56.6472461849019098
 30
0.0
 11
3059.3823581273759373
 21
56.6472461849018813
 31
0.0
  0
ARC
  5
30579
  8
0
 10
3051.7776704336288276
 20
55.3654915000367609
 30
0.0
 40
1.2818461452184089
 50
90.6844452264668774
 51
140.8029150094442912
  0
ARC
  5
3057A
  8
0
 10
3059.2834098203848043
 20
49.4603277764982323
 30
0.0
 40
10.8319128653940098
 50
141.6872933703592139
 51
177.769193896453487
  0
ARC
  5
3057B
  8
0
 10
3064.7096600385639249
 20
49.4742989072123507
 30
0.0
 40
16.2550666181318206
 50
178.5629246830484078
 51
181.3221003947278973
  0
ARC
  5
3057C
  8
0
 10
3061.7093406581020645
 20
49.5771372784112927
 30
0.0
 40
13.2590349030697094
 50
182.0655394263189066
 51
221.4190508135069138
  0
ARC
  5
3057D
  8
0
 10
3055.5720320847080984
 20
44.1547518998300106
 30
0.0
 40
5.0694851124722424
 50
221.351314044479011
 51
270.0036847580349217
  0
ARC
  5
3057E
  8
0
 10
3059.3670457847210855
 20
55.3654915000367609
 30
0.0
 40
1.2818461452184089
 50
39.197084990555723
 51
89.3155547735331083
  0
ARC
  5
3057F
  8
0
 10
3051.8612563478941411
 20
49.4568556558835368
 30
0.0
 40
10.8341050231984397
 50
2.2487307198033979
 51
38.3269502214781426
  0
ARC
  5
30580
  8
0
 10
3046.4370641645091382
 20
49.4742989072123507
 30
0.0
 40
16.2550666181318206
 50
358.6778996052721027
 51
1.4370753169515551
  0
ARC
  5
30581
  8
0
 10
3049.435353329236932
 20
49.5803544189281027
 30
0.0
 40
13.2611801261551605
 50
318.5705893463692746
 51
357.920885897501023
  0
ARC
  5
30582
  8
0
 10
3055.5726841336440884
 20
44.1547518998300106
 30
0.0
 40
5.0694851124722451
 50
269.9963152419650783
 51
318.648685955520989
  0
LINE
  5
3065E
  8
0
 10
3051.6214432062261039
 20
56.6377817945172666
 30
0.0
 11
3051.621565927804113
 21
56.9672520649018992
 31
0.0
  0
ARC
  5
3065F
  8
0
 10
3051.7495861480911117
 20
56.9672043797392575
 30
0.0
 40
0.1280202291686625
 50
103.5071253635883011
 51
179.9786583835548868
  0
ARC
  5
30660
  8
0
 10
3052.817325930368952
 20
52.5221834209866074
 30
0.0
 40
4.6994838423246508
 50
95.743194019860951
 51
103.5071253635883011
  0
ARC
  5
30661
  8
0
 10
3052.3529610889818287
 20
57.139296573306197
 30
0.0
 40
0.0590777644862837
 50
0.0259610683311736
 51
95.7431940198609936
  0
LINE
  5
30662
  8
0
 10
3052.4120388474038919
 20
57.139323341801898
 30
0.0
 11
3052.41203885149298
 21
56.6472461849019098
 31
0.0
  0
LINE
  5
30663
  8
0
 10
3052.4140388295040793
 20
56.6472461849019098
 30
0.0
 11
3052.4140388295040793
 21
57.1623721692019089
 31
0.0
  0
LINE
  5
30664
  8
0
 10
3052.4140388295040793
 20
57.1623721692019089
 30
0.0
 11
3052.4238813492029294
 21
57.1623721692019018
 31
0.0
  0
ARC
  5
30665
  8
0
 10
3052.4238813492029294
 20
57.1426871298018995
 30
0.0
 40
0.0196850394000059
 50
0.0000000000207627
 51
89.9999999999739515
  0
LINE
  5
30666
  8
0
 10
3052.4435663886038128
 20
57.1426871298019066
 30
0.0
 11
3052.4435663886038128
 21
56.6472461849019098
 31
0.0
  0
LINE
  5
30667
  8
0
 10
3052.4575663886039365
 20
56.6472461849019098
 30
0.0
 11
3052.4574945983108591
 21
57.1840976674891905
 31
0.0
  0
ARC
  5
30668
  8
0
 10
3052.3275644840068708
 20
57.1066549396703778
 30
0.0
 40
0.1300009142321072
 50
1.754938842031484
 51
50.7015282336372124
  0
ARC
  5
30669
  8
0
 10
3052.8215663636810859
 20
57.7102461760025207
 30
0.0
 40
0.6499735966988045
 50
309.3007975163329206
 51
230.7018651264804987
  0
ARC
  5
3066A
  8
0
 10
3053.3155696625622113
 20
57.1066530943385686
 30
0.0
 40
0.1300032451738296
 50
129.2851283555783937
 51
180.0002570778779045
  0
LINE
  5
3066B
  8
0
 10
3053.1855663885689864
 20
57.1846576446008967
 30
0.0
 11
3053.1855663873670892
 21
56.6472461849019098
 31
0.0
  0
LINE
  5
3066C
  8
0
 10
3052.4120388295041266
 20
57.0934745314019096
 30
0.0
 11
3052.4140388295040793
 21
57.0934745314019096
 31
0.0
  0
LINE
  5
3066D
  8
0
 10
3052.4575131661808882
 20
57.0452461849018988
 30
0.0
 11
3052.4435663886038128
 21
57.0452461849018988
 31
0.0
  0
ARC
  5
3066E
  8
0
 10
3052.8215663636810859
 20
57.7102461760025207
 30
0.0
 40
0.6349978605605474
 50
315.5662630117254253
 51
224.5749305486656908
  0
ARC
  5
3066F
  8
0
 10
3052.8215663636810859
 20
57.7102461760025207
 30
0.0
 40
0.578516776793282
 50
304.7145269864936949
 51
235.2854737346816876
  0
ARC
  5
30670
  8
0
 10
3052.4877263517278152
 20
57.183918520969371
 30
0.0
 40
0.0302322842026111
 50
95.9332262811899454
 51
179.6604821685897946
  0
ARC
  5
30671
  8
0
 10
3052.6221183103898511
 20
57.5762884208296128
 30
0.0
 40
0.4013881784180806
 50
230.9485075418056965
 51
236.5132458848914894
  0
ARC
  5
30672
  8
0
 10
3052.4417313857748013
 20
57.3036165648235496
 30
0.0
 40
0.074448759519693
 50
236.5132458848916883
 51
247.1366460589428868
  0
ARC
  5
30673
  8
0
 10
3052.4426990377778566
 20
57.2965492233300111
 30
0.0
 40
0.0684094142516426
 50
244.0886192082936077
 51
258.8536092683784204
  0
ARC
  5
30674
  8
0
 10
3052.4347704542938118
 20
57.2577127888367272
 30
0.0
 40
0.028774125880669
 50
259.393839957042303
 51
279.4645336002997169
  0
ARC
  5
30675
  8
0
 10
3052.8215466476431175
 20
53.7504576570146071
 30
0.0
 40
3.4997876116095421
 50
95.0218130162751748
 51
96.2670247318200154
  0
ARC
  5
30676
  8
0
 10
3052.8215652985668385
 20
53.7502729205688183
 30
0.0
 40
3.499973271543658
 50
84.2732708787427356
 51
95.0218524430558915
  0
ARC
  5
30677
  8
0
 10
3052.8228066801971181
 20
53.7618407518306185
 30
0.0
 40
3.4883393048317348
 50
83.7324906678019119
 51
84.2745996934295363
  0
ARC
  5
30678
  8
0
 10
3053.2074062171959667
 20
57.2771666527411512
 30
0.0
 40
0.0479850634480684
 50
265.4875353927851052
 51
298.5390180722288278
  0
ARC
  5
30679
  8
0
 10
3053.1351003270269757
 20
57.421479757620439
 30
0.0
 40
0.20937795151623
 50
297.053911283426487
 51
311.923373778752989
  0
ARC
  5
3067A
  8
0
 10
3052.8215601103238441
 20
53.7296209840588475
 30
0.0
 40
3.5006229025884679
 50
84.477404945840405
 51
95.5236621920276008
  0
ARC
  5
3067B
  8
0
 10
3053.1555626717249652
 20
57.1841263279861565
 30
0.0
 40
0.030008420849469
 50
1.014508245177822
 51
84.4708191683266563
  0
LINE
  5
3067C
  8
0
 10
3054.0215137928998956
 20
56.6472461849019098
 30
0.0
 11
3054.0214464755267727
 21
56.967057685744642
 31
0.0
  0
ARC
  5
3067D
  8
0
 10
3053.8934262491948175
 20
56.9670307386667716
 30
0.0
 40
0.1280202291686625
 50
0.0120602334004531
 51
76.4835932533671183
  0
ARC
  5
3067E
  8
0
 10
3052.8249664289019165
 20
52.522182802141792
 30
0.0
 40
4.6994838423246499
 50
76.4835932533671183
 51
84.2475245970892388
  0
ARC
  5
3067F
  8
0
 10
3053.2900791935539928
 20
57.1392206711003112
 30
0.0
 40
0.0590777644862837
 50
84.2475245970892388
 51
179.9647575486245046
  0
LINE
  5
30680
  8
0
 10
3053.2310014402441993
 20
57.1392570096426695
 30
0.0
 11
3053.2309217349798018
 21
56.6472461849019027
 31
0.0
  0
LINE
  5
30681
  8
0
 10
3053.2289217569418724
 20
56.6472461849019098
 30
0.0
 11
3053.2290051918657809
 21
57.1623061607187495
 31
0.0
  0
LINE
  5
30682
  8
0
 10
3053.2290051918657809
 20
57.1623061607187495
 30
0.0
 11
3053.2191626722951696
 21
57.1623077551153287
 31
0.0
  0
ARC
  5
30683
  8
0
 10
3053.2191594835007891
 20
57.1426227159736015
 30
0.0
 40
0.0196850394000059
 50
89.9907186169845659
 51
179.9907186169349131
  0
LINE
  5
30684
  8
0
 10
3053.1994744443600212
 20
57.1426259047667671
 30
0.0
 11
3053.1993941974537847
 21
56.6472461849019098
 31
0.0
  0
LINE
  5
30685
  8
0
 10
3053.2309940310628917
 20
57.0934081998413419
 30
0.0
 11
3053.2289940310888596
 21
57.0934085238227169
 31
0.0
  0
LINE
  5
30686
  8
0
 10
3053.1855118824400961
 20
57.0451872203934087
 30
0.0
 11
3053.1994586598329988
 21
57.0451849611452531
 31
0.0
  0
LINE
  5
30687
  8
0
 10
3059.5232730121251734
 20
56.6377817945172666
 30
0.0
 11
3059.5231502905471643
 21
56.9672520649018992
 31
0.0
  0
ARC
  5
30688
  8
0
 10
3059.3951300702588014
 20
56.9672043797392575
 30
0.0
 40
0.1280202291686625
 50
0.0213416164450957
 51
76.4928746364116421
  0
ARC
  5
30689
  8
0
 10
3058.3273902879818706
 20
52.5221834209866074
 30
0.0
 40
4.6994838423246508
 50
76.4928746364116421
 51
84.2568059801390632
  0
ARC
  5
3068A
  8
0
 10
3058.7917551293689939
 20
57.139296573306197
 30
0.0
 40
0.0590777644862837
 50
84.2568059801390064
 51
179.9740389316687867
  0
LINE
  5
3068B
  8
0
 10
3058.7326773709478402
 20
57.139323341801898
 30
0.0
 11
3058.7326773668592068
 21
56.6472461849019098
 31
0.0
  0
LINE
  5
3068C
  8
0
 10
3058.730677388847198
 20
56.6472461849019098
 30
0.0
 11
3058.730677388847198
 21
57.1623721692019089
 31
0.0
  0
LINE
  5
3068D
  8
0
 10
3058.730677388847198
 20
57.1623721692019089
 30
0.0
 11
3058.7208348691478932
 21
57.1623721692019018
 31
0.0
  0
ARC
  5
3068E
  8
0
 10
3058.7208348691478932
 20
57.1426871298018995
 30
0.0
 40
0.0196850394000059
 50
90.0000000000260485
 51
179.9999999999791953
  0
LINE
  5
3068F
  8
0
 10
3058.7011498297470098
 20
57.1426871298019066
 30
0.0
 11
3058.7011498297470098
 21
56.6472461849019098
 31
0.0
  0
LINE
  5
30690
  8
0
 10
3058.6871498297477956
 20
56.6472461849019098
 30
0.0
 11
3058.6872216200399635
 21
57.1840976674891905
 31
0.0
  0
ARC
  5
30691
  8
0
 10
3058.8171517343439518
 20
57.1066549396703778
 30
0.0
 40
0.1300009142321072
 50
129.2984717663628089
 51
178.2450611579685074
  0
ARC
  5
30692
  8
0
 10
3058.3231498546701914
 20
57.7102461760025207
 30
0.0
 40
0.6499735966988045
 50
309.298134873519416
 51
230.6992024836671078
  0
ARC
  5
30693
  8
0
 10
3057.8291465557881565
 20
57.1066530943385686
 30
0.0
 40
0.1300032451738296
 50
359.9997429221222092
 51
50.7148716444215921
  0
LINE
  5
30694
  8
0
 10
3057.9591497958631408
 20
57.1846530323917293
 30
0.0
 11
3057.9591498309841882
 21
56.6472461849019098
 31
0.0
  0
LINE
  5
30695
  8
0
 10
3058.7326773888471507
 20
57.0934745314019096
 30
0.0
 11
3058.730677388847198
 21
57.0934745314019096
 31
0.0
  0
LINE
  5
30696
  8
0
 10
3058.6872030521699344
 20
57.0452461849018988
 30
0.0
 11
3058.7011498297470098
 21
57.0452461849018988
 31
0.0
  0
ARC
  5
30697
  8
0
 10
3058.3231498546701914
 20
57.7102461760025207
 30
0.0
 40
0.6349978605605474
 50
315.4250694513343092
 51
224.4337369882746032
  0
ARC
  5
30698
  8
0
 10
3058.3231498546701914
 20
57.7102461760025207
 30
0.0
 40
0.578516776793282
 50
304.7145262653183977
 51
235.2854730134847046
  0
ARC
  5
30699
  8
0
 10
3058.6569898666230074
 20
57.183918520969371
 30
0.0
 40
0.0302322842026111
 50
0.339517831410182
 51
84.0667737188100546
  0
ARC
  5
3069A
  8
0
 10
3058.5225979079609715
 20
57.5762884208296128
 30
0.0
 40
0.4013881784180806
 50
303.4867541151086243
 51
309.0514924581942751
  0
ARC
  5
3069B
  8
0
 10
3058.7029848325760213
 20
57.3036165648235496
 30
0.0
 40
0.074448759519693
 50
292.8633539410570847
 51
303.4867541151082833
  0
ARC
  5
3069C
  8
0
 10
3058.702017180572966
 20
57.2965492233300111
 30
0.0
 40
0.0684094142516426
 50
281.1463907316215227
 51
295.9113807917063923
  0
ARC
  5
3069D
  8
0
 10
3058.7099457640570108
 20
57.2577127888367272
 30
0.0
 40
0.028774125880669
 50
260.5354663997002831
 51
280.606160042957697
  0
ARC
  5
3069E
  8
0
 10
3058.3231695707081599
 20
53.7504576570146071
 30
0.0
 40
3.4997876116095421
 50
83.7329752681799846
 51
84.9781869837248252
  0
ARC
  5
3069F
  8
0
 10
3058.3231509197848936
 20
53.7502729205688183
 30
0.0
 40
3.499973271543658
 50
84.9781475569441085
 51
95.7267291212572786
  0
ARC
  5
306A0
  8
0
 10
3058.3219095381541592
 20
53.7618407518306185
 30
0.0
 40
3.4883393048317348
 50
95.7254003065704637
 51
96.2675093321981166
  0
ARC
  5
306A1
  8
0
 10
3057.9373100011539464
 20
57.2771666527411512
 30
0.0
 40
0.0479850634480684
 50
241.4609819277712006
 51
274.5124646072150085
  0
ARC
  5
306A2
  8
0
 10
3058.0096158913238469
 20
57.421479757620439
 30
0.0
 40
0.20937795151623
 50
228.076626221247011
 51
242.946088716573513
  0
ARC
  5
306A3
  8
0
 10
3058.3231561080269785
 20
53.7296209840588475
 30
0.0
 40
3.5006229025884679
 50
84.4763378079724134
 51
95.522595054159595
  0
ARC
  5
306A4
  8
0
 10
3057.9891435727199678
 20
57.1841355924366184
 30
0.0
 40
0.0299982398518828
 50
95.5119245343821746
 51
179.0116554816059988
  0
LINE
  5
306A5
  8
0
 10
3057.1232024254500175
 20
56.6472461849019098
 30
0.0
 11
3057.1232697428240499
 21
56.967057685744642
 31
0.0
  0
ARC
  5
306A6
  8
0
 10
3057.2512899691569146
 20
56.9670307386667716
 30
0.0
 40
0.1280202291686625
 50
103.5164067466328959
 51
179.98793976659951
  0
ARC
  5
306A7
  8
0
 10
3058.3197497894489061
 20
52.522182802141792
 30
0.0
 40
4.6994838423246499
 50
95.752475402910747
 51
103.5164067466328959
  0
ARC
  5
306A8
  8
0
 10
3057.8546370247968298
 20
57.1392206711003112
 30
0.0
 40
0.0590777644862837
 50
0.0352424513755128
 51
95.752475402910747
  0
LINE
  5
306A9
  8
0
 10
3057.913714778107078
 20
57.1392570096426695
 30
0.0
 11
3057.9137944833710208
 21
56.6472461849019027
 31
0.0
  0
LINE
  5
306AA
  8
0
 10
3057.9157944614089502
 20
56.6472461849019098
 30
0.0
 11
3057.9157110264859512
 21
57.1623061607187495
 31
0.0
  0
LINE
  5
306AB
  8
0
 10
3057.9157110264859512
 20
57.1623061607187495
 30
0.0
 11
3057.9255535460561077
 21
57.1623077551153287
 31
0.0
  0
ARC
  5
306AC
  8
0
 10
3057.9255567348500335
 20
57.1426227159736015
 30
0.0
 40
0.0196850394000059
 50
0.0092813830651032
 51
90.0092813830154341
  0
LINE
  5
306AD
  8
0
 10
3057.9452417739908014
 20
57.1426259047667671
 30
0.0
 11
3057.9453220208961284
 21
56.6472461849019098
 31
0.0
  0
LINE
  5
306AE
  8
0
 10
3057.9137221872879309
 20
57.0934081998413419
 30
0.0
 11
3057.915722187261963
 21
57.0934085238227169
 31
0.0
  0
LINE
  5
306AF
  8
0
 10
3057.9592043359120908
 20
57.0451872203934087
 30
0.0
 11
3057.9452575585178238
 21
57.0451849611452531
 31
0.0
  0
ATTDEF
  5
306B6
  8
DEFPOINTS
 10
3055.5618365190439363
 20
58.3576091007026605
 30
0.0
 40
0.001
  1
P70303-PGP
  3

  2
MODELNUMBER
 70
     0
1001
ACDBATTR
1070
     0
1070
     1
  0
ATTDEF
  5
306B7
  8
DEFPOINTS
 10
3055.5618365190439363
 20
58.3559424340359882
 30
0.0
 40
0.001
  1

  3

  2
TRADENAME
 70
     0
1001
ACDBATTR
1070
     0
1070
     1
  0
ATTDEF
  5
306B8
  8
DEFPOINTS
 10
3055.5618365190439363
 20
58.3542757673693302
 30
0.0
 40
0.001
  1
TOILET SEAT
  3

  2
PRODUCT
 70
     0
1001
ACDBATTR
1070
     0
1070
     1
  0
ENDSEC
  0
EOF
