  0
SECTION
  2
HEADER
  9
$ACADVER
  1
AC1009
  9
$INSBASE
 10
4594.9845209534132664
 20
216.7949036429307057
 30
0.0
  9
$EXTMIN
 10
4552.9525495505158688
 20
199.9989355413592023
 30
0.0
  9
$EXTMAX
 10
4622.3424438836727859
 20
218.912080837730997
 30
0.0
  9
$LIMMIN
 10
0.0
 20
0.0
  9
$LIMMAX
 10
11.6929133858000007
 20
8.2677165353999982
  9
$ORTHOMODE
 70
     0
  9
$REGENMODE
 70
     1
  9
$FILLMODE
 70
     1
  9
$QTEXTMODE
 70
     0
  9
$MIRRTEXT
 70
     0
  9
$DRAGMODE
 70
     2
  9
$LTSCALE
 40
0.6431102362
  9
$OSMODE
 70
  4095
  9
$ATTMODE
 70
     1
  9
$TEXTSIZE
 40
0.2
  9
$TRACEWID
 40
0.05
  9
$TEXTSTYLE
  7
STANDARD
  9
$CLAYER
  8
0
  9
$CELTYPE
  6
BYLAYER
  9
$CECOLOR
 62
   256
  9
$DIMSCALE
 40
1.0
  9
$DIMASZ
 40
0.1875
  9
$DIMEXO
 40
0.0625
  9
$DIMDLI
 40
0.4443307087
  9
$DIMRND
 40
0.0
  9
$DIMDLE
 40
0.0
  9
$DIMEXE
 40
0.125
  9
$DIMTP
 40
0.01
  9
$DIMTM
 40
0.01
  9
$DIMTXT
 40
2.0
  9
$DIMCEN
 40
0.1052362205
  9
$DIMTSZ
 40
0.0
  9
$DIMTOL
 70
     1
  9
$DIMLIM
 70
     0
  9
$DIMTIH
 70
     1
  9
$DIMTOH
 70
     1
  9
$DIMSE1
 70
     0
  9
$DIMSE2
 70
     0
  9
$DIMTAD
 70
     0
  9
$DIMZIN
 70
     0
  9
$DIMBLK
  1

  9
$DIMASO
 70
     1
  9
$DIMSHO
 70
     1
  9
$DIMPOST
  1
\X
  9
$DIMAPOST
  1

  9
$DIMALT
 70
     1
  9
$DIMALTD
 70
     2
  9
$DIMALTF
 40
25.3999999999999986
  9
$DIMLFAC
 40
1.0
  9
$DIMTOFL
 70
     0
  9
$DIMTVP
 40
0.0
  9
$DIMTIX
 70
     0
  9
$DIMSOXD
 70
     0
  9
$DIMSAH
 70
     0
  9
$DIMBLK1
  1

  9
$DIMBLK2
  1

  9
$DIMSTYLE
  2
STANDARD
  9
$DIMCLRD
 70
     0
  9
$DIMCLRE
 70
     0
  9
$DIMCLRT
 70
     0
  9
$DIMTFAC
 40
1.0
  9
$DIMGAP
 40
0.09
  9
$LUNITS
 70
     2
  9
$LUPREC
 70
     4
  9
$SKETCHINC
 40
0.1
  9
$FILLETRAD
 40
0.0
  9
$AUNITS
 70
     0
  9
$AUPREC
 70
     0
  9
$MENU
  1
.
  9
$ELEVATION
 40
0.0
  9
$PELEVATION
 40
0.0
  9
$THICKNESS
 40
0.0
  9
$LIMCHECK
 70
     0
  9
$BLIPMODE
 70
     0
  9
$CHAMFERA
 40
0.0
  9
$CHAMFERB
 40
0.0
  9
$SKPOLY
 70
     0
  9
$TDCREATE
 40
2458060.468368056230247
  9
$TDUPDATE
 40
2459816.7277314821258187
  9
$TDINDWG
 40
0.5285950230999999
  9
$TDUSRTIMER
 40
0.5285950230999999
  9
$USRTIMER
 70
     1
  9
$ANGBASE
 50
0.0
  9
$ANGDIR
 70
     0
  9
$PDMODE
 70
     0
  9
$PDSIZE
 40
0.3125
  9
$PLINEWID
 40
0.0
  9
$COORDS
 70
     1
  9
$SPLFRAME
 70
     0
  9
$SPLINETYPE
 70
     6
  9
$SPLINESEGS
 70
     8
  9
$ATTDIA
 70
     1
  9
$ATTREQ
 70
     1
  9
$HANDLING
 70
     1
  9
$HANDSEED
  5
10CD8
  9
$SURFTAB1
 70
     6
  9
$SURFTAB2
 70
     6
  9
$SURFTYPE
 70
     6
  9
$SURFU
 70
     6
  9
$SURFV
 70
     6
  9
$UCSNAME
  2

  9
$UCSORG
 10
0.0
 20
0.0
 30
0.0
  9
$UCSXDIR
 10
1.0
 20
0.0
 30
0.0
  9
$UCSYDIR
 10
0.0
 20
1.0
 30
0.0
  9
$PUCSNAME
  2

  9
$PUCSORG
 10
0.0
 20
0.0
 30
0.0
  9
$PUCSXDIR
 10
1.0
 20
0.0
 30
0.0
  9
$PUCSYDIR
 10
0.0
 20
1.0
 30
0.0
  9
$USERI1
 70
     0
  9
$USERI2
 70
     0
  9
$USERI3
 70
     0
  9
$USERI4
 70
     0
  9
$USERI5
 70
     0
  9
$USERR1
 40
0.0
  9
$USERR2
 40
0.0
  9
$USERR3
 40
0.0
  9
$USERR4
 40
0.0
  9
$USERR5
 40
0.0
  9
$WORLDVIEW
 70
     1
  9
$SHADEDGE
 70
     3
  9
$SHADEDIF
 70
    70
  9
$TILEMODE
 70
     1
  9
$MAXACTVP
 70
    64
  9
$PLIMCHECK
 70
     0
  9
$PEXTMIN
 10
1.0000000000000000E+20
 20
1.0000000000000000E+20
 30
1.0000000000000000E+20
  9
$PEXTMAX
 10
-1.0000000000000000E+20
 20
-1.0000000000000000E+20
 30
-1.0000000000000000E+20
  9
$PLIMMIN
 10
0.0
 20
0.0
  9
$PLIMMAX
 10
12.0
 20
9.0
  9
$UNITMODE
 70
     0
  9
$VISRETAIN
 70
     1
  9
$PLINEGEN
 70
     0
  9
$PSLTSCALE
 70
     1
  0
ENDSEC
  0
SECTION
  2
TABLES
  0
TABLE
  2
VPORT
 70
     1
  0
VPORT
  2
*ACTIVE
 70
     0
 10
0.0
 20
0.0
 11
1.0
 21
1.0
 12
801.0729026204957108
 22
71.2648103401600395
 13
0.0
 23
0.0
 14
1.0
 24
1.0
 15
0.0
 25
0.0
 16
0.0
 26
0.0
 36
17.1152628219792007
 17
3803.5440673828129547
 27
125.9952621967499056
 37
0.0
 40
110.5095016451978012
 41
2.0416666666666661
 42
50.0
 43
0.0
 44
0.0
 50
0.0
 51
0.0
 71
     0
 72
   100
 73
     1
 74
     1
 75
     0
 76
     0
 77
     0
 78
     0
  0
ENDTAB
  0
TABLE
  2
LTYPE
 70
     2
  0
LTYPE
  2
CONTINUOUS
 70
     0
  3
Solid line
 72
    65
 73
     0
 40
0.0
  0
LTYPE
  2
PHANTOM2
 70
     0
  3
___ _ _ ___ _ _ ___ _ _ ___ _ _
 72
    65
 73
     6
 40
1.25
 49
0.625
 49
-0.125
 49
0.125
 49
-0.125
 49
0.125
 49
-0.125
  0
ENDTAB
  0
TABLE
  2
LAYER
 70
     2
  0
LAYER
  2
0
 70
     0
 62
   255
  6
CONTINUOUS
  0
LAYER
  2
DEFPOINTS
 70
     0
 62
     7
  6
CONTINUOUS
  0
ENDTAB
  0
TABLE
  2
STYLE
 70
     1
  0
STYLE
  2
STANDARD
 70
     0
 40
0.0
 41
0.8
 50
0.0
 71
     0
 42
0.2
  3
txt
  4

  0
ENDTAB
  0
TABLE
  2
VIEW
 70
     0
  0
ENDTAB
  0
TABLE
  2
UCS
 70
     0
  0
ENDTAB
  0
TABLE
  2
APPID
 70
     9
  0
APPID
  2
ACAD
 70
     0
  0
APPID
  2
ACAD_MLEADERVER
 70
     0
  0
APPID
  2
ACAD_EXEMPT_FROM_CAD_STANDARDS
 70
     0
  0
APPID
  2
ACAD_NAV_VCDISPLAY
 70
     0
  0
APPID
  2
ACAECLAYERSTANDARD
 70
     0
  0
APPID
  2
ACCMTRANSPARENCY
 70
     0
  0
APPID
  2
ACAD_DSTYLE_DIMJAG
 70
     0
  0
APPID
  2
ACAD_DSTYLE_DIMTALN
 70
     0
  0
APPID
  2
ACDBATTR
 70
     0
  0
ENDTAB
  0
TABLE
  2
DIMSTYLE
 70
     1
  0
DIMSTYLE
  2
STANDARD
 70
     0
  3

  4

  5

  6

  7

 40
1.0
 41
0.1875
 42
0.0625
 43
0.38
 44
0.125
 45
0.0
 46
0.0
 47
0.01
 48
0.01
140
0.15625
141
0.09
142
0.0
143
25.3999999999999986
144
1.0
145
0.0
146
1.0
147
0.09
 71
     1
 72
     0
 73
     1
 74
     1
 75
     0
 76
     0
 77
     0
 78
     4
170
     0
171
     2
172
     0
173
     0
174
     0
175
     0
176
     0
177
     0
178
     0
  0
ENDTAB
  0
ENDSEC
  0
SECTION
  2
BLOCKS
  0
BLOCK
  8
0
  2
$MODEL_SPACE
 70
     0
 10
0.0
 20
0.0
 30
0.0
  3
$MODEL_SPACE
  1

  0
ENDBLK
  5
21
  8
0
  0
BLOCK
 67
     1
  8
0
  2
$PAPER_SPACE
 70
     0
 10
0.0
 20
0.0
 30
0.0
  3
$PAPER_SPACE
  1

  0
ENDBLK
  5
1D
 67
     1
  8
0
  0
BLOCK
  8
0
  2
_FILLED
 70
     0
 10
0.0
 20
0.0
 30
0.0
  3
_FILLED
  1

  0
SOLID
  5
107A2
  8
0
  6
BYBLOCK
 62
     0
 10
0.0
 20
0.0
 30
0.0
 11
-1.0
 21
0.1666666667
 31
0.0
 12
-1.0
 22
-0.1666666667
 32
0.0
 13
-1.0
 23
-0.1666666667
 33
0.0
  0
ENDBLK
  5
107A3
  8
0
  6
BYBLOCK
 62
     0
  0
ENDSEC
  0
SECTION
  2
ENTITIES
  0
ATTDEF
  5
3930
  8
DEFPOINTS
 10
4594.9856222952639655
 20
216.7927954400543911
 30
0.0
 40
0.001
  1
P70303-PB
  3

  2
MODELNUMBER
 70
     0
1001
ACDBATTR
1070
     0
1070
     1
  0
ATTDEF
  5
3931
  8
DEFPOINTS
 10
4594.9856222952639655
 20
216.7911287733876975
 30
0.0
 40
0.001
  1

  3

  2
TRADENAME
 70
     0
1001
ACDBATTR
1070
     0
1070
     1
  0
ATTDEF
  5
3932
  8
DEFPOINTS
 10
4594.9856222952639655
 20
216.7894621067210039
 30
0.0
 40
0.001
  1
TOILET SEAT
  3

  2
PRODUCT
 70
     0
1001
ACDBATTR
1070
     0
1070
     1
  0
LINE
  5
10B48
  8
0
 10
4592.9275693400522869
 20
218.9120808377307128
 30
0.0
 11
4592.942532927373577
 21
218.9120808377307128
 31
0.0
  0
LINE
  5
10B49
  8
0
 10
4575.8379525957107035
 20
217.0360090977306982
 30
0.0
 11
4587.163854838190673
 21
217.0360090977306982
 31
0.0
  0
LINE
  5
10B4A
  8
0
 10
4575.9482184526341371
 20
217.5619203871306979
 30
0.0
 11
4586.5963264276751943
 21
217.5619203871306979
 31
0.0
  0
LINE
  5
10B4B
  8
0
 10
4575.8389525957118167
 20
217.744984546130695
 30
0.0
 11
4587.5312819436712743
 21
217.744984546130695
 31
0.0
  0
LINE
  5
10B4C
  8
0
 10
4575.7075479279119463
 20
217.8079845455307009
 30
0.0
 11
4586.5193712053423951
 21
217.8079845455307009
 31
0.0
  0
LINE
  5
10B4D
  8
0
 10
4576.0299490622883241
 20
218.4420071602430937
 30
0.0
 11
4578.6811675515964453
 21
218.4420071602430937
 31
0.0
  0
LINE
  5
10B4E
  8
0
 10
4578.1188208396588379
 20
216.9112344031308055
 30
0.0
 11
4580.432405898259276
 21
216.9112344031308055
 31
0.0
  0
LINE
  5
10B4F
  8
0
 10
4581.4506899217885802
 20
216.9112344031308055
 30
0.0
 11
4590.0045420516808008
 21
216.9112344031308055
 31
0.0
  0
LINE
  5
10B50
  8
0
 10
4580.8668802274141854
 20
216.796313137880702
 30
0.0
 11
4581.0224817124126275
 21
216.796313137880702
 31
0.0
  0
ARC
  5
10B51
  8
0
 10
4576.9709318509840159
 20
217.8620885620640877
 30
0.0
 40
1.2607058827519071
 50
161.7703764065387873
 51
177.913722070592911
  0
ARC
  5
10B52
  8
0
 10
4691.2659553461280666
 20
213.7976265805712899
 30
0.0
 40
115.6279745392158986
 50
177.9628135088032082
 51
178.0123955372075955
  0
ARC
  5
10B53
  8
0
 10
4576.0299490622883241
 20
218.1720071602431119
 30
0.0
 40
0.27
 50
90.0
 51
161.7703764065387873
  0
ARC
  5
10B54
  8
0
 10
4575.8409085294870238
 20
217.8783489548684997
 30
0.0
 40
0.133378750912247
 50
211.8402943616586072
 51
269.1597554590343861
  0
ARC
  5
10B55
  8
0
 10
4575.8394069183550528
 20
217.1685720426256125
 30
0.0
 40
0.1325709222022546
 50
211.6500357585296115
 51
269.3714442085237124
  0
ARC
  5
10B56
  8
0
 10
4580.7300071685012881
 20
216.9227575328712021
 30
0.0
 40
5.0265502115391678
 50
176.849541279492513
 51
177.9905725540197068
  0
ARC
  5
10B57
  8
0
 10
4576.9551958928914246
 20
217.1305282805294041
 30
0.0
 40
1.2460252678230139
 50
170.4820560303199954
 51
176.849541279492513
  0
ARC
  5
10B58
  8
0
 10
4575.9932927530080633
 20
217.2956164984439908
 30
0.0
 40
0.2700915653696774
 50
99.6067704428294149
 51
171.2794258616401919
  0
ARC
  5
10B59
  8
0
 10
4575.9131928175738722
 20
217.769348835793096
 30
0.0
 40
0.210364817462247
 50
279.5843540424743878
 51
323.1041996339091043
  0
ARC
  5
10B5A
  8
0
 10
4576.316549070511428
 20
217.4567247972308053
 30
0.0
 40
0.3000010581999981
 50
106.0843288355049054
 51
141.6038778970707881
  0
ARC
  5
10B5B
  8
0
 10
4577.0911462875119469
 20
215.7439652113309023
 30
0.0
 40
1.502217828799743
 50
53.9808052214369312
 51
59.3282762945060824
  0
ARC
  5
10B5C
  8
0
 10
4578.1214284637790115
 20
217.1609631862266951
 30
0.0
 40
0.2497423969015097
 50
233.9720070756582118
 51
269.401749269153413
  0
ARC
  5
10B5D
  8
0
 10
4560.8015165818942478
 20
214.5253613893021054
 30
0.0
 40
19.713600479419231
 50
7.1804345956459219
 51
7.3168365705925673
  0
ARC
  5
10B5E
  8
0
 10
4580.3725490471124431
 20
216.9909682616207078
 30
0.0
 40
0.0121321813326604
 50
187.180434595650695
 51
219.2080726685126137
  0
ARC
  5
10B5F
  8
0
 10
4580.8403976876988963
 20
217.3726460784342009
 30
0.0
 40
0.6159204772995643
 50
219.2080726685138075
 51
228.5160785461648061
  0
ARC
  5
10B60
  8
0
 10
4580.6861879216503439
 20
217.1982450528678044
 30
0.0
 40
0.3831193397085453
 50
228.5160785461648061
 51
259.8978872510348879
  0
ARC
  5
10B61
  8
0
 10
4580.9037754474802568
 20
218.4195136089765867
 30
0.0
 40
1.623619729687144
 50
259.8978872510348879
 51
268.6978956148382167
  0
ARC
  5
10B62
  8
0
 10
4591.0151930995280054
 20
215.8057238619983877
 30
0.0
 40
9.5661299568289007
 50
172.6108177113501938
 51
172.8919111224242897
  0
ARC
  5
10B63
  8
0
 10
4581.5107672333379014
 20
216.9909253370719
 30
0.0
 40
0.0119081294609214
 50
324.9602778290303036
 51
352.8919111224195149
  0
ARC
  5
10B64
  8
0
 10
4581.0668792830310849
 20
217.3489891706043977
 30
0.0
 40
0.5821854024879555
 50
311.2433415141892965
 51
321.1872161454490993
  0
ARC
  5
10B65
  8
0
 10
4581.0140502174463109
 20
218.0517284945549932
 30
0.0
 40
1.255443669736322
 50
270.3847983942360997
 51
281.9420054191469944
  0
ARC
  5
10B66
  8
0
 10
4581.1919857197726742
 20
217.2104215793735023
 30
0.0
 40
0.3955260175624351
 50
281.9419986334478949
 51
310.8496486970158799
  0
ARC
  5
10B67
  8
0
 10
4590.0044068965462429
 20
217.1515536659946974
 30
0.0
 40
0.2403193008694545
 50
270.0322230431750086
 51
301.5813071463281858
  0
ARC
  5
10B68
  8
0
 10
4590.9070618622081383
 20
215.6638808680413888
 30
0.0
 40
1.499787823541239
 50
110.0479017024830029
 51
121.1940701035067036
  0
ARC
  5
10B69
  8
0
 10
4574.6663041403444367
 20
274.2466520611379792
 30
0.0
 40
55.9488831052594122
 50
274.1150528717083148
 51
275.5818894396156225
  0
ARC
  5
10B6A
  8
0
 10
4589.2462865843299369
 20
127.5597646787520034
 30
0.0
 40
91.4609364400361784
 50
94.4399230663716338
 51
95.7340299119132538
  0
ARC
  5
10B6B
  8
0
 10
4584.0394517821432601
 20
195.4204143883403901
 30
0.0
 40
23.4009348469984602
 50
91.0648935523651346
 51
94.5920635386935942
  0
ARC
  5
10B6C
  8
0
 10
4584.4271488061503987
 20
174.5630758022913085
 30
0.0
 40
44.2618763855655928
 50
87.9257203175969551
 51
91.0648935523651346
  0
ARC
  5
10B6D
  8
0
 10
4582.4614247663048445
 20
120.2895453979459006
 30
0.0
 40
98.5709932404015632
 50
86.6001476391474512
 51
87.9257203175969551
  0
ARC
  5
10B6E
  8
0
 10
4589.4501728284230921
 20
237.9286777201795928
 30
0.0
 40
19.2755512698374716
 50
266.600147639147508
 51
271.1195424017349751
  0
ARC
  5
10B6F
  8
0
 10
4589.3814342098912675
 20
241.446125100048306
 30
0.0
 40
22.7936702371015016
 50
271.1195424017349751
 51
274.9063203107297113
  0
ARC
  5
10B70
  8
0
 10
4547.9888927757538113
 20
619.0202241545046036
 30
0.0
 40
402.6239076355831799
 50
276.1798013300027037
 51
276.408394286263615
  0
ARC
  5
10B71
  8
0
 10
4592.014773353594137
 20
218.3230174124271059
 30
0.0
 40
1.2510908704636969
 50
2.0597880251258691
 51
18.9784750872607795
  0
ARC
  5
10B72
  8
0
 10
4592.942532927373577
 20
218.6420808377307878
 30
0.0
 40
0.27
 50
18.9784750872515389
 51
90.0
  0
ARC
  5
10B73
  8
0
 10
4597.4794893025218698
 20
218.440739548338712
 30
0.0
 40
4.2144835450393323
 50
180.9880738352657943
 51
182.3492573701240929
  0
ARC
  5
10B74
  8
0
 10
4586.5185885049249919
 20
267.5618518263382271
 30
0.0
 40
49.7538672869640095
 50
270.0009013456282787
 51
277.2493404128188104
  0
ARC
  5
10B75
  8
0
 10
4586.5187632358147312
 20
267.5604782030059141
 30
0.0
 40
49.7524825949610516
 50
277.2493404128188104
 51
277.7972080369746095
  0
ARC
  5
10B76
  8
0
 10
4593.134391722829605
 20
218.3392711606877867
 30
0.0
 40
0.1345783360494671
 50
280.9983298131372749
 51
326.4870500425315072
  0
ARC
  5
10B77
  8
0
 10
4589.0833363794508841
 20
244.9397048707861018
 30
0.0
 40
27.0416056418613486
 50
278.3891391789322824
 51
278.6708388781553936
  0
ARC
  5
10B78
  8
0
 10
4588.6930724255125824
 20
247.9408074405492073
 30
0.0
 40
30.0675787385210391
 50
276.2299790093769047
 51
278.290508450944003
  0
ARC
  5
10B79
  8
0
 10
4586.0808335866040579
 20
270.8936979788553003
 30
0.0
 40
53.1685013893602729
 50
271.5632353446835054
 51
276.3441553234243884
  0
ARC
  5
10B7A
  8
0
 10
4583.99644560577417
 20
636.8589737566198892
 30
0.0
 40
419.8349129553478178
 50
270.432267296102907
 51
270.8729753208680222
  0
ARC
  5
10B7B
  8
0
 10
4586.5534588351747516
 20
469.0481254341609088
 30
0.0
 40
252.0045845538379012
 50
270.8729753208680222
 51
271.1529410938283036
  0
ARC
  5
10B7C
  8
0
 10
4593.5876988768850424
 20
139.4428422944235137
 30
0.0
 40
77.6765405101440933
 50
90.6571523568416211
 51
91.4485379733649069
  0
ARC
  5
10B7D
  8
0
 10
4585.6786681122521259
 20
525.8116257906309556
 30
0.0
 40
308.712646006680302
 50
270.02456941266081
 51
271.3046436999994739
  0
ARC
  5
10B7E
  8
0
 10
4585.3347367011474489
 20
535.0415297781679556
 30
0.0
 40
317.4821160124200219
 50
270.2276788310334155
 51
271.2190521803465231
  0
ARC
  5
10B7F
  8
0
 10
4592.0230141759029721
 20
220.7381299384063027
 30
0.0
 40
3.107562006513743
 50
271.2190521803465231
 51
275.1378797374810006
  0
ARC
  5
10B80
  8
0
 10
4592.275617149082791
 20
217.9287473973344902
 30
0.0
 40
0.286846047020801
 50
275.1378797374810006
 51
305.5124865149560947
  0
ARC
  5
10B81
  8
0
 10
4591.0515851371219469
 20
42.2057734542618093
 30
0.0
 40
175.5745060233105903
 50
89.7451316244831219
 51
91.148868572988377
  0
ARC
  5
10B82
  8
0
 10
4591.779834029790436
 20
192.51137205847931
 30
0.0
 40
25.2672254225710411
 50
88.829978035424034
 51
89.880372469869485
  0
ARC
  5
10B83
  8
0
 10
4592.3183795711202038
 20
217.3929342616393114
 30
0.0
 40
0.3810662279355792
 50
2.1006816195920681
 51
93.4009663267835322
  0
LINE
  5
10B84
  8
0
 10
4592.7075489247336009
 20
217.1790082030373128
 30
0.0
 11
4592.6991897064608565
 21
217.406902471804699
 31
0.0
  0
ARC
  5
10B85
  8
0
 10
4592.3709439349222521
 20
217.3685959240457919
 30
0.0
 40
0.334352918233211
 50
14.2456369879907392
 51
77.687109851158894
  0
ARC
  5
10B86
  8
0
 10
4592.5651742636337076
 20
217.2584214628323878
 30
0.0
 40
0.1459011739318404
 50
273.3018704470861735
 51
326.8050232232685062
  0
ARC
  5
10B87
  8
0
 10
4592.6975345275695872
 20
217.1572877544817004
 30
0.0
 40
0.0430201318762579
 50
269.0343080785253846
 51
354.7190423469464804
  0
ARC
  5
10B88
  8
0
 10
4680.9391966094308373
 20
212.7610515230306873
 30
0.0
 40
88.3081239036582417
 50
176.8506942444691106
 51
177.1490415310636877
  0
ARC
  5
10B89
  8
0
 10
4593.2915456244518282
 20
217.5849085581818088
 30
0.0
 40
0.5278299753039098
 50
116.1074210248004022
 51
177.0002853908198119
  0
ARC
  5
10B8A
  8
0
 10
4593.2915479863113433
 20
217.5849058726307135
 30
0.0
 40
0.5278334261999963
 50
28.7530250928360402
 51
116.1075229619626015
  0
ARC
  5
10B8B
  8
0
 10
4593.2938078051092816
 20
217.5848671751425911
 30
0.0
 40
0.5258720496085602
 50
329.162748046947172
 51
28.8751600661460515
  0
ARC
  5
10B8C
  8
0
 10
4593.1397251349771977
 20
217.6258454115836116
 30
0.0
 40
0.6805877837385529
 50
269.9744268604808894
 51
332.8524604563070284
  0
ARC
  5
10B8D
  8
0
 10
4636.5120825574631453
 20
224.9958595077766006
 30
0.0
 40
45.6461608710581785
 50
189.9697737393969987
 51
190.0777881543656065
  0
ARC
  5
10B8E
  8
0
 10
4591.6448382992239203
 20
217.0217303773208073
 30
0.0
 40
0.0758158787531661
 50
190.0777881543608032
 51
270.9184284058202934
  0
ARC
  5
10B8F
  8
0
 10
4591.9975384268864218
 20
-668.4847976284924016
 30
0.0
 40
885.430791630793351
 50
89.9261093111156242
 51
90.0227444098462399
  0
ARC
  5
10B90
  8
0
 10
4591.9760683147378586
 20
215.4675966474021038
 30
0.0
 40
1.502989147304068
 50
89.5658077420830949
 51
92.2804325429957544
  0
ARC
  5
10B91
  8
0
 10
4591.9586310802578737
 20
215.9054751252990059
 30
0.0
 40
1.0647636134157941
 50
92.2804325429957544
 51
95.1092179514560456
  0
ARC
  5
10B92
  8
0
 10
4591.9011761181700422
 20
216.54807771101909
 30
0.0
 40
0.4195976224936428
 50
95.1092179514560456
 51
98.9996291617688513
  0
ARC
  5
10B93
  8
0
 10
4591.8500436802996774
 20
216.8709287422651926
 30
0.0
 40
0.0927225476113974
 50
98.9996291617688513
 51
106.5427479230714027
  0
ARC
  5
10B94
  8
0
 10
4591.8267023315811457
 20
216.9495124662255137
 30
0.0
 40
0.0107455982203236
 50
106.542747923122306
 51
126.6853284335733036
  0
ARC
  5
10B95
  8
0
 10
4591.8208386491605779
 20
216.9573834051836059
 30
0.0
 40
0.000930586676675
 50
126.6853284336237948
 51
226.4261819601642003
  0
ARC
  5
10B96
  8
0
 10
4591.8235111408839657
 20
216.9601923670840051
 30
0.0
 40
0.0048077607718783
 50
226.4261819601607897
 51
258.687269829320428
  0
ARC
  5
10B97
  8
0
 10
4591.8408538505700562
 20
217.0220200862040087
 30
0.0
 40
0.0690088278388331
 50
254.6343560234170127
 51
264.2902045538654079
  0
ARC
  5
10B98
  8
0
 10
4591.8925756683247528
 20
217.5299588484849949
 30
0.0
 40
0.5795740338398115
 50
264.1982222230442972
 51
268.3866461997582746
  0
ARC
  5
10B99
  8
0
 10
4591.9777434935385827
 20
220.4831142429017916
 30
0.0
 40
3.5339571662624278
 50
268.3543969050859914
 51
271.3413222146040198
  0
ARC
  5
10B9A
  8
0
 10
4592.0489566639216719
 20
217.6706404214058921
 30
0.0
 40
0.7206069380581465
 50
270.9152787687925752
 51
275.6286825555201858
  0
ARC
  5
10B9B
  8
0
 10
4592.1134327616382507
 20
217.0122556966192917
 30
0.0
 40
0.0590741998996873
 50
276.0262252778222205
 51
286.4922994704704138
  0
ARC
  5
10B9C
  8
0
 10
4592.1284178848263764
 20
216.9612436056384865
 30
0.0
 40
0.0059078612754207
 50
287.5886450545158937
 51
308.8900278522435201
  0
ARC
  5
10B9D
  8
0
 10
4592.1314317807009502
 20
216.9573866852757931
 30
0.0
 40
0.0010164269079037
 50
313.1559680376727783
 51
56.38530905254526
  0
ARC
  5
10B9E
  8
0
 10
4592.115607662281036
 20
216.9261192237580929
 30
0.0
 40
0.0360531787764718
 50
62.9660763062909865
 51
81.9752420121988763
  0
ARC
  5
10B9F
  8
0
 10
4592.06394821570575
 20
216.6479259243324123
 30
0.0
 40
0.3189719920297409
 50
79.7621388504320805
 51
84.4716716371514593
  0
ARC
  5
10BA0
  8
0
 10
4591.9992640021600891
 20
215.9950812427831011
 30
0.0
 40
0.975012767998108
 50
84.3841324699794626
 51
87.8639188311930894
  0
ARC
  5
10BA1
  8
0
 10
4591.9773637057442102
 20
215.5091410605471083
 30
0.0
 40
1.4614364394940691
 50
87.7160125479256578
 51
89.604249523795886
  0
LINE
  5
10BA2
  8
0
 10
4592.959560649012019
 20
216.9454576966184902
 30
0.0
 11
4592.959560649012019
 21
216.8069036616070946
 31
0.0
  0
ARC
  5
10BA3
  8
0
 10
4593.2915479279108695
 20
217.5849058054307079
 30
0.0
 40
0.5600000000000068
 50
165.5708861215998127
 51
196.4256529774064006
  0
ARC
  5
10BA4
  8
0
 10
4593.2915479279108695
 20
217.5849058054307079
 30
0.0
 40
0.5599999999999845
 50
101.7607271388866934
 51
165.5708861215998127
  0
ARC
  5
10BA5
  8
0
 10
4593.2915479279108695
 20
217.5849058054307079
 30
0.0
 40
0.5600000000000137
 50
34.9090012089757309
 51
101.7607271388866934
  0
ARC
  5
10BA6
  8
0
 10
4593.2915479283010427
 20
217.5849058057029026
 30
0.0
 40
0.5599999995243832
 50
1.399999966632105
 51
34.9090012089757309
  0
LINE
  5
10BA7
  8
0
 10
4594.9786634100119045
 20
216.9749037453306926
 30
0.0
 11
4594.9845209534132664
 21
216.8073045019422125
 31
0.0
  0
ARC
  5
10BA8
  8
0
 10
4594.479735694692863
 20
216.942176376149888
 30
0.0
 40
0.499999945806526
 50
3.752963742515198
 51
9.8032362479376847
  0
ARC
  5
10BA9
  8
0
 10
4594.9527268171123069
 20
217.0239036429308044
 30
0.0
 40
0.0199999999999824
 50
9.8032357904214571
 51
54.6340522388887706
  0
LINE
  5
10BAA
  8
0
 10
4593.8513807621111482
 20
217.5985878251306929
 30
0.0
 11
4593.8577610764123165
 21
217.1546497219308094
 31
0.0
  0
ARC
  5
10BAB
  8
0
 10
4593.9064720641417807
 20
217.1283378465170131
 30
0.0
 40
0.0534984777533299
 50
172.9899003946649998
 51
267.1911494200169841
  0
ARC
  5
10BAC
  8
0
 10
4593.8968871202978335
 20
217.1355941196983963
 30
0.0
 40
0.0435196884948323
 50
154.03247516209629
 51
180.9572924094956932
  0
LINE
  5
10BAD
  8
0
 10
4593.8577610764123165
 20
217.1546497219308094
 30
0.0
 11
4594.9208370986616501
 21
217.1545023126886065
 31
0.0
  0
LINE
  5
10BAE
  8
0
 10
4594.9502643806554261
 20
217.1332379211658861
 30
0.0
 11
4594.9695809656541314
 21
217.0748422239761055
 31
0.0
  0
ARC
  5
10BAF
  8
0
 10
4594.9208328001113841
 20
217.1235023129866022
 30
0.0
 40
0.031
 50
18.3035859532558689
 51
89.9920551990436337
  0
LINE
  5
10BB0
  8
0
 10
4594.9695809656541314
 20
217.0748422239761055
 30
0.0
 11
4593.9038504217123773
 21
217.0749036429307068
 31
0.0
  0
LINE
  5
10BB1
  8
0
 10
4594.9598925638229048
 20
217.0600460596502899
 30
0.0
 11
4594.9667290506667996
 21
217.0273090812239047
 31
0.0
  0
ARC
  5
10BB2
  8
0
 10
4594.9416853382863337
 20
217.0562438315938891
 30
0.0
 40
0.0186
 50
11.79559904155035
 51
89.9966979956637942
  0
LINE
  5
10BB3
  8
0
 10
4594.9667290506667996
 20
217.0273090812239047
 30
0.0
 11
4594.9724347827977908
 21
217.027308945930713
 31
0.0
  0
ARC
  5
10BB4
  8
0
 10
4594.3345739506057726
 20
216.0470793875618938
 30
0.0
 40
1.1358242554467699
 50
77.1906586320506989
 51
102.806363485028001
  0
ARC
  5
10BB5
  8
0
 10
4592.0032654648966854
 20
218.1132945419712996
 30
0.0
 40
0.078378470828096
 50
232.8825303572878909
 51
270.0647917719621773
  0
ARC
  5
10BB6
  8
0
 10
4592.1839476173108778
 20
58.3349764481042712
 30
0.0
 40
159.7000417834263999
 50
89.8681477968363964
 51
90.06479177196222
  0
ARC
  5
10BB7
  8
0
 10
4592.5411729290608491
 20
217.8374655463825889
 30
0.0
 40
0.1973979332423914
 50
5.1252843294566004
 51
87.0134033325357734
  0
ARC
  5
10BB8
  8
0
 10
4594.1199948966277589
 20
217.9099034479338002
 30
0.0
 40
1.383299313881998
 50
182.2705398651469011
 51
187.7294601126619966
  0
ARC
  5
10BB9
  8
0
 10
4593.0490760252196196
 20
217.3688680701258988
 30
0.0
 40
0.8338039797243093
 50
67.6178694154925353
 51
85.5400460012311044
  0
ARC
  5
10BBA
  8
0
 10
4592.3627450315398164
 20
216.5597668041301063
 30
0.0
 40
1.502989147304068
 50
89.5658077420830949
 51
92.2804325429957544
  0
ARC
  5
10BBB
  8
0
 10
4592.345307797058922
 20
216.9976452820270083
 30
0.0
 40
1.0647636134157941
 50
92.2804325429957544
 51
95.1092179514560456
  0
ARC
  5
10BBC
  8
0
 10
4592.2878528349729095
 20
217.6402478677470924
 30
0.0
 40
0.4195976224936428
 50
95.1092179514560456
 51
98.9996291617688513
  0
ARC
  5
10BBD
  8
0
 10
4592.2367203971007257
 20
217.963098898993195
 30
0.0
 40
0.0927225476113974
 50
98.9996291617688513
 51
106.5427479230714027
  0
ARC
  5
10BBE
  8
0
 10
4592.2133790483831035
 20
218.0416826229534877
 30
0.0
 40
0.0107455982203236
 50
106.542747923122306
 51
126.6853284335733036
  0
ARC
  5
10BBF
  8
0
 10
4592.2075153659634452
 20
218.0495535619116083
 30
0.0
 40
0.000930586676675
 50
126.6853284336237948
 51
226.4261819601642003
  0
ARC
  5
10BC0
  8
0
 10
4592.2101878576859235
 20
218.0523625238120076
 30
0.0
 40
0.0048077607718783
 50
226.4261819601607897
 51
258.687269829320428
  0
ARC
  5
10BC1
  8
0
 10
4592.227530567372014
 20
218.1141902429318975
 30
0.0
 40
0.0690088278388331
 50
254.6343560234170127
 51
264.2902045538654079
  0
ARC
  5
10BC2
  8
0
 10
4592.2792523851267106
 20
218.6221290052129973
 30
0.0
 40
0.5795740338398115
 50
264.1982222230442972
 51
268.3866461997582746
  0
ARC
  5
10BC3
  8
0
 10
4592.36442021034145
 20
221.5752843996297941
 30
0.0
 40
3.5339571662624278
 50
268.3543969050859914
 51
271.3413222146040198
  0
ARC
  5
10BC4
  8
0
 10
4592.4356333807236297
 20
218.7628105781338945
 30
0.0
 40
0.7206069380581465
 50
270.9152787687925752
 51
275.6286825555201858
  0
ARC
  5
10BC5
  8
0
 10
4592.5001094784402085
 20
218.1044258533472942
 30
0.0
 40
0.0590741998996873
 50
276.0262252778222205
 51
286.4922994704704138
  0
ARC
  5
10BC6
  8
0
 10
4592.5150946016283342
 20
218.053413762366489
 30
0.0
 40
0.0059078612754207
 50
287.5886450545158937
 51
308.8900278522435201
  0
ARC
  5
10BC7
  8
0
 10
4592.518108497502908
 20
218.0495568420037955
 30
0.0
 40
0.0010164269079037
 50
313.1559680376727783
 51
56.38530905254526
  0
ARC
  5
10BC8
  8
0
 10
4592.5022843790839033
 20
218.0182893804860953
 30
0.0
 40
0.0360531787764718
 50
62.9660763062909865
 51
81.9752420121988763
  0
ARC
  5
10BC9
  8
0
 10
4592.4506249325077079
 20
217.7400960810603863
 30
0.0
 40
0.3189719920297409
 50
79.7621388504320805
 51
84.4716716371514593
  0
ARC
  5
10BCA
  8
0
 10
4592.385940718962047
 20
217.0872513995111035
 30
0.0
 40
0.975012767998108
 50
84.3841324699794626
 51
87.8639188311930894
  0
ARC
  5
10BCB
  8
0
 10
4592.364040422546168
 20
216.6013112172751107
 30
0.0
 40
1.4614364394940691
 50
87.7160125479256578
 51
89.604249523795886
  0
LINE
  5
10BCC
  8
0
 10
4575.7065479278107887
 20
217.0990081676307
 30
0.0
 11
4585.8110493840831623
 21
217.0990081676307
 31
0.0
  0
LINE
  5
10BCD
  8
0
 10
4594.9725276506142109
 20
216.7949036429307057
 30
0.0
 11
4592.9715606490117352
 21
216.7949036429307057
 31
0.0
  0
ARC
  5
10BCE
  8
0
 10
4594.9725276506142109
 20
216.8069036429307914
 30
0.0
 40
0.012
 50
270.0000000000521254
 51
1.9143169350028431
  0
ARC
  5
10BCF
  8
0
 10
4592.9715606490117352
 20
216.8069036429307914
 30
0.0
 40
0.012
 50
180.0000000000098055
 51
269.9999999999478746
  0
LINE
  5
10BD1
  8
0
 10
4580.3634746235429702
 20
216.9828994617307103
 30
0.0
 11
4581.5195581625102932
 21
216.9828994617307103
 31
0.0
  0
ENDSEC
  0
EOF
