  0
SECTION
  2
HEADER
  9
$ACADVER
  1
AC1009
  9
$INSBASE
 10
4548.6148104377034542
 20
212.2470106860018007
 30
0.0
  9
$EXTMIN
 10
4529.336837412100067
 20
195.4510425844302972
 30
0.0
  9
$EXTMAX
 10
4656.6325525819365794
 20
236.5701860639290999
 30
0.0
  9
$LIMMIN
 10
0.0
 20
0.0
  9
$LIMMAX
 10
11.6929133858000007
 20
8.2677165353999982
  9
$ORTHOMODE
 70
     0
  9
$REGENMODE
 70
     1
  9
$FILLMODE
 70
     1
  9
$QTEXTMODE
 70
     0
  9
$MIRRTEXT
 70
     0
  9
$DRAGMODE
 70
     2
  9
$LTSCALE
 40
0.6431102362
  9
$OSMODE
 70
  4095
  9
$ATTMODE
 70
     1
  9
$TEXTSIZE
 40
0.2
  9
$TRACEWID
 40
0.05
  9
$TEXTSTYLE
  7
STANDARD
  9
$CLAYER
  8
0
  9
$CELTYPE
  6
BYLAYER
  9
$CECOLOR
 62
   256
  9
$DIMSCALE
 40
1.0
  9
$DIMASZ
 40
0.1875
  9
$DIMEXO
 40
0.0625
  9
$DIMDLI
 40
0.4443307087
  9
$DIMRND
 40
0.0
  9
$DIMDLE
 40
0.0
  9
$DIMEXE
 40
0.125
  9
$DIMTP
 40
0.01
  9
$DIMTM
 40
0.01
  9
$DIMTXT
 40
2.0
  9
$DIMCEN
 40
0.1052362205
  9
$DIMTSZ
 40
0.0
  9
$DIMTOL
 70
     1
  9
$DIMLIM
 70
     0
  9
$DIMTIH
 70
     1
  9
$DIMTOH
 70
     1
  9
$DIMSE1
 70
     0
  9
$DIMSE2
 70
     0
  9
$DIMTAD
 70
     0
  9
$DIMZIN
 70
     0
  9
$DIMBLK
  1

  9
$DIMASO
 70
     1
  9
$DIMSHO
 70
     1
  9
$DIMPOST
  1
\X
  9
$DIMAPOST
  1

  9
$DIMALT
 70
     1
  9
$DIMALTD
 70
     2
  9
$DIMALTF
 40
25.3999999999999986
  9
$DIMLFAC
 40
1.0
  9
$DIMTOFL
 70
     0
  9
$DIMTVP
 40
0.0
  9
$DIMTIX
 70
     0
  9
$DIMSOXD
 70
     0
  9
$DIMSAH
 70
     0
  9
$DIMBLK1
  1

  9
$DIMBLK2
  1

  9
$DIMSTYLE
  2
STANDARD
  9
$DIMCLRD
 70
     0
  9
$DIMCLRE
 70
     0
  9
$DIMCLRT
 70
     0
  9
$DIMTFAC
 40
1.0
  9
$DIMGAP
 40
0.09
  9
$LUNITS
 70
     2
  9
$LUPREC
 70
     4
  9
$SKETCHINC
 40
0.1
  9
$FILLETRAD
 40
0.0
  9
$AUNITS
 70
     0
  9
$AUPREC
 70
     0
  9
$MENU
  1
.
  9
$ELEVATION
 40
0.0
  9
$PELEVATION
 40
0.0
  9
$THICKNESS
 40
0.0
  9
$LIMCHECK
 70
     0
  9
$BLIPMODE
 70
     0
  9
$CHAMFERA
 40
0.0
  9
$CHAMFERB
 40
0.0
  9
$SKPOLY
 70
     0
  9
$TDCREATE
 40
2458060.468368056230247
  9
$TDUPDATE
 40
2459816.6883217599242926
  9
$TDINDWG
 40
0.5272524306
  9
$TDUSRTIMER
 40
0.5272524306
  9
$USRTIMER
 70
     1
  9
$ANGBASE
 50
0.0
  9
$ANGDIR
 70
     0
  9
$PDMODE
 70
     0
  9
$PDSIZE
 40
0.3125
  9
$PLINEWID
 40
0.0
  9
$COORDS
 70
     1
  9
$SPLFRAME
 70
     0
  9
$SPLINETYPE
 70
     6
  9
$SPLINESEGS
 70
     8
  9
$ATTDIA
 70
     1
  9
$ATTREQ
 70
     1
  9
$HANDLING
 70
     1
  9
$HANDSEED
  5
10C53
  9
$SURFTAB1
 70
     6
  9
$SURFTAB2
 70
     6
  9
$SURFTYPE
 70
     6
  9
$SURFU
 70
     6
  9
$SURFV
 70
     6
  9
$UCSNAME
  2

  9
$UCSORG
 10
0.0
 20
0.0
 30
0.0
  9
$UCSXDIR
 10
1.0
 20
0.0
 30
0.0
  9
$UCSYDIR
 10
0.0
 20
1.0
 30
0.0
  9
$PUCSNAME
  2

  9
$PUCSORG
 10
0.0
 20
0.0
 30
0.0
  9
$PUCSXDIR
 10
1.0
 20
0.0
 30
0.0
  9
$PUCSYDIR
 10
0.0
 20
1.0
 30
0.0
  9
$USERI1
 70
     0
  9
$USERI2
 70
     0
  9
$USERI3
 70
     0
  9
$USERI4
 70
     0
  9
$USERI5
 70
     0
  9
$USERR1
 40
0.0
  9
$USERR2
 40
0.0
  9
$USERR3
 40
0.0
  9
$USERR4
 40
0.0
  9
$USERR5
 40
0.0
  9
$WORLDVIEW
 70
     1
  9
$SHADEDGE
 70
     3
  9
$SHADEDIF
 70
    70
  9
$TILEMODE
 70
     1
  9
$MAXACTVP
 70
    64
  9
$PLIMCHECK
 70
     0
  9
$PEXTMIN
 10
1.0000000000000000E+20
 20
1.0000000000000000E+20
 30
1.0000000000000000E+20
  9
$PEXTMAX
 10
-1.0000000000000000E+20
 20
-1.0000000000000000E+20
 30
-1.0000000000000000E+20
  9
$PLIMMIN
 10
0.0
 20
0.0
  9
$PLIMMAX
 10
12.0
 20
9.0
  9
$UNITMODE
 70
     0
  9
$VISRETAIN
 70
     1
  9
$PLINEGEN
 70
     0
  9
$PSLTSCALE
 70
     1
  0
ENDSEC
  0
SECTION
  2
TABLES
  0
TABLE
  2
VPORT
 70
     1
  0
VPORT
  2
*ACTIVE
 70
     0
 10
0.0
 20
0.0
 11
1.0
 21
1.0
 12
741.1858040609034788
 22
80.6733110564439357
 13
0.0
 23
0.0
 14
1.0
 24
1.0
 15
0.0
 25
0.0
 16
0.0
 26
0.0
 36
17.1152628219792007
 17
3803.5440673828129547
 27
125.9952621967499056
 37
0.0
 40
26.6036604217996917
 41
2.0416666666666661
 42
50.0
 43
0.0
 44
0.0
 50
0.0
 51
0.0
 71
     0
 72
   100
 73
     1
 74
     1
 75
     0
 76
     0
 77
     0
 78
     0
  0
ENDTAB
  0
TABLE
  2
LTYPE
 70
     2
  0
LTYPE
  2
CONTINUOUS
 70
     0
  3
Solid line
 72
    65
 73
     0
 40
0.0
  0
LTYPE
  2
PHANTOM2
 70
     0
  3
___ _ _ ___ _ _ ___ _ _ ___ _ _
 72
    65
 73
     6
 40
1.25
 49
0.625
 49
-0.125
 49
0.125
 49
-0.125
 49
0.125
 49
-0.125
  0
ENDTAB
  0
TABLE
  2
LAYER
 70
     2
  0
LAYER
  2
0
 70
     0
 62
   255
  6
CONTINUOUS
  0
LAYER
  2
DEFPOINTS
 70
     0
 62
     7
  6
CONTINUOUS
  0
ENDTAB
  0
TABLE
  2
STYLE
 70
     1
  0
STYLE
  2
STANDARD
 70
     0
 40
0.0
 41
0.8
 50
0.0
 71
     0
 42
0.2
  3
txt
  4

  0
ENDTAB
  0
TABLE
  2
VIEW
 70
     0
  0
ENDTAB
  0
TABLE
  2
UCS
 70
     0
  0
ENDTAB
  0
TABLE
  2
APPID
 70
     9
  0
APPID
  2
ACAD
 70
     0
  0
APPID
  2
ACAD_MLEADERVER
 70
     0
  0
APPID
  2
ACAD_EXEMPT_FROM_CAD_STANDARDS
 70
     0
  0
APPID
  2
ACAD_NAV_VCDISPLAY
 70
     0
  0
APPID
  2
ACAECLAYERSTANDARD
 70
     0
  0
APPID
  2
ACCMTRANSPARENCY
 70
     0
  0
APPID
  2
ACAD_DSTYLE_DIMJAG
 70
     0
  0
APPID
  2
ACAD_DSTYLE_DIMTALN
 70
     0
  0
APPID
  2
ACDBATTR
 70
     0
  0
ENDTAB
  0
TABLE
  2
DIMSTYLE
 70
     1
  0
DIMSTYLE
  2
STANDARD
 70
     0
  3

  4

  5

  6

  7

 40
1.0
 41
0.1875
 42
0.0625
 43
0.38
 44
0.125
 45
0.0
 46
0.0
 47
0.01
 48
0.01
140
0.15625
141
0.09
142
0.0
143
25.3999999999999986
144
1.0
145
0.0
146
1.0
147
0.09
 71
     1
 72
     0
 73
     1
 74
     1
 75
     0
 76
     0
 77
     0
 78
     4
170
     0
171
     2
172
     0
173
     0
174
     0
175
     0
176
     0
177
     0
178
     0
  0
ENDTAB
  0
ENDSEC
  0
SECTION
  2
BLOCKS
  0
BLOCK
  8
0
  2
$MODEL_SPACE
 70
     0
 10
0.0
 20
0.0
 30
0.0
  3
$MODEL_SPACE
  1

  0
ENDBLK
  5
21
  8
0
  0
BLOCK
 67
     1
  8
0
  2
$PAPER_SPACE
 70
     0
 10
0.0
 20
0.0
 30
0.0
  3
$PAPER_SPACE
  1

  0
ENDBLK
  5
1D
 67
     1
  8
0
  0
BLOCK
  8
0
  2
_FILLED
 70
     0
 10
0.0
 20
0.0
 30
0.0
  3
_FILLED
  1

  0
SOLID
  5
107A2
  8
0
  6
BYBLOCK
 62
     0
 10
0.0
 20
0.0
 30
0.0
 11
-1.0
 21
0.1666666667
 31
0.0
 12
-1.0
 22
-0.1666666667
 32
0.0
 13
-1.0
 23
-0.1666666667
 33
0.0
  0
ENDBLK
  5
107A3
  8
0
  6
BYBLOCK
 62
     0
  0
ENDSEC
  0
SECTION
  2
ENTITIES
  0
ATTDEF
  5
3930
  8
DEFPOINTS
 10
4548.615426407481209
 20
212.2455376524920041
 30
0.0
 40
0.001
  1
P70303-CP
  3

  2
MODELNUMBER
 70
     0
1001
ACDBATTR
1070
     0
1070
     1
  0
ATTDEF
  5
3931
  8
DEFPOINTS
 10
4548.615426407481209
 20
212.2438709858253105
 30
0.0
 40
0.001
  1

  3

  2
TRADENAME
 70
     0
1001
ACDBATTR
1070
     0
1070
     1
  0
ATTDEF
  5
3932
  8
DEFPOINTS
 10
4548.615426407481209
 20
212.2422043191587022
 30
0.0
 40
0.001
  1
TOILET SEAT
  3

  2
PRODUCT
 70
     0
1001
ACDBATTR
1070
     0
1070
     1
  0
LINE
  5
10AC3
  8
0
 10
4546.5578588243406557
 20
214.3641878808018078
 30
0.0
 11
4546.5728224116628553
 21
214.3641878808018078
 31
0.0
  0
LINE
  5
10AC4
  8
0
 10
4529.4682420799999818
 20
212.4881161408017931
 30
0.0
 11
4540.7941443224799514
 21
212.4881161408017931
 31
0.0
  0
LINE
  5
10AC5
  8
0
 10
4529.5785079369234154
 20
213.0140274302017929
 30
0.0
 11
4540.2266159119626536
 21
213.0140274302017929
 31
0.0
  0
LINE
  5
10AC6
  8
0
 10
4529.4692420800001855
 20
213.1970915892017899
 30
0.0
 11
4541.1615714279596432
 21
213.1970915892017899
 31
0.0
  0
LINE
  5
10AC7
  8
0
 10
4529.3378374122003152
 20
213.2600915886017958
 30
0.0
 11
4540.149660689630764
 21
213.2600915886017958
 31
0.0
  0
LINE
  5
10AC8
  8
0
 10
4529.6602385465757834
 20
213.8941142033141034
 30
0.0
 11
4532.3114570358829951
 21
213.8941142033141034
 31
0.0
  0
LINE
  5
10AC9
  8
0
 10
4531.7491103239481163
 20
212.3633414462017868
 30
0.0
 11
4534.0626953825476448
 21
212.3633414462017868
 31
0.0
  0
LINE
  5
10ACA
  8
0
 10
4535.0809794060769491
 20
212.3633414462017868
 30
0.0
 11
4543.6348315359691696
 21
212.3633414462017868
 31
0.0
  0
LINE
  5
10ACB
  8
0
 10
4534.4971697117052827
 20
212.248420180951797
 30
0.0
 11
4534.6527711967028154
 21
212.248420180951797
 31
0.0
  0
ARC
  5
10ACC
  8
0
 10
4530.6012213352732942
 20
213.3141956051350974
 30
0.0
 40
1.2607058827519071
 50
161.770376406538702
 51
177.913722070592911
  0
ARC
  5
10ACD
  8
0
 10
4644.8962448304164354
 20
209.2497336236422996
 30
0.0
 40
115.6279745392158986
 50
177.9628135088030945
 51
178.0123955372075955
  0
ARC
  5
10ACE
  8
0
 10
4529.6602385465757834
 20
213.6241142033140932
 30
0.0
 40
0.27
 50
90.0
 51
161.770376406538702
  0
ARC
  5
10ACF
  8
0
 10
4529.4711980137763021
 20
213.3304559979395947
 30
0.0
 40
0.133378750912247
 50
211.8402943616584082
 51
269.1597554590343861
  0
ARC
  5
10AD0
  8
0
 10
4529.4696964026434216
 20
212.6206790856967075
 30
0.0
 40
0.1325709222022546
 50
211.6500357585296115
 51
269.3714442085237124
  0
ARC
  5
10AD1
  8
0
 10
4534.3602966527887475
 20
212.3748645759422971
 30
0.0
 40
5.0265502115391678
 50
176.849541279492513
 51
177.9905725540197921
  0
ARC
  5
10AD2
  8
0
 10
4530.5854853771788839
 20
212.5826353236003001
 30
0.0
 40
1.2460252678230139
 50
170.4820560303199102
 51
176.849541279492513
  0
ARC
  5
10AD3
  8
0
 10
4529.6235822372964321
 20
212.7477235415150858
 30
0.0
 40
0.2700915653696774
 50
99.6067704428295571
 51
171.2794258616401066
  0
ARC
  5
10AD4
  8
0
 10
4529.543482301862241
 20
213.2214558788641909
 30
0.0
 40
0.210364817462247
 50
279.5843540424741036
 51
323.1041996339092748
  0
ARC
  5
10AD5
  8
0
 10
4529.9468385547988873
 20
212.9088318403017865
 30
0.0
 40
0.3000010581999981
 50
106.0843288355053033
 51
141.603877897070987
  0
ARC
  5
10AD6
  8
0
 10
4530.7214357718003157
 20
211.1960722544019973
 30
0.0
 40
1.502217828799743
 50
53.9808052214369312
 51
59.3282762945062387
  0
ARC
  5
10AD7
  8
0
 10
4531.7517179480673803
 20
212.6130702292977048
 30
0.0
 40
0.2497423969015097
 50
233.9720070756578139
 51
269.401749269153413
  0
ARC
  5
10AD8
  8
0
 10
4514.4318060661817071
 20
209.9774684323730867
 30
0.0
 40
19.713600479419231
 50
7.1804345956459246
 51
7.3168365705924954
  0
ARC
  5
10AD9
  8
0
 10
4534.0028385314017214
 20
212.4430753046918028
 30
0.0
 40
0.0121321813326604
 50
187.180434595650695
 51
219.2080726685126137
  0
ARC
  5
10ADA
  8
0
 10
4534.4706871719881747
 20
212.8247531215052959
 30
0.0
 40
0.6159204772995643
 50
219.2080726685138927
 51
228.5160785461646071
  0
ARC
  5
10ADB
  8
0
 10
4534.3164774059387128
 20
212.650352095938814
 30
0.0
 40
0.3831193397085453
 50
228.5160785461646071
 51
259.8978872510348879
  0
ARC
  5
10ADC
  8
0
 10
4534.5340649317704447
 20
213.8716206520475964
 30
0.0
 40
1.623619729687144
 50
259.8978872510348879
 51
268.6978956148382167
  0
ARC
  5
10ADD
  8
0
 10
4544.6454825838172837
 20
211.2578309050695111
 30
0.0
 40
9.5661299568289007
 50
172.6108177113503075
 51
172.8919111224244034
  0
ARC
  5
10ADE
  8
0
 10
4535.1410567176271798
 20
212.4430323801429097
 30
0.0
 40
0.0119081294609214
 50
324.9602778290301899
 51
352.8919111224195149
  0
ARC
  5
10ADF
  8
0
 10
4534.6971687673194538
 20
212.8010962136754074
 30
0.0
 40
0.5821854024879555
 50
311.2433415141894102
 51
321.1872161454489856
  0
ARC
  5
10AE0
  8
0
 10
4534.6443397017355892
 20
213.5038355376260881
 30
0.0
 40
1.255443669736322
 50
270.3847983942360997
 51
281.9420054191472786
  0
ARC
  5
10AE1
  8
0
 10
4534.8222752040619525
 20
212.6625286224445972
 30
0.0
 40
0.3955260175624351
 50
281.9419986334477244
 51
310.8496486970161072
  0
ARC
  5
10AE2
  8
0
 10
4543.6346963808337023
 20
212.6036607090657071
 30
0.0
 40
0.2403193008694545
 50
270.0322230431750086
 51
301.5813071463284132
  0
ARC
  5
10AE3
  8
0
 10
4544.5373513464955977
 20
211.1159879111123985
 30
0.0
 40
1.499787823541239
 50
110.0479017024829034
 51
121.194070103507002
  0
ARC
  5
10AE4
  8
0
 10
4528.2965936246328056
 20
269.6987591042089889
 30
0.0
 40
55.9488831052594122
 50
274.1150528717083148
 51
275.5818894396155088
  0
ARC
  5
10AE5
  8
0
 10
4542.8765760686192152
 20
123.0118717218229989
 30
0.0
 40
91.4609364400361784
 50
94.4399230663715201
 51
95.7340299119129696
  0
ARC
  5
10AE6
  8
0
 10
4537.6697412664316289
 20
190.8725214314115135
 30
0.0
 40
23.4009348469984602
 50
91.0648935523651346
 51
94.5920635386935942
  0
ARC
  5
10AE7
  8
0
 10
4538.0574382904387676
 20
170.0151828453624034
 30
0.0
 40
44.2618763855655928
 50
87.9257203175970403
 51
91.0648935523651346
  0
ARC
  5
10AE8
  8
0
 10
4536.0917142505941229
 20
115.7416524410168961
 30
0.0
 40
98.5709932404015632
 50
86.6001476391474085
 51
87.9257203175970403
  0
ARC
  5
10AE9
  8
0
 10
4543.0804623127105515
 20
233.3807847632506025
 30
0.0
 40
19.2755512698374716
 50
266.6001476391473943
 51
271.1195424017349751
  0
ARC
  5
10AEA
  8
0
 10
4543.0117236941796364
 20
236.8982321431194009
 30
0.0
 40
22.7936702371015016
 50
271.1195424017349751
 51
274.9063203107297113
  0
ARC
  5
10AEB
  8
0
 10
4501.6191822600430896
 20
614.4723311975756133
 30
0.0
 40
402.6239076355831799
 50
276.17980133000259
 51
276.4083942862635013
  0
ARC
  5
10AEC
  8
0
 10
4545.6450628378815964
 20
213.7751244554982009
 30
0.0
 40
1.2510908704636969
 50
2.0597880251258438
 51
18.9784750872608008
  0
ARC
  5
10AED
  8
0
 10
4546.5728224116628553
 20
214.0941878808017975
 30
0.0
 40
0.27
 50
18.9784750872501213
 51
90.0
  0
ARC
  5
10AEE
  8
0
 10
4551.1097787868111482
 20
213.8928465914096932
 30
0.0
 40
4.2144835450393323
 50
180.9880738352657943
 51
182.3492573701242065
  0
ARC
  5
10AEF
  8
0
 10
4540.1488779892133607
 20
263.0139588694092936
 30
0.0
 40
49.7538672869640095
 50
270.0009013456282787
 51
277.2493404128190946
  0
ARC
  5
10AF0
  8
0
 10
4540.1490527201040095
 20
263.0125852460769806
 30
0.0
 40
49.7524825949610516
 50
277.2493404128190946
 51
277.7972080369743821
  0
ARC
  5
10AF1
  8
0
 10
4546.7646812071170643
 20
213.7913782037587964
 30
0.0
 40
0.1345783360494671
 50
280.9983298131371043
 51
326.4870500425316209
  0
ARC
  5
10AF2
  8
0
 10
4542.7136258637401625
 20
240.3918119138571114
 30
0.0
 40
27.0416056418613486
 50
278.3891391789326235
 51
278.6708388781556778
  0
ARC
  5
10AF3
  8
0
 10
4542.3233619098027702
 20
243.3929144836203022
 30
0.0
 40
30.0675787385210391
 50
276.2299790093769047
 51
278.2905084509437188
  0
ARC
  5
10AF4
  8
0
 10
4539.7111230708924268
 20
266.3458050219264237
 30
0.0
 40
53.1685013893602729
 50
271.5632353446835054
 51
276.3441553234243884
  0
ARC
  5
10AF5
  8
0
 10
4537.6267350900634483
 20
632.3110807996908989
 30
0.0
 40
419.8349129553478178
 50
270.432267296102907
 51
270.8729753208680222
  0
ARC
  5
10AF6
  8
0
 10
4540.1837483194631204
 20
464.5002324772319753
 30
0.0
 40
252.0045845538379012
 50
270.8729753208680222
 51
271.1529410938283036
  0
ARC
  5
10AF7
  8
0
 10
4547.2179883611743207
 20
134.894949337494495
 30
0.0
 40
77.6765405101440933
 50
90.6571523568416211
 51
91.4485379733649353
  0
ARC
  5
10AF8
  8
0
 10
4539.3089575965395852
 20
521.2637328337018516
 30
0.0
 40
308.712646006680302
 50
270.02456941266081
 51
271.3046436999994739
  0
ARC
  5
10AF9
  8
0
 10
4538.9650261854367272
 20
530.4936368212388516
 30
0.0
 40
317.4821160124200219
 50
270.2276788310334155
 51
271.2190521803465799
  0
ARC
  5
10AFA
  8
0
 10
4545.6533036601904314
 20
216.1902369814773124
 30
0.0
 40
3.107562006513743
 50
271.2190521803465799
 51
275.1378797374811143
  0
ARC
  5
10AFB
  8
0
 10
4545.9059066333711598
 20
213.3808544404056136
 30
0.0
 40
0.286846047020801
 50
275.1378797374811143
 51
305.5124865149560947
  0
ARC
  5
10AFC
  8
0
 10
4544.6818746214121347
 20
37.6578804973328616
 30
0.0
 40
175.5745060233105903
 50
89.7451316244831219
 51
91.148868572988377
  0
ARC
  5
10AFD
  8
0
 10
4545.4101235140788049
 20
187.9634791015502913
 30
0.0
 40
25.2672254225710411
 50
88.8299780354240482
 51
89.880372469869485
  0
ARC
  5
10AFE
  8
0
 10
4545.9486690554113011
 20
212.8450413047102927
 30
0.0
 40
0.3810662279355792
 50
2.1006816195921458
 51
93.4009663267835606
  0
LINE
  5
10AFF
  8
0
 10
4546.3378384090219697
 20
212.6311152461084077
 30
0.0
 11
4546.3294791907501349
 21
212.8590095148757939
 31
0.0
  0
ARC
  5
10B00
  8
0
 10
4546.0012334192124399
 20
212.8207029671168868
 30
0.0
 40
0.334352918233211
 50
14.2456369879907392
 51
77.687109851159093
  0
ARC
  5
10B01
  8
0
 10
4546.1954637479220764
 20
212.7105285059035111
 30
0.0
 40
0.1459011739318404
 50
273.3018704470861735
 51
326.8050232232682788
  0
ARC
  5
10B02
  8
0
 10
4546.3278240118588656
 20
212.6093947975527101
 30
0.0
 40
0.0430201318762579
 50
269.0343080785254983
 51
354.7190423469464235
  0
ARC
  5
10B03
  8
0
 10
4634.5694860937192061
 20
208.213158566101697
 30
0.0
 40
88.3081239036582417
 50
176.8506942444689969
 51
177.1490415310636024
  0
ARC
  5
10B04
  8
0
 10
4546.921835108740197
 20
213.03701560125279
 30
0.0
 40
0.5278299753039098
 50
116.1074210248002032
 51
177.0002853908196983
  0
ARC
  5
10B05
  8
0
 10
4546.9218374705988026
 20
213.0370129157018084
 30
0.0
 40
0.5278334261999963
 50
28.7530250928361717
 51
116.1075229619628999
  0
ARC
  5
10B06
  8
0
 10
4546.924097289396741
 20
213.0369742182136861
 30
0.0
 40
0.5258720496085602
 50
329.1627480469471152
 51
28.8751600661458596
  0
ARC
  5
10B07
  8
0
 10
4546.7700146192646571
 20
213.0779524546547066
 30
0.0
 40
0.6805877837385529
 50
269.9744268604808894
 51
332.8524604563069147
  0
ARC
  5
10B08
  8
0
 10
4590.1423720417524237
 20
220.4479665508476103
 30
0.0
 40
45.6461608710581785
 50
189.9697737393969987
 51
190.0777881543654928
  0
ARC
  5
10B09
  8
0
 10
4545.2751277835122892
 20
212.4738374203919022
 30
0.0
 40
0.0758158787531661
 50
190.0777881543606895
 51
270.9184284058204071
  0
ARC
  5
10B0A
  8
0
 10
4545.6278279111738811
 20
-673.0326905854211645
 30
0.0
 40
885.430791630793351
 50
89.9261093111156242
 51
90.0227444098462399
  0
ARC
  5
10B0B
  8
0
 10
4545.6063577990271369
 20
210.9197036904731988
 30
0.0
 40
1.502989147304068
 50
89.5658077420830949
 51
92.2804325429957828
  0
ARC
  5
10B0C
  8
0
 10
4545.5889205645462425
 20
211.3575821683701008
 30
0.0
 40
1.0647636134157941
 50
92.2804325429957828
 51
95.109217951456273
  0
ARC
  5
10B0D
  8
0
 10
4545.5314656024593205
 20
212.0001847540900997
 30
0.0
 40
0.4195976224936428
 50
95.109217951456273
 51
98.9996291617685245
  0
ARC
  5
10B0E
  8
0
 10
4545.4803331645889557
 20
212.3230357853362023
 30
0.0
 40
0.0927225476113974
 50
98.9996291617685245
 51
106.5427479230711043
  0
ARC
  5
10B0F
  8
0
 10
4545.456991815870424
 20
212.4016195092964949
 30
0.0
 40
0.0107455982203236
 50
106.5427479231221071
 51
126.6853284335735026
  0
ARC
  5
10B10
  8
0
 10
4545.4511281334507657
 20
212.4094904482545871
 30
0.0
 40
0.000930586676675
 50
126.6853284336236953
 51
226.4261819601642003
  0
ARC
  5
10B11
  8
0
 10
4545.4538006251723345
 20
212.4122994101551001
 30
0.0
 40
0.0048077607718783
 50
226.4261819601609034
 51
258.687269829320087
  0
ARC
  5
10B12
  8
0
 10
4545.4711433348584251
 20
212.47412712927499
 30
0.0
 40
0.0690088278388331
 50
254.6343560234167001
 51
264.2902045538651805
  0
ARC
  5
10B13
  8
0
 10
4545.5228651526131216
 20
212.9820658915560898
 30
0.0
 40
0.5795740338398115
 50
264.1982222230440129
 51
268.3866461997582746
  0
ARC
  5
10B14
  8
0
 10
4545.608032977827861
 20
215.9352212859728866
 30
0.0
 40
3.5339571662624278
 50
268.3543969050859914
 51
271.3413222146040198
  0
ARC
  5
10B15
  8
0
 10
4545.6792461482100407
 20
213.122747464476987
 30
0.0
 40
0.7206069380581465
 50
270.9152787687925752
 51
275.6286825555202995
  0
ARC
  5
10B16
  8
0
 10
4545.74372224592571
 20
212.4643627396903014
 30
0.0
 40
0.0590741998996873
 50
276.0262252778222773
 51
286.492299470470698
  0
ARC
  5
10B17
  8
0
 10
4545.7587073691156547
 20
212.4133506487094962
 30
0.0
 40
0.0059078612754207
 50
287.5886450545157231
 51
308.8900278522434064
  0
ARC
  5
10B18
  8
0
 10
4545.7617212649902285
 20
212.4094937283468028
 30
0.0
 40
0.0010164269079037
 50
313.1559680376727783
 51
56.3853090525452387
  0
ARC
  5
10B19
  8
0
 10
4545.7458971465703144
 20
212.3782262668291025
 30
0.0
 40
0.0360531787764718
 50
62.9660763062907876
 51
81.9752420121991321
  0
ARC
  5
10B1A
  8
0
 10
4545.6942376999950284
 20
212.1000329674033935
 30
0.0
 40
0.3189719920297409
 50
79.7621388504320379
 51
84.471671637151502
  0
ARC
  5
10B1B
  8
0
 10
4545.6295534864493675
 20
211.4471882858541107
 30
0.0
 40
0.975012767998108
 50
84.3841324699793915
 51
87.8639188311930894
  0
ARC
  5
10B1C
  8
0
 10
4545.607653190032579
 20
210.9612481036182032
 30
0.0
 40
1.4614364394940691
 50
87.7160125479256152
 51
89.604249523795886
  0
LINE
  5
10B1D
  8
0
 10
4546.5898501333003878
 20
212.3975647396894999
 30
0.0
 11
4546.5898501333003878
 21
212.2590107046781895
 31
0.0
  0
ARC
  5
10B1E
  8
0
 10
4546.9218374122001478
 20
213.0370128485018029
 30
0.0
 40
0.5600000000000068
 50
165.5708861215998979
 51
196.4256529774079922
  0
ARC
  5
10B1F
  8
0
 10
4546.9218374122001478
 20
213.0370128485018029
 30
0.0
 40
0.5599999999999845
 50
101.7607271388868071
 51
165.5708861215998979
  0
ARC
  5
10B20
  8
0
 10
4546.9218374122001478
 20
213.0370128485018029
 30
0.0
 40
0.5600000000000137
 50
34.9090012089758375
 51
101.7607271388868071
  0
ARC
  5
10B21
  8
0
 10
4546.921837412590321
 20
213.0370128487739976
 30
0.0
 40
0.5599999995243832
 50
1.3999999666320451
 51
34.9090012089758375
  0
LINE
  5
10B22
  8
0
 10
4548.6089528943011828
 20
212.4270107884017875
 30
0.0
 11
4548.6148104377034542
 21
212.2594115450133074
 31
0.0
  0
ARC
  5
10B23
  8
0
 10
4548.1100251789812319
 20
212.3942834192210114
 30
0.0
 40
0.499999945806526
 50
3.752963742515274
 51
9.80323624793599
  0
ARC
  5
10B24
  8
0
 10
4548.5830163013997662
 20
212.4760106860018141
 30
0.0
 40
0.0199999999999824
 50
9.8032357904213363
 51
54.6340522388889411
  0
LINE
  5
10B25
  8
0
 10
4547.4816702464004265
 20
213.0506948682017878
 30
0.0
 11
4547.4880505606997758
 21
212.6067567650017907
 31
0.0
  0
ARC
  5
10B26
  8
0
 10
4547.5367615484301496
 20
212.5804448895879943
 30
0.0
 40
0.0534984777533299
 50
172.9899003946651135
 51
267.1911494200169841
  0
ARC
  5
10B27
  8
0
 10
4547.5271766045880213
 20
212.587701162769406
 30
0.0
 40
0.0435196884948323
 50
154.0324751620964037
 51
180.9572924094956932
  0
LINE
  5
10B28
  8
0
 10
4547.4880505606997758
 20
212.6067567650017907
 30
0.0
 11
4548.5511265829509284
 21
212.6066093557597014
 31
0.0
  0
LINE
  5
10B29
  8
0
 10
4548.5805538649456139
 20
212.5853449642370094
 30
0.0
 11
4548.5998704499415908
 21
212.5269492670470868
 31
0.0
  0
ARC
  5
10B2A
  8
0
 10
4548.5511222844006625
 20
212.5756093560576971
 30
0.0
 40
0.031
 50
18.3035859532558192
 51
89.9920551990436337
  0
LINE
  5
10B2B
  8
0
 10
4548.5998704499415908
 20
212.5269492670470868
 30
0.0
 11
4547.5341399060007461
 21
212.5270106860018018
 31
0.0
  0
LINE
  5
10B2C
  8
0
 10
4548.5901820481130926
 20
212.5121531027212995
 30
0.0
 11
4548.5970185349560779
 21
212.4794161242949997
 31
0.0
  0
ARC
  5
10B2D
  8
0
 10
4548.5719748225737931
 20
212.5083508746648988
 30
0.0
 40
0.0186
 50
11.7955990415502097
 51
89.9966979956637942
  0
LINE
  5
10B2E
  8
0
 10
4548.5970185349560779
 20
212.4794161242949997
 30
0.0
 11
4548.6027242670870692
 21
212.4794159890018079
 31
0.0
  0
ARC
  5
10B2F
  8
0
 10
4547.9648634348950509
 20
211.4991864306329035
 30
0.0
 40
1.1358242554467699
 50
77.1906586320505852
 51
102.8063634850276031
  0
ARC
  5
10B30
  8
0
 10
4545.6335549491850543
 20
213.5654015850423093
 30
0.0
 40
0.078378470828096
 50
232.8825303572878909
 51
270.0647917719621773
  0
ARC
  5
10B31
  8
0
 10
4545.8142371015992467
 20
53.7870834911753022
 30
0.0
 40
159.7000417834263999
 50
89.8681477968363964
 51
90.06479177196222
  0
ARC
  5
10B32
  8
0
 10
4546.1714624133501275
 20
213.2895725894535985
 30
0.0
 40
0.1973979332423914
 50
5.1252843294565276
 51
87.0134033325357734
  0
ARC
  5
10B33
  8
0
 10
4547.7502843809161277
 20
213.3620104910048099
 30
0.0
 40
1.383299313881998
 50
182.2705398651469011
 51
187.7294601126621103
  0
ARC
  5
10B34
  8
0
 10
4546.679365509508898
 20
212.8209751131969085
 30
0.0
 40
0.8338039797243093
 50
67.6178694154928763
 51
85.5400460012310475
  0
ARC
  5
10B35
  8
0
 10
4545.9930345158290947
 20
212.0118738472010875
 30
0.0
 40
1.502989147304068
 50
89.5658077420830949
 51
92.2804325429957828
  0
ARC
  5
10B36
  8
0
 10
4545.9755972813491098
 20
212.4497523250981033
 30
0.0
 40
1.0647636134157941
 50
92.2804325429957828
 51
95.109217951456273
  0
ARC
  5
10B37
  8
0
 10
4545.9181423192612783
 20
213.0923549108181021
 30
0.0
 40
0.4195976224936428
 50
95.109217951456273
 51
98.9996291617685245
  0
ARC
  5
10B38
  8
0
 10
4545.867009881390004
 20
213.4152059420642047
 30
0.0
 40
0.0927225476113974
 50
98.9996291617685245
 51
106.5427479230711043
  0
ARC
  5
10B39
  8
0
 10
4545.8436685326723818
 20
213.4937896660244974
 30
0.0
 40
0.0107455982203236
 50
106.5427479231221071
 51
126.6853284335735026
  0
ARC
  5
10B3A
  8
0
 10
4545.8378048502509046
 20
213.5016606049825896
 30
0.0
 40
0.000930586676675
 50
126.6853284336236953
 51
226.4261819601642003
  0
ARC
  5
10B3B
  8
0
 10
4545.8404773419742924
 20
213.5044695668831025
 30
0.0
 40
0.0048077607718783
 50
226.4261819601609034
 51
258.687269829320087
  0
ARC
  5
10B3C
  8
0
 10
4545.8578200516612924
 20
213.5662972860029925
 30
0.0
 40
0.0690088278388331
 50
254.6343560234167001
 51
264.2902045538651805
  0
ARC
  5
10B3D
  8
0
 10
4545.9095418694150794
 20
214.0742360482840922
 30
0.0
 40
0.5795740338398115
 50
264.1982222230440129
 51
268.3866461997582746
  0
ARC
  5
10B3E
  8
0
 10
4545.9947096946298188
 20
217.0273914427008037
 30
0.0
 40
3.5339571662624278
 50
268.3543969050859914
 51
271.3413222146040198
  0
ARC
  5
10B3F
  8
0
 10
4546.065922865012908
 20
214.2149176212049895
 30
0.0
 40
0.7206069380581465
 50
270.9152787687925752
 51
275.6286825555202995
  0
ARC
  5
10B40
  8
0
 10
4546.1303989627285773
 20
213.5565328964183038
 30
0.0
 40
0.0590741998996873
 50
276.0262252778222773
 51
286.492299470470698
  0
ARC
  5
10B41
  8
0
 10
4546.145384085916703
 20
213.5055208054374987
 30
0.0
 40
0.0059078612754207
 50
287.5886450545157231
 51
308.8900278522434064
  0
ARC
  5
10B42
  8
0
 10
4546.1483979817921863
 20
213.5016638850748052
 30
0.0
 40
0.0010164269079037
 50
313.1559680376727783
 51
56.3853090525452387
  0
ARC
  5
10B43
  8
0
 10
4546.1325738633722722
 20
213.470396423557105
 30
0.0
 40
0.0360531787764718
 50
62.9660763062907876
 51
81.9752420121991321
  0
ARC
  5
10B44
  8
0
 10
4546.0809144167969862
 20
213.192203124131396
 30
0.0
 40
0.3189719920297409
 50
79.7621388504320379
 51
84.471671637151502
  0
ARC
  5
10B45
  8
0
 10
4546.0162302032513253
 20
212.5393584425821132
 30
0.0
 40
0.975012767998108
 50
84.3841324699793915
 51
87.8639188311930894
  0
ARC
  5
10B46
  8
0
 10
4545.9943299068354463
 20
212.0534182603462057
 30
0.0
 40
1.4614364394940691
 50
87.7160125479256152
 51
89.604249523795886
  0
LINE
  5
10B47
  8
0
 10
4529.336837412100067
 20
212.5511152107017949
 30
0.0
 11
4539.4413388683724406
 21
212.5511152107017949
 31
0.0
  0
LINE
  5
10B48
  8
0
 10
4548.6028171349016702
 20
212.2470106860018007
 30
0.0
 11
4546.6018501333010136
 21
212.2470106860018007
 31
0.0
  0
ARC
  5
10B49
  8
0
 10
4548.6028171349016702
 20
212.2590106860018011
 30
0.0
 40
0.012
 50
270.0000000000521254
 51
1.9143169350027609
  0
ARC
  5
10B4A
  8
0
 10
4546.6018501333010136
 20
212.2590106860018011
 30
0.0
 40
0.012
 50
180.0000000000098055
 51
269.9999999999478746
  0
LINE
  5
10B4C
  8
0
 10
4533.9937641078313391
 20
212.4350065048016916
 30
0.0
 11
4535.1498476467977525
 21
212.4350065048016916
 31
0.0
  0
ENDSEC
  0
EOF
