  0
SECTION
  2
HEADER
  9
$ACADVER
  1
AC1009
  9
$INSBASE
 10
3055.5723581091751839
 20
33.4484249071565074
 30
0.0
  9
$EXTMIN
 10
3048.3830460218741791
 20
33.4425715729240167
 30
-0.0000000000000058
  9
$EXTMAX
 10
3062.8706665143458849
 20
35.5672273805337724
 30
0.0000000000000104
  9
$LIMMIN
 10
0.0
 20
0.0
  9
$LIMMAX
 10
11.6929133858000007
 20
8.2677165353999982
  9
$ORTHOMODE
 70
     0
  9
$REGENMODE
 70
     1
  9
$FILLMODE
 70
     1
  9
$QTEXTMODE
 70
     0
  9
$MIRRTEXT
 70
     0
  9
$DRAGMODE
 70
     2
  9
$LTSCALE
 40
0.6431102362
  9
$OSMODE
 70
  3839
  9
$ATTMODE
 70
     1
  9
$TEXTSIZE
 40
0.2
  9
$TRACEWID
 40
0.05
  9
$TEXTSTYLE
  7
STANDARD
  9
$CLAYER
  8
0
  9
$CELTYPE
  6
BYLAYER
  9
$CECOLOR
 62
   256
  9
$DIMSCALE
 40
1.0
  9
$DIMASZ
 40
0.1875
  9
$DIMEXO
 40
0.0625
  9
$DIMDLI
 40
0.4443307087
  9
$DIMRND
 40
0.0
  9
$DIMDLE
 40
0.0
  9
$DIMEXE
 40
0.125
  9
$DIMTP
 40
0.01
  9
$DIMTM
 40
0.01
  9
$DIMTXT
 40
2.0
  9
$DIMCEN
 40
0.1052362205
  9
$DIMTSZ
 40
0.0
  9
$DIMTOL
 70
     1
  9
$DIMLIM
 70
     0
  9
$DIMTIH
 70
     1
  9
$DIMTOH
 70
     1
  9
$DIMSE1
 70
     0
  9
$DIMSE2
 70
     0
  9
$DIMTAD
 70
     0
  9
$DIMZIN
 70
     0
  9
$DIMBLK
  1

  9
$DIMASO
 70
     1
  9
$DIMSHO
 70
     1
  9
$DIMPOST
  1
\X
  9
$DIMAPOST
  1

  9
$DIMALT
 70
     1
  9
$DIMALTD
 70
     2
  9
$DIMALTF
 40
25.3999999999999986
  9
$DIMLFAC
 40
1.0
  9
$DIMTOFL
 70
     0
  9
$DIMTVP
 40
0.0
  9
$DIMTIX
 70
     0
  9
$DIMSOXD
 70
     0
  9
$DIMSAH
 70
     0
  9
$DIMBLK1
  1

  9
$DIMBLK2
  1

  9
$DIMSTYLE
  2
STANDARD
  9
$DIMCLRD
 70
     0
  9
$DIMCLRE
 70
     0
  9
$DIMCLRT
 70
     0
  9
$DIMTFAC
 40
1.0
  9
$DIMGAP
 40
0.09
  9
$LUNITS
 70
     2
  9
$LUPREC
 70
     4
  9
$SKETCHINC
 40
0.1
  9
$FILLETRAD
 40
0.0
  9
$AUNITS
 70
     0
  9
$AUPREC
 70
     0
  9
$MENU
  1
.
  9
$ELEVATION
 40
0.0
  9
$PELEVATION
 40
0.0
  9
$THICKNESS
 40
0.0
  9
$LIMCHECK
 70
     0
  9
$BLIPMODE
 70
     0
  9
$CHAMFERA
 40
0.0
  9
$CHAMFERB
 40
0.0
  9
$SKPOLY
 70
     0
  9
$TDCREATE
 40
2458060.468368056230247
  9
$TDUPDATE
 40
2460419.3903009258210659
  9
$TDINDWG
 40
0.4887686343
  9
$TDUSRTIMER
 40
0.4887686343
  9
$USRTIMER
 70
     1
  9
$ANGBASE
 50
0.0
  9
$ANGDIR
 70
     0
  9
$PDMODE
 70
     0
  9
$PDSIZE
 40
0.3125
  9
$PLINEWID
 40
0.0
  9
$COORDS
 70
     1
  9
$SPLFRAME
 70
     0
  9
$SPLINETYPE
 70
     6
  9
$SPLINESEGS
 70
     8
  9
$ATTDIA
 70
     1
  9
$ATTREQ
 70
     1
  9
$HANDLING
 70
     1
  9
$HANDSEED
  5
30B14
  9
$SURFTAB1
 70
     6
  9
$SURFTAB2
 70
     6
  9
$SURFTYPE
 70
     6
  9
$SURFU
 70
     6
  9
$SURFV
 70
     6
  9
$UCSNAME
  2

  9
$UCSORG
 10
0.0
 20
0.0
 30
0.0
  9
$UCSXDIR
 10
1.0
 20
0.0
 30
0.0
  9
$UCSYDIR
 10
0.0
 20
1.0
 30
0.0
  9
$PUCSNAME
  2

  9
$PUCSORG
 10
0.0
 20
0.0
 30
0.0
  9
$PUCSXDIR
 10
1.0
 20
0.0
 30
0.0
  9
$PUCSYDIR
 10
0.0
 20
1.0
 30
0.0
  9
$USERI1
 70
     0
  9
$USERI2
 70
     0
  9
$USERI3
 70
     0
  9
$USERI4
 70
     0
  9
$USERI5
 70
     0
  9
$USERR1
 40
0.0
  9
$USERR2
 40
0.0
  9
$USERR3
 40
0.0
  9
$USERR4
 40
0.0
  9
$USERR5
 40
0.0
  9
$WORLDVIEW
 70
     1
  9
$SHADEDGE
 70
     3
  9
$SHADEDIF
 70
    70
  9
$TILEMODE
 70
     1
  9
$MAXACTVP
 70
    64
  9
$PLIMCHECK
 70
     0
  9
$PEXTMIN
 10
1.0000000000000000E+20
 20
1.0000000000000000E+20
 30
1.0000000000000000E+20
  9
$PEXTMAX
 10
-1.0000000000000000E+20
 20
-1.0000000000000000E+20
 30
-1.0000000000000000E+20
  9
$PLIMMIN
 10
0.0
 20
0.0
  9
$PLIMMAX
 10
12.0
 20
9.0
  9
$UNITMODE
 70
     0
  9
$VISRETAIN
 70
     1
  9
$PLINEGEN
 70
     0
  9
$PSLTSCALE
 70
     1
  0
ENDSEC
  0
SECTION
  2
TABLES
  0
TABLE
  2
VPORT
 70
     1
  0
VPORT
  2
*ACTIVE
 70
     0
 10
0.0
 20
0.0
 11
1.0
 21
1.0
 12
-747.9172111147025817
 22
-91.4903627200210252
 13
0.0
 23
0.0
 14
1.0
 24
1.0
 15
0.0
 25
0.0
 16
0.0
 26
0.0
 36
17.1152628219792007
 17
3803.5440673828129547
 27
125.9952621967499056
 37
0.0
 40
6.8516470298333489
 41
2.1211111111111101
 42
50.0
 43
0.0
 44
0.0
 50
0.0
 51
0.0
 71
     0
 72
   100
 73
     1
 74
     1
 75
     0
 76
     0
 77
     0
 78
     0
  0
ENDTAB
  0
TABLE
  2
LTYPE
 70
     2
  0
LTYPE
  2
CONTINUOUS
 70
     0
  3
Solid line
 72
    65
 73
     0
 40
0.0
  0
LTYPE
  2
PHANTOM2
 70
     0
  3
___ _ _ ___ _ _ ___ _ _ ___ _ _
 72
    65
 73
     6
 40
1.25
 49
0.625
 49
-0.125
 49
0.125
 49
-0.125
 49
0.125
 49
-0.125
  0
ENDTAB
  0
TABLE
  2
LAYER
 70
     2
  0
LAYER
  2
0
 70
     0
 62
   255
  6
CONTINUOUS
  0
LAYER
  2
DEFPOINTS
 70
     0
 62
     7
  6
CONTINUOUS
  0
ENDTAB
  0
TABLE
  2
STYLE
 70
     1
  0
STYLE
  2
STANDARD
 70
     0
 40
0.0
 41
0.8
 50
0.0
 71
     0
 42
0.2
  3
txt
  4

  0
ENDTAB
  0
TABLE
  2
VIEW
 70
     0
  0
ENDTAB
  0
TABLE
  2
UCS
 70
     0
  0
ENDTAB
  0
TABLE
  2
APPID
 70
    10
  0
APPID
  2
ACAD
 70
     0
  0
APPID
  2
ACAD_MLEADERVER
 70
     0
  0
APPID
  2
ACAD_EXEMPT_FROM_CAD_STANDARDS
 70
     0
  0
APPID
  2
ACAD_NAV_VCDISPLAY
 70
     0
  0
APPID
  2
ACAECLAYERSTANDARD
 70
     0
  0
APPID
  2
ACCMTRANSPARENCY
 70
     0
  0
APPID
  2
ACAD_DSTYLE_DIMJAG
 70
     0
  0
APPID
  2
ACAD_DSTYLE_DIMTALN
 70
     0
  0
APPID
  2
ACDBATTR
 70
     0
  0
APPID
  2
DCO15
 70
     0
  0
ENDTAB
  0
TABLE
  2
DIMSTYLE
 70
     1
  0
DIMSTYLE
  2
STANDARD
 70
     0
  3

  4

  5

  6

  7

 40
1.0
 41
0.1875
 42
0.0625
 43
0.38
 44
0.125
 45
0.0
 46
0.0
 47
0.01
 48
0.01
140
0.15625
141
0.09
142
0.0
143
25.3999999999999986
144
1.0
145
0.0
146
1.0
147
0.09
 71
     1
 72
     0
 73
     1
 74
     1
 75
     0
 76
     0
 77
     0
 78
     4
170
     0
171
     2
172
     0
173
     0
174
     0
175
     0
176
     0
177
     0
178
     0
  0
ENDTAB
  0
ENDSEC
  0
SECTION
  2
BLOCKS
  0
BLOCK
  8
0
  2
$MODEL_SPACE
 70
     0
 10
0.0
 20
0.0
 30
0.0
  3
$MODEL_SPACE
  1

  0
ENDBLK
  5
21
  8
0
  0
BLOCK
 67
     1
  8
0
  2
$PAPER_SPACE
 70
     0
 10
0.0
 20
0.0
 30
0.0
  3
$PAPER_SPACE
  1

  0
ENDBLK
  5
1D
 67
     1
  8
0
  0
BLOCK
  8
0
  2
_FILLED
 70
     0
 10
0.0
 20
0.0
 30
0.0
  3
_FILLED
  1

  0
SOLID
  5
2F55F
  8
0
  6
BYBLOCK
 62
     0
 10
0.0
 20
0.0
 30
0.0
 11
-1.0
 21
0.1666666667
 31
0.0
 12
-1.0
 22
-0.1666666667
 32
0.0
 13
-1.0
 23
-0.1666666667
 33
0.0
  0
ENDBLK
  5
2F560
  8
0
  6
BYBLOCK
 62
     0
  0
ENDSEC
  0
SECTION
  2
ENTITIES
  0
LINE
  5
3060C
  8
0
 10
3054.7804244826711511
 20
35.5656021019565927
 30
0.0
 11
3056.3643145978289795
 21
35.5656021019565927
 31
0.0
  0
LINE
  5
3060D
  8
0
 10
3048.5848401670418752
 20
33.6894689430018985
 30
0.0
 11
3062.56190689818186
 21
33.6894689430018985
 31
0.0
  0
LINE
  5
3060E
  8
0
 10
3048.4545934204329569
 20
33.7524680129019004
 30
0.0
 11
3062.6921307826410157
 21
33.7524680129019004
 31
0.0
  0
LINE
  5
3060F
  8
0
 10
3048.6936221607820698
 20
34.2153802324018983
 30
0.0
 11
3062.4531249044412107
 21
34.2153802324018983
 31
0.0
  0
LINE
  5
30610
  8
0
 10
3048.5860095104071661
 20
34.3984443888019129
 30
0.0
 11
3062.5607375548161144
 21
34.3984443888019129
 31
0.0
  0
LINE
  5
30611
  8
0
 10
3048.4545934204329569
 20
34.4614443908019012
 30
0.0
 11
3062.6921307826419252
 21
34.4614443908019012
 31
0.0
  0
LINE
  5
30612
  8
0
 10
3048.7601735027501491
 20
35.0954670055142728
 30
0.0
 11
3062.386573562474041
 21
35.0954670055142728
 31
0.0
  0
ARC
  5
30613
  8
0
 10
3048.5877854864102119
 20
33.822655617550069
 30
0.0
 40
0.1332192372871705
 50
211.7933990883402089
 51
268.7331550353043212
  0
ARC
  5
30614
  8
0
 10
3127.5668500698538992
 20
31.0647256820339415
 30
0.0
 40
79.1578998647713945
 50
177.9815326303296956
 51
178.0541942414369885
  0
ARC
  5
30615
  8
0
 10
3049.2881375389920322
 20
33.8234455403314414
 30
0.0
 40
0.8305906431825805
 50
168.0880336449598929
 51
177.9750120794884083
  0
ARC
  5
30616
  8
0
 10
3048.740668762623045
 20
33.9506240454216623
 30
0.0
 40
0.2689037398196734
 50
100.0761579984587968
 51
170.5257973531265918
  0
ARC
  5
30617
  8
0
 10
3048.6611493122941283
 20
34.4230642866386205
 30
0.0
 40
0.2102074029932003
 50
278.8866416607409064
 51
322.9847793352348049
  0
ARC
  5
30618
  8
0
 10
3049.0649812049750835
 20
34.1110484370410489
 30
0.0
 40
0.3001448924736581
 50
106.7587622172697053
 51
141.8356598147123862
  0
ARC
  5
30619
  8
0
 10
3048.5879885532649496
 20
34.5318594780922723
 30
0.0
 40
0.1334297667725878
 50
211.8523073152263123
 51
269.1501524446288158
  0
ARC
  5
3061A
  8
0
 10
3354.6120253437111387
 20
23.7336205517544911
 30
0.0
 40
306.3453269207461744
 50
177.9744497512187991
 51
177.9931643413090967
  0
ARC
  5
3061B
  8
0
 10
3049.7048129490949577
 20
34.5172095476093688
 30
0.0
 40
1.247483668936767
 50
161.4608884448518893
 51
177.9679082706784925
  0
ARC
  5
3061C
  8
0
 10
3048.7751520572642221
 20
34.8289356451669434
 30
0.0
 40
0.2669519116693655
 50
93.216530288962943
 51
161.4527682667315958
  0
ARC
  5
3061D
  8
0
 10
3104.0547129167730418
 20
-271.5483739662162179
 30
0.0
 40
311.5893632570035265
 50
99.8023447904146934
 51
100.2218264450407048
  0
ARC
  5
3061E
  8
0
 10
3051.5898630799210878
 20
31.4658398900893808
 30
0.0
 40
4.0682519339609939
 50
91.3878943962524062
 51
98.2417597586197076
  0
ARC
  5
3061F
  8
0
 10
3051.5164921881942064
 20
198.720930306839989
 30
0.0
 40
163.1880339281325973
 50
269.991164122555972
 51
271.1460522652938039
  0
LINE
  5
30620
  8
0
 10
3051.5679146344959918
 20
33.5646942484019206
 30
0.0
 11
3059.5768244460027745
 21
33.5646942484019206
 31
0.0
  0
ARC
  5
30621
  8
0
 10
3051.267262526056129
 20
33.7703276976806919
 30
0.0
 40
1.2150470764463159
 50
183.8157740887428133
 51
185.9802023294857065
  0
ARC
  5
30622
  8
0
 10
3050.0743900632141958
 20
33.6453684665144621
 30
0.0
 40
0.0156474257632488
 50
185.9802023294840865
 51
215.1528623472036088
  0
LINE
  5
30623
  8
0
 10
3050.6346321692722086
 20
33.4498344021064966
 30
0.0
 11
3051.0981199523771465
 21
33.4498344021064895
 31
0.0
  0
ARC
  5
30624
  8
0
 10
3050.4177050901371331
 20
33.9614845871826319
 30
0.0
 40
0.4822030937350634
 50
222.395910385357098
 51
254.114794878973413
  0
ARC
  5
30625
  8
0
 10
3050.6286499016318885
 20
34.701940717389391
 30
0.0
 40
1.2521206061308181
 50
254.1048027646359913
 51
270.2737435914903017
  0
LINE
  5
30626
  8
0
 10
3051.6578300958499312
 20
33.6894680129019122
 30
0.0
 11
3051.6543393434499194
 21
33.6436564853019178
 31
0.0
  0
ARC
  5
30627
  8
0
 10
3051.6423219753078229
 20
33.644572186193848
 30
0.0
 40
0.0120522049930108
 50
317.0435676080301164
 51
355.6425894116591166
  0
ARC
  5
30628
  8
0
 10
3051.2856275619760709
 20
33.9766883799964816
 30
0.0
 40
0.4994248249546299
 50
286.4457271505705762
 51
317.0435676080301164
  0
ARC
  5
30629
  8
0
 10
3051.0960220097322235
 20
34.6182569894713907
 30
0.0
 40
1.168424470827186
 50
270.1028764175787273
 51
286.4563151101141898
  0
ARC
  5
3062A
  8
0
 10
3062.5589615788148876
 20
33.822655617550069
 30
0.0
 40
0.1332192372871705
 50
271.2668449646956788
 51
328.2066009116597911
  0
ARC
  5
3062B
  8
0
 10
3016.6398802685271221
 20
32.2193802272177123
 30
0.0
 40
46.0777618333764423
 50
1.9066827650304099
 51
2.031508622480223
  0
ARC
  5
3062C
  8
0
 10
3061.8586095262321578
 20
33.8234455403314414
 30
0.0
 40
0.8305906431825805
 50
2.0249879205115389
 51
11.9119663550401302
  0
ARC
  5
3062D
  8
0
 10
3062.4060783026020545
 20
33.9506240454216623
 30
0.0
 40
0.2689037398196734
 50
9.4742026468734135
 51
79.9238420015411464
  0
ARC
  5
3062E
  8
0
 10
3062.4855977529300617
 20
34.4230642866386205
 30
0.0
 40
0.2102074029932003
 50
217.0152206647651951
 51
261.1133583392592072
  0
ARC
  5
3062F
  8
0
 10
3062.0817658602491065
 20
34.1110484370410489
 30
0.0
 40
0.3001448924736581
 50
38.164340185287557
 51
73.2412377827303942
  0
ARC
  5
30630
  8
0
 10
3062.5587585119601499
 20
34.5318594780922723
 30
0.0
 40
0.1334297667725878
 50
270.8498475553711842
 51
328.147692684773574
  0
ARC
  5
30631
  8
0
 10
2982.0451565941098124
 20
31.6908682931739811
 30
0.0
 40
80.6945508549265895
 50
1.967586664732468
 51
2.0386333657167341
  0
ARC
  5
30632
  8
0
 10
3061.4419341161287775
 20
34.5172095476093688
 30
0.0
 40
1.247483668936767
 50
2.0320917293214471
 51
18.5391115551480716
  0
ARC
  5
30633
  8
0
 10
3062.3715950079599679
 20
34.8289356451669434
 30
0.0
 40
0.2669519116693655
 50
18.5472317332683616
 51
86.783469711037057
  0
ARC
  5
30634
  8
0
 10
3007.0440730166951653
 20
-272.0888543597408216
 30
0.0
 40
312.1297801544926074
 50
79.7871156100485166
 51
80.2062339648258842
  0
ARC
  5
30635
  8
0
 10
3059.5548760005790427
 20
31.4658398900893808
 30
0.0
 40
4.0682519339609939
 50
81.7582402413803067
 51
88.612105603747608
  0
ARC
  5
30636
  8
0
 10
3059.6282468923068336
 20
198.720930306839989
 30
0.0
 40
163.1880339281325973
 50
268.8539477347063098
 51
270.0088358774439143
  0
ARC
  5
30637
  8
0
 10
3059.877476554444911
 20
33.7703276976806919
 30
0.0
 40
1.2150470764463159
 50
354.0197976705143219
 51
356.1842259112572151
  0
ARC
  5
30638
  8
0
 10
3061.0703490172859347
 20
33.6453684665144621
 30
0.0
 40
0.0156474257632488
 50
324.8471376527965049
 51
354.0197976705159135
  0
LINE
  5
30639
  8
0
 10
3060.5101069112288314
 20
33.4498344021064966
 30
0.0
 11
3060.046619128122984
 21
33.4498344021064895
 31
0.0
  0
ARC
  5
3063A
  8
0
 10
3060.7270339903620879
 20
33.9614845871826319
 30
0.0
 40
0.4822030937350634
 50
285.8852051210265017
 51
317.6040896146428736
  0
ARC
  5
3063B
  8
0
 10
3060.516089178870061
 20
34.701940717389391
 30
0.0
 40
1.2521206061308201
 50
269.7262564085096983
 51
285.8951972353639803
  0
LINE
  5
3063C
  8
0
 10
3059.4869089846501993
 20
33.6894680129019122
 30
0.0
 11
3059.4903997370502111
 21
33.6436564853019178
 31
0.0
  0
ARC
  5
3063D
  8
0
 10
3059.5024171051932171
 20
33.644572186193848
 30
0.0
 40
0.0120522049930108
 50
184.3574105883392065
 51
222.9564323919697983
  0
ARC
  5
3063E
  8
0
 10
3059.8591115185249691
 20
33.9766883799964816
 30
0.0
 40
0.4994248249546299
 50
222.9564323919697983
 51
253.5542728494293954
  0
ARC
  5
3063F
  8
0
 10
3060.048717070767907
 20
34.6182569894714334
 30
0.0
 40
1.1684244708272249
 50
253.5436848898858955
 51
269.8971235824212727
  0
LINE
  5
30640
  8
0
 10
3050.0615964328499103
 20
33.6363593070018823
 30
0.0
 11
3051.6511426476499764
 21
33.6363593070018823
 31
0.0
  0
LINE
  5
30641
  8
0
 10
3059.4935964328501541
 20
33.6363593070018823
 30
0.0
 11
3061.0831426476502202
 21
33.6363593070018823
 31
0.0
  0
LINE
  5
30642
  8
0
 10
3052.1716082227922016
 20
33.4606167752173889
 30
0.0
 11
3052.173805501687184
 21
33.5646942484019206
 31
0.0
  0
LINE
  5
30643
  8
0
 10
3053.4715447403609687
 20
33.4606435198273502
 30
0.0
 11
3053.4691159543967842
 21
33.5646942484019206
 31
0.0
  0
LINE
  5
30644
  8
0
 10
3052.1836055493968161
 20
33.4484249071565074
 30
0.0
 11
3053.459548008209822
 21
33.4484249071565074
 31
0.0
  0
ARC
  5
30645
  8
0
 10
3052.1835030473671395
 20
33.4603229194379566
 30
0.0
 40
0.011898453803566
 50
178.5848238553392946
 51
270.4935940785026105
  0
ARC
  5
30646
  8
0
 10
3053.4596503328421022
 20
33.4603231873996165
 30
0.0
 40
0.0118987202284079
 50
269.5072712260957815
 51
1.5426796798842159
  0
LINE
  5
30647
  8
0
 10
3052.4575775736511787
 20
33.4603634882019065
 30
0.0
 11
3052.4575775736511787
 21
33.5646942484019206
 31
0.0
  0
ARC
  5
30648
  8
0
 10
3052.4695775736499854
 20
33.4603634882019065
 30
0.0
 40
0.012
 50
180.0
 51
264.2005924869374098
  0
LINE
  5
30649
  8
0
 10
3053.1859276049499385
 20
33.4603634882019065
 30
0.0
 11
3053.1859276049499385
 21
33.5646942484019206
 31
0.0
  0
ARC
  5
3064A
  8
0
 10
3053.1739276049502223
 20
33.4603634882019065
 30
0.0
 40
0.012
 50
275.7994075130625902
 51
0.0
  0
LINE
  5
3064B
  8
0
 10
3058.9731308577088384
 20
33.4606167752173889
 30
0.0
 11
3058.9709335788129465
 21
33.5646942484019206
 31
0.0
  0
LINE
  5
3064C
  8
0
 10
3057.6731943401391618
 20
33.4606435198273502
 30
0.0
 11
3057.6756231261028915
 21
33.5646942484019206
 31
0.0
  0
LINE
  5
3064D
  8
0
 10
3058.9611335311028597
 20
33.4484249071565074
 30
0.0
 11
3057.6851910722898538
 21
33.4484249071565074
 31
0.0
  0
ARC
  5
3064E
  8
0
 10
3058.961236033132991
 20
33.4603229194379566
 30
0.0
 40
0.0118984538035683
 50
269.5064059215234806
 51
1.4151761446517079
  0
ARC
  5
3064F
  8
0
 10
3057.6850887476580283
 20
33.4603231873996165
 30
0.0
 40
0.011898720228407
 50
178.457320320115798
 51
270.4927287739042185
  0
LINE
  5
30650
  8
0
 10
3058.6871615068498613
 20
33.4603634882019065
 30
0.0
 11
3058.6871615068498613
 21
33.5646942484019206
 31
0.0
  0
ARC
  5
30651
  8
0
 10
3058.6751615068501451
 20
33.4603634882019065
 30
0.0
 40
0.012
 50
275.7994075130624765
 51
0.0
  0
LINE
  5
30652
  8
0
 10
3057.958811475550192
 20
33.4603634882019065
 30
0.0
 11
3057.958811475550192
 21
33.5646942484019206
 31
0.0
  0
ARC
  5
30653
  8
0
 10
3057.9708114755508177
 20
33.4603634882019065
 30
0.0
 40
0.012
 50
180.0
 51
264.2005924869374098
  0
ARC
  5
30654
  8
0
 10
3033.4186778401058291
 20
223.536201309655695
 30
0.0
 40
189.2572211694094051
 50
275.3240516556709281
 51
276.2562362571860035
  0
ARC
  5
30655
  8
0
 10
3055.7149990360630909
 20
16.2663643123455586
 30
0.0
 40
19.2126327056409103
 50
90.4229907346061736
 51
94.9925487189151454
  0
ARC
  5
30656
  8
0
 10
3077.7260612403938467
 20
223.536201309655695
 30
0.0
 40
189.2572211694094051
 50
263.7437637428139965
 51
264.6759483443290719
  0
ARC
  5
30657
  8
0
 10
3055.5527972838908681
 20
18.8687165114768582
 30
0.0
 40
16.6097694242750009
 50
84.6491041364631229
 51
89.9297531295358255
  0
ATTDEF
  5
306B3
  8
DEFPOINTS
 10
3055.5611641569480526
 20
33.4464970677482683
 30
0.0
 40
0.001
  1
P70303-BGP
  3

  2
MODELNUMBER
 70
     0
1001
ACDBATTR
1070
     0
1070
     1
  0
ATTDEF
  5
306B4
  8
DEFPOINTS
 10
3055.5611641569480526
 20
33.4448304010816102
 30
0.0
 40
0.001
  1

  3

  2
TRADENAME
 70
     0
1001
ACDBATTR
1070
     0
1070
     1
  0
ATTDEF
  5
306B5
  8
DEFPOINTS
 10
3055.5611641569480526
 20
33.4431637344149379
 30
0.0
 40
0.001
  1
TOILET SEAT
  3

  2
PRODUCT
 70
     0
1001
ACDBATTR
1070
     0
1070
     1
  0
ENDSEC
  0
EOF
