  0
SECTION
  2
HEADER
  9
$ACADVER
  1
AC1009
  9
$INSBASE
 10
4588.1110351530724074
 20
216.2361510516660985
 30
0.0
  9
$EXTMIN
 10
4580.7559366301429691
 20
216.2175756020668871
 30
-0.0000000349181948
  9
$EXTMAX
 10
4595.4809916595568211
 20
218.3666566961649949
 30
0.0000000814935746
  9
$LIMMIN
 10
0.0
 20
0.0
  9
$LIMMAX
 10
11.6929133858000007
 20
8.2677165353999982
  9
$ORTHOMODE
 70
     0
  9
$REGENMODE
 70
     1
  9
$FILLMODE
 70
     1
  9
$QTEXTMODE
 70
     0
  9
$MIRRTEXT
 70
     0
  9
$DRAGMODE
 70
     2
  9
$LTSCALE
 40
0.6431102362
  9
$OSMODE
 70
  4095
  9
$ATTMODE
 70
     1
  9
$TEXTSIZE
 40
0.2
  9
$TRACEWID
 40
0.05
  9
$TEXTSTYLE
  7
STANDARD
  9
$CLAYER
  8
0
  9
$CELTYPE
  6
BYLAYER
  9
$CECOLOR
 62
   256
  9
$DIMSCALE
 40
1.0
  9
$DIMASZ
 40
0.1875
  9
$DIMEXO
 40
0.0625
  9
$DIMDLI
 40
0.4443307087
  9
$DIMRND
 40
0.0
  9
$DIMDLE
 40
0.0
  9
$DIMEXE
 40
0.125
  9
$DIMTP
 40
0.01
  9
$DIMTM
 40
0.01
  9
$DIMTXT
 40
2.0
  9
$DIMCEN
 40
0.1052362205
  9
$DIMTSZ
 40
0.0
  9
$DIMTOL
 70
     1
  9
$DIMLIM
 70
     0
  9
$DIMTIH
 70
     1
  9
$DIMTOH
 70
     1
  9
$DIMSE1
 70
     0
  9
$DIMSE2
 70
     0
  9
$DIMTAD
 70
     0
  9
$DIMZIN
 70
     0
  9
$DIMBLK
  1

  9
$DIMASO
 70
     1
  9
$DIMSHO
 70
     1
  9
$DIMPOST
  1
\X
  9
$DIMAPOST
  1

  9
$DIMALT
 70
     1
  9
$DIMALTD
 70
     2
  9
$DIMALTF
 40
25.3999999999999986
  9
$DIMLFAC
 40
1.0
  9
$DIMTOFL
 70
     0
  9
$DIMTVP
 40
0.0
  9
$DIMTIX
 70
     0
  9
$DIMSOXD
 70
     0
  9
$DIMSAH
 70
     0
  9
$DIMBLK1
  1

  9
$DIMBLK2
  1

  9
$DIMSTYLE
  2
STANDARD
  9
$DIMCLRD
 70
     0
  9
$DIMCLRE
 70
     0
  9
$DIMCLRT
 70
     0
  9
$DIMTFAC
 40
1.0
  9
$DIMGAP
 40
0.09
  9
$LUNITS
 70
     2
  9
$LUPREC
 70
     4
  9
$SKETCHINC
 40
0.1
  9
$FILLETRAD
 40
0.0
  9
$AUNITS
 70
     0
  9
$AUPREC
 70
     0
  9
$MENU
  1
.
  9
$ELEVATION
 40
0.0
  9
$PELEVATION
 40
0.0
  9
$THICKNESS
 40
0.0
  9
$LIMCHECK
 70
     0
  9
$BLIPMODE
 70
     0
  9
$CHAMFERA
 40
0.0
  9
$CHAMFERB
 40
0.0
  9
$SKPOLY
 70
     0
  9
$TDCREATE
 40
2458060.468368056230247
  9
$TDUPDATE
 40
2459873.4118402781896293
  9
$TDINDWG
 40
0.5287802083000001
  9
$TDUSRTIMER
 40
0.5287802083000001
  9
$USRTIMER
 70
     1
  9
$ANGBASE
 50
0.0
  9
$ANGDIR
 70
     0
  9
$PDMODE
 70
     0
  9
$PDSIZE
 40
0.3125
  9
$PLINEWID
 40
0.0
  9
$COORDS
 70
     1
  9
$SPLFRAME
 70
     0
  9
$SPLINETYPE
 70
     6
  9
$SPLINESEGS
 70
     8
  9
$ATTDIA
 70
     1
  9
$ATTREQ
 70
     1
  9
$HANDLING
 70
     1
  9
$HANDSEED
  5
10B03
  9
$SURFTAB1
 70
     6
  9
$SURFTAB2
 70
     6
  9
$SURFTYPE
 70
     6
  9
$SURFU
 70
     6
  9
$SURFV
 70
     6
  9
$UCSNAME
  2

  9
$UCSORG
 10
0.0
 20
0.0
 30
0.0
  9
$UCSXDIR
 10
1.0
 20
0.0
 30
0.0
  9
$UCSYDIR
 10
0.0
 20
1.0
 30
0.0
  9
$PUCSNAME
  2

  9
$PUCSORG
 10
0.0
 20
0.0
 30
0.0
  9
$PUCSXDIR
 10
1.0
 20
0.0
 30
0.0
  9
$PUCSYDIR
 10
0.0
 20
1.0
 30
0.0
  9
$USERI1
 70
     0
  9
$USERI2
 70
     0
  9
$USERI3
 70
     0
  9
$USERI4
 70
     0
  9
$USERI5
 70
     0
  9
$USERR1
 40
0.0
  9
$USERR2
 40
0.0
  9
$USERR3
 40
0.0
  9
$USERR4
 40
0.0
  9
$USERR5
 40
0.0
  9
$WORLDVIEW
 70
     1
  9
$SHADEDGE
 70
     3
  9
$SHADEDIF
 70
    70
  9
$TILEMODE
 70
     1
  9
$MAXACTVP
 70
    64
  9
$PLIMCHECK
 70
     0
  9
$PEXTMIN
 10
1.0000000000000000E+20
 20
1.0000000000000000E+20
 30
1.0000000000000000E+20
  9
$PEXTMAX
 10
-1.0000000000000000E+20
 20
-1.0000000000000000E+20
 30
-1.0000000000000000E+20
  9
$PLIMMIN
 10
0.0
 20
0.0
  9
$PLIMMAX
 10
12.0
 20
9.0
  9
$UNITMODE
 70
     0
  9
$VISRETAIN
 70
     1
  9
$PLINEGEN
 70
     0
  9
$PSLTSCALE
 70
     1
  0
ENDSEC
  0
SECTION
  2
TABLES
  0
TABLE
  2
VPORT
 70
     1
  0
VPORT
  2
*ACTIVE
 70
     0
 10
0.0
 20
0.0
 11
1.0
 21
1.0
 12
784.5743967620372814
 22
91.2968539523660212
 13
0.0
 23
0.0
 14
1.0
 24
1.0
 15
0.0
 25
0.0
 16
0.0
 26
0.0
 36
17.1152628219792007
 17
3803.5440673828129547
 27
125.9952621967499056
 37
0.0
 40
7.054666482794004
 41
2.095052083333333
 42
50.0
 43
0.0
 44
0.0
 50
0.0
 51
0.0
 71
     0
 72
   100
 73
     1
 74
     1
 75
     0
 76
     0
 77
     0
 78
     0
  0
ENDTAB
  0
TABLE
  2
LTYPE
 70
     2
  0
LTYPE
  2
CONTINUOUS
 70
     0
  3
Solid line
 72
    65
 73
     0
 40
0.0
  0
LTYPE
  2
PHANTOM2
 70
     0
  3
___ _ _ ___ _ _ ___ _ _ ___ _ _
 72
    65
 73
     6
 40
1.25
 49
0.625
 49
-0.125
 49
0.125
 49
-0.125
 49
0.125
 49
-0.125
  0
ENDTAB
  0
TABLE
  2
LAYER
 70
     2
  0
LAYER
  2
0
 70
     0
 62
   255
  6
CONTINUOUS
  0
LAYER
  2
DEFPOINTS
 70
     0
 62
     7
  6
CONTINUOUS
  0
ENDTAB
  0
TABLE
  2
STYLE
 70
     1
  0
STYLE
  2
STANDARD
 70
     0
 40
0.0
 41
0.8
 50
0.0
 71
     0
 42
0.2
  3
txt
  4

  0
ENDTAB
  0
TABLE
  2
VIEW
 70
     0
  0
ENDTAB
  0
TABLE
  2
UCS
 70
     0
  0
ENDTAB
  0
TABLE
  2
APPID
 70
     9
  0
APPID
  2
ACAD
 70
     0
  0
APPID
  2
ACAD_MLEADERVER
 70
     0
  0
APPID
  2
ACAD_EXEMPT_FROM_CAD_STANDARDS
 70
     0
  0
APPID
  2
ACAD_NAV_VCDISPLAY
 70
     0
  0
APPID
  2
ACAECLAYERSTANDARD
 70
     0
  0
APPID
  2
ACCMTRANSPARENCY
 70
     0
  0
APPID
  2
ACAD_DSTYLE_DIMJAG
 70
     0
  0
APPID
  2
ACAD_DSTYLE_DIMTALN
 70
     0
  0
APPID
  2
ACDBATTR
 70
     0
  0
ENDTAB
  0
TABLE
  2
DIMSTYLE
 70
     1
  0
DIMSTYLE
  2
STANDARD
 70
     0
  3

  4

  5

  6

  7

 40
1.0
 41
0.1875
 42
0.0625
 43
0.38
 44
0.125
 45
0.0
 46
0.0
 47
0.01
 48
0.01
140
0.15625
141
0.09
142
0.0
143
25.3999999999999986
144
1.0
145
0.0
146
1.0
147
0.09
 71
     1
 72
     0
 73
     1
 74
     1
 75
     0
 76
     0
 77
     0
 78
     4
170
     0
171
     2
172
     0
173
     0
174
     0
175
     0
176
     0
177
     0
178
     0
  0
ENDTAB
  0
ENDSEC
  0
SECTION
  2
BLOCKS
  0
BLOCK
  8
0
  2
$MODEL_SPACE
 70
     0
 10
0.0
 20
0.0
 30
0.0
  3
$MODEL_SPACE
  1

  0
ENDBLK
  5
21
  8
0
  0
BLOCK
 67
     1
  8
0
  2
$PAPER_SPACE
 70
     0
 10
0.0
 20
0.0
 30
0.0
  3
$PAPER_SPACE
  1

  0
ENDBLK
  5
1D
 67
     1
  8
0
  0
BLOCK
  8
0
  2
_FILLED
 70
     0
 10
0.0
 20
0.0
 30
0.0
  3
_FILLED
  1

  0
SOLID
  5
1065B
  8
0
  6
BYBLOCK
 62
     0
 10
0.0
 20
0.0
 30
0.0
 11
-1.0
 21
0.1666666667
 31
0.0
 12
-1.0
 22
-0.1666666667
 32
0.0
 13
-1.0
 23
-0.1666666667
 33
0.0
  0
ENDBLK
  5
1065C
  8
0
  6
BYBLOCK
 62
     0
  0
ENDSEC
  0
SECTION
  2
ENTITIES
  0
ATTDEF
  5
3930
  8
DEFPOINTS
 10
4588.111543549282942
 20
216.2343748278647126
 30
0.0
 40
0.001
  1
P70303-BAF
  3

  2
MODELNUMBER
 70
     0
1001
ACDBATTR
1070
     0
1070
     1
  0
ATTDEF
  5
3931
  8
DEFPOINTS
 10
4588.111543549282942
 20
216.2327081611979906
 30
0.0
 40
0.001
  1

  3

  2
TRADENAME
 70
     0
1001
ACDBATTR
1070
     0
1070
     1
  0
ATTDEF
  5
3932
  8
DEFPOINTS
 10
4588.111543549282942
 20
216.2310414945312971
 30
0.0
 40
0.001
  1
TOILET SEAT
  3

  2
PRODUCT
 70
     0
1001
ACDBATTR
1070
     0
1070
     1
  0
LINE
  5
10928
  8
0
 10
4587.3190900954932658
 20
218.3533282464661056
 30
0.0
 11
4588.90298021064973
 21
218.3533282464661056
 31
0.0
  0
LINE
  5
10929
  8
0
 10
4581.12350577986399
 20
216.4772565064660057
 30
0.0
 11
4595.1005725110044295
 21
216.4772565064660057
 31
0.0
  0
LINE
  5
1092A
  8
0
 10
4580.9932704643288162
 20
216.5402555763660928
 30
0.0
 11
4595.2308078265377844
 21
216.5402555763660928
 31
0.0
  0
LINE
  5
1092B
  8
0
 10
4581.2322877736041846
 20
217.0031677958660907
 30
0.0
 11
4594.9917905172633255
 21
217.0031677958660907
 31
0.0
  0
LINE
  5
1092C
  8
0
 10
4581.1246751232301904
 20
217.1862319522660982
 30
0.0
 11
4595.0994031676382292
 21
217.1862319522660982
 31
0.0
  0
LINE
  5
1092D
  8
0
 10
4580.9932704643288162
 20
217.2492319542660937
 30
0.0
 11
4595.2308078265377844
 21
217.2492319542660937
 31
0.0
  0
LINE
  5
1092E
  8
0
 10
4581.2988391155722638
 20
217.8832545689784013
 30
0.0
 11
4594.9252391752961557
 21
217.8832545689784013
 31
0.0
  0
ARC
  5
1092F
  8
0
 10
4581.1264510992314172
 20
216.6104431810142898
 30
0.0
 40
0.1332192372871705
 50
211.7933990883433921
 51
268.7331550353043212
  0
ARC
  5
10930
  8
0
 10
4639.2094187349721324
 20
214.5823313194445063
 30
0.0
 40
58.2490633990390094
 50
177.9750120794886072
 51
178.0737556113257938
  0
ARC
  5
10931
  8
0
 10
4581.8268031518127827
 20
216.6112331037955983
 30
0.0
 40
0.8305906431825805
 50
168.0880336449592107
 51
177.9750120794886072
  0
ARC
  5
10932
  8
0
 10
4581.2793343754437956
 20
216.7384116088857979
 30
0.0
 40
0.2689037398196734
 50
100.0761579984582994
 51
170.5257973531302014
  0
ARC
  5
10933
  8
0
 10
4581.1998149251157884
 20
217.2108518501028129
 30
0.0
 40
0.2102074029932003
 50
278.886641660741418
 51
322.9847793352370786
  0
ARC
  5
10934
  8
0
 10
4581.6036468177962888
 20
216.898836000505213
 30
0.0
 40
0.3001448924736581
 50
106.7587622172716948
 51
141.8356598147121019
  0
ARC
  5
10935
  8
0
 10
4581.1266541660861549
 20
217.3196470415564931
 30
0.0
 40
0.1334297667725878
 50
211.8523073152101119
 51
269.1501524446287021
  0
ARC
  5
10936
  8
0
 10
4708.6581666268266417
 20
212.8196055218872118
 30
0.0
 40
127.7417210722941974
 50
177.9679082706786062
 51
178.0127887082300902
  0
ARC
  5
10937
  8
0
 10
4582.2434785619170725
 20
217.3049971110735044
 30
0.0
 40
1.247483668936767
 50
161.4608884448529125
 51
177.9679082706786062
  0
ARC
  5
10938
  8
0
 10
4581.3138176700858821
 20
217.6167232086311003
 30
0.0
 40
0.2669519116693655
 50
93.2165302889630141
 51
161.4527682667288957
  0
ARC
  5
10939
  8
0
 10
4636.5933785295947018
 20
-88.7605864027520255
 30
0.0
 40
311.5893632570035265
 50
99.8023447904146934
 51
100.2218264450414011
  0
ARC
  5
1093A
  8
0
 10
4584.1285286927432026
 20
214.2536274535534915
 30
0.0
 40
4.0682519339609939
 50
91.3878943962524062
 51
98.2417597586193239
  0
ARC
  5
1093B
  8
0
 10
4584.0551578010163212
 20
381.5087178703042241
 30
0.0
 40
163.1880339281325973
 50
269.991164122555972
 51
271.1460522652938039
  0
LINE
  5
1093C
  8
0
 10
4584.1065802473176518
 20
216.352481811866113
 30
0.0
 11
4592.1154900588262535
 21
216.352481811866113
 31
0.0
  0
ARC
  5
1093D
  8
0
 10
4583.805928138877789
 20
216.5581152611447919
 30
0.0
 40
1.2150470764463159
 50
183.815774088742387
 51
185.9802023294865876
  0
ARC
  5
1093E
  8
0
 10
4582.6130556760363106
 20
216.4331560299785906
 30
0.0
 40
0.0156474257632488
 50
185.980202329484996
 51
215.1528623472196102
  0
LINE
  5
1093F
  8
0
 10
4583.1732977820938686
 20
216.2375605466160948
 30
0.0
 11
4583.6367855651978971
 21
216.2375605466160948
 31
0.0
  0
ARC
  5
10940
  8
0
 10
4582.9563707029592479
 20
216.7492721506467888
 30
0.0
 40
0.4822030937350634
 50
222.395910385357098
 51
254.1147948789721056
  0
ARC
  5
10941
  8
0
 10
4583.1679533531269044
 20
217.492767417900609
 30
0.0
 40
1.2552182490072199
 50
254.1147948789721056
 51
270.243952913481678
  0
LINE
  5
10942
  8
0
 10
4584.196495708672046
 20
216.4772555763661046
 30
0.0
 11
4584.1930049562715794
 21
216.4314440487661102
 31
0.0
  0
ARC
  5
10943
  8
0
 10
4584.1809875881299376
 20
216.4323597496579907
 30
0.0
 40
0.0120522049930108
 50
317.0435676080263079
 51
355.6425894116591166
  0
ARC
  5
10944
  8
0
 10
4583.8242931747972762
 20
216.7644759434606101
 30
0.0
 40
0.4994248249546299
 50
286.4457271505687004
 51
317.0435676080263079
  0
ARC
  5
10945
  8
0
 10
4583.6340372739850864
 20
217.4090104297364974
 30
0.0
 40
1.171453106943491
 50
270.1344190654490944
 51
286.4457271505687004
  0
ARC
  5
10946
  8
0
 10
4595.0976271916370024
 20
216.6104431810142898
 30
0.0
 40
0.1332192372871705
 50
271.2668449646956788
 51
328.2066009116566079
  0
ARC
  5
10947
  8
0
 10
4537.0146595558962872
 20
214.5823313194445063
 30
0.0
 40
58.2490633990390094
 50
1.926244388674192
 51
2.0249879205114318
  0
ARC
  5
10948
  8
0
 10
4594.3972751390538178
 20
216.6112331037955983
 30
0.0
 40
0.8305906431825805
 50
2.0249879205114318
 51
11.9119663550407306
  0
ARC
  5
10949
  8
0
 10
4594.9447439154237145
 20
216.7384116088857979
 30
0.0
 40
0.2689037398196734
 50
9.4742026468698004
 51
79.9238420015417148
  0
ARC
  5
1094A
  8
0
 10
4595.0242633657508122
 20
217.2108518501028129
 30
0.0
 40
0.2102074029932003
 50
217.015220664762893
 51
261.1133583392585251
  0
ARC
  5
1094B
  8
0
 10
4594.6204314730703118
 20
216.898836000505213
 30
0.0
 40
0.3001448924736581
 50
38.1643401852878696
 51
73.2412377827282768
  0
ARC
  5
1094C
  8
0
 10
4595.0974241247813552
 20
217.3196470415564931
 30
0.0
 40
0.1334297667725878
 50
270.8498475553711842
 51
328.1476926847898881
  0
ARC
  5
1094D
  8
0
 10
4467.5659116640399589
 20
212.8196055218872118
 30
0.0
 40
127.7417210722941974
 50
1.9872112917699369
 51
2.0320917293213361
  0
ARC
  5
1094E
  8
0
 10
4593.9805997289504376
 20
217.3049971110735044
 30
0.0
 40
1.247483668936767
 50
2.0320917293213361
 51
18.5391115551470804
  0
ARC
  5
1094F
  8
0
 10
4594.9102606207807185
 20
217.6167232086311003
 30
0.0
 40
0.2669519116693655
 50
18.5472317332710617
 51
86.7834697110369859
  0
ARC
  5
10950
  8
0
 10
4539.5827386295159158
 20
-89.3010667962766433
 30
0.0
 40
312.1297801544926074
 50
79.7871156100491703
 51
80.2062339648255289
  0
ARC
  5
10951
  8
0
 10
4592.0935416133997933
 20
214.2536274535534915
 30
0.0
 40
4.0682519339609939
 50
81.7582402413806619
 51
88.6121056037475938
  0
ARC
  5
10952
  8
0
 10
4592.1669125051294031
 20
381.5087178703042241
 30
0.0
 40
163.1880339281325973
 50
268.8539477347063098
 51
270.0088358774439143
  0
ARC
  5
10953
  8
0
 10
4592.4161421672670258
 20
216.5581152611447919
 30
0.0
 40
1.2150470764463159
 50
354.0197976705134124
 51
356.184225911257613
  0
ARC
  5
10954
  8
0
 10
4593.6090146301066852
 20
216.4331560299785906
 30
0.0
 40
0.0156474257632488
 50
324.847137652780475
 51
354.019797670515004
  0
LINE
  5
10955
  8
0
 10
4593.0487725240509462
 20
216.2375605466160948
 30
0.0
 11
4592.5852847409450987
 21
216.2375605466160948
 31
0.0
  0
ARC
  5
10956
  8
0
 10
4593.265699603183748
 20
216.7492721506467888
 30
0.0
 40
0.4822030937350634
 50
285.8852051210279228
 51
317.6040896146428736
  0
ARC
  5
10957
  8
0
 10
4593.0541169530179104
 20
217.492767417900609
 30
0.0
 40
1.2552182490072199
 50
269.7560470865182083
 51
285.8852051210279228
  0
LINE
  5
10958
  8
0
 10
4592.0255745974718593
 20
216.4772555763661046
 30
0.0
 11
4592.0290653498723259
 21
216.4314440487661102
 31
0.0
  0
ARC
  5
10959
  8
0
 10
4592.0410827180139677
 20
216.4323597496579907
 30
0.0
 40
0.0120522049930108
 50
184.3574105883392065
 51
222.9564323919736921
  0
ARC
  5
1095A
  8
0
 10
4592.3977771313457197
 20
216.7644759434606101
 30
0.0
 40
0.4994248249546299
 50
222.9564323919736921
 51
253.5542728494314133
  0
ARC
  5
1095B
  8
0
 10
4592.588033032158819
 20
217.4090104297364974
 30
0.0
 40
1.171453106943491
 50
253.5542728494314133
 51
269.8655809345510193
  0
LINE
  5
1095D
  8
0
 10
4582.6002620456720251
 20
216.4241468704659894
 30
0.0
 11
4584.1898082604720912
 21
216.4241468704659894
 31
0.0
  0
LINE
  5
1095E
  8
0
 10
4592.0322620456709046
 20
216.4241468704659894
 30
0.0
 11
4593.6218082604709707
 21
216.4241468704659894
 31
0.0
  0
LINE
  5
1095F
  8
0
 10
4584.7102738356143163
 20
216.248404338681496
 30
0.0
 11
4584.712471114508844
 21
216.352481811866113
 31
0.0
  0
LINE
  5
10960
  8
0
 10
4586.0102103531817193
 20
216.2484310832915071
 30
0.0
 11
4586.0077815672193537
 21
216.352481811866113
 31
0.0
  0
LINE
  5
10961
  8
0
 10
4584.7222711622189308
 20
216.2361510516660985
 30
0.0
 11
4585.9982136210310273
 21
216.2361510516660985
 31
0.0
  0
ARC
  5
10962
  8
0
 10
4584.7222711622189308
 20
216.248151051666099
 30
0.0
 40
0.012
 50
178.790553767945795
 51
270.0
  0
ARC
  5
10963
  8
0
 10
4585.9982136210310273
 20
216.248151051666099
 30
0.0
 40
0.012
 50
270.0
 51
1.337173904546848
  0
LINE
  5
10964
  8
0
 10
4584.9962431864732935
 20
216.248151051666099
 30
0.0
 11
4584.9962431864732935
 21
216.352481811866113
 31
0.0
  0
ARC
  5
10965
  8
0
 10
4585.0082431864721002
 20
216.248151051666099
 30
0.0
 40
0.012
 50
180.0
 51
270.0
  0
LINE
  5
10966
  8
0
 10
4585.7245932177711438
 20
216.248151051666099
 30
0.0
 11
4585.7245932177711438
 21
216.352481811866113
 31
0.0
  0
ARC
  5
10967
  8
0
 10
4585.7125932177723371
 20
216.248151051666099
 30
0.0
 40
0.012
 50
270.0
 51
0.0
  0
LINE
  5
10968
  8
0
 10
4591.511796470531408
 20
216.248404338681496
 30
0.0
 11
4591.5095991916350613
 21
216.352481811866113
 31
0.0
  0
LINE
  5
10969
  8
0
 10
4590.2118599529612766
 20
216.2484310832915071
 30
0.0
 11
4590.2142887389236421
 21
216.352481811866113
 31
0.0
  0
LINE
  5
1096A
  8
0
 10
4591.4997991439249745
 20
216.2361510516660985
 30
0.0
 11
4590.2238566851119685
 21
216.2361510516660985
 31
0.0
  0
ARC
  5
1096B
  8
0
 10
4591.4997991439249745
 20
216.248151051666099
 30
0.0
 40
0.012
 50
270.0
 51
1.209446232054183
  0
ARC
  5
1096C
  8
0
 10
4590.2238566851119685
 20
216.248151051666099
 30
0.0
 40
0.012
 50
178.6628260954531129
 51
270.0
  0
LINE
  5
1096D
  8
0
 10
4591.2258271196724309
 20
216.248151051666099
 30
0.0
 11
4591.2258271196724309
 21
216.352481811866113
 31
0.0
  0
ARC
  5
1096E
  8
0
 10
4591.2138271196718051
 20
216.248151051666099
 30
0.0
 40
0.012
 50
270.0
 51
0.0
  0
LINE
  5
1096F
  8
0
 10
4590.497477088371852
 20
216.248151051666099
 30
0.0
 11
4590.497477088371852
 21
216.352481811866113
 31
0.0
  0
ARC
  5
10970
  8
0
 10
4590.5094770883733872
 20
216.248151051666099
 30
0.0
 40
0.012
 50
180.0
 51
270.0
  0
ARC
  5
10971
  8
0
 10
4565.9573434529283986
 20
406.323988873119788
 30
0.0
 40
189.2572211694094051
 50
275.3240516556710986
 51
276.256236257186174
  0
ARC
  5
10972
  8
0
 10
4587.9994712888146751
 20
205.2599205167373952
 30
0.0
 40
13.0114491276672499
 50
89.5052361305511255
 51
96.255727841673675
  0
ARC
  5
10973
  8
0
 10
4610.2647268532145972
 20
406.323988873119788
 30
0.0
 40
189.2572211694094051
 50
263.7437637428137123
 51
264.6759483443290151
  0
ARC
  5
10974
  8
0
 10
4588.222911602608292
 20
205.2638313294266084
 30
0.0
 40
13.0075275413746905
 50
83.7437637428137833
 51
90.4893127758723068
  0
ENDSEC
  0
EOF
