  0
SECTION
  2
HEADER
  9
$ACADVER
  1
AC1009
  9
$INSBASE
 10
4595.396538379640333
 20
214.531759578636013
 30
0.0
  9
$EXTMIN
 10
4552.9525495505158688
 20
197.7357914770643958
 30
0.0
  9
$EXTMAX
 10
4622.7544613098998525
 20
216.6489367734363043
 30
0.0
  9
$LIMMIN
 10
0.0
 20
0.0
  9
$LIMMAX
 10
11.6929133858000007
 20
8.2677165353999982
  9
$ORTHOMODE
 70
     0
  9
$REGENMODE
 70
     1
  9
$FILLMODE
 70
     1
  9
$QTEXTMODE
 70
     0
  9
$MIRRTEXT
 70
     0
  9
$DRAGMODE
 70
     2
  9
$LTSCALE
 40
0.6431102362
  9
$OSMODE
 70
  4095
  9
$ATTMODE
 70
     1
  9
$TEXTSIZE
 40
0.2
  9
$TRACEWID
 40
0.05
  9
$TEXTSTYLE
  7
STANDARD
  9
$CLAYER
  8
0
  9
$CELTYPE
  6
BYLAYER
  9
$CECOLOR
 62
   256
  9
$DIMSCALE
 40
1.0
  9
$DIMASZ
 40
0.1875
  9
$DIMEXO
 40
0.0625
  9
$DIMDLI
 40
0.4443307087
  9
$DIMRND
 40
0.0
  9
$DIMDLE
 40
0.0
  9
$DIMEXE
 40
0.125
  9
$DIMTP
 40
0.01
  9
$DIMTM
 40
0.01
  9
$DIMTXT
 40
2.0
  9
$DIMCEN
 40
0.1052362205
  9
$DIMTSZ
 40
0.0
  9
$DIMTOL
 70
     1
  9
$DIMLIM
 70
     0
  9
$DIMTIH
 70
     1
  9
$DIMTOH
 70
     1
  9
$DIMSE1
 70
     0
  9
$DIMSE2
 70
     0
  9
$DIMTAD
 70
     0
  9
$DIMZIN
 70
     0
  9
$DIMBLK
  1

  9
$DIMASO
 70
     1
  9
$DIMSHO
 70
     1
  9
$DIMPOST
  1
\X
  9
$DIMAPOST
  1

  9
$DIMALT
 70
     1
  9
$DIMALTD
 70
     2
  9
$DIMALTF
 40
25.3999999999999986
  9
$DIMLFAC
 40
1.0
  9
$DIMTOFL
 70
     0
  9
$DIMTVP
 40
0.0
  9
$DIMTIX
 70
     0
  9
$DIMSOXD
 70
     0
  9
$DIMSAH
 70
     0
  9
$DIMBLK1
  1

  9
$DIMBLK2
  1

  9
$DIMSTYLE
  2
STANDARD
  9
$DIMCLRD
 70
     0
  9
$DIMCLRE
 70
     0
  9
$DIMCLRT
 70
     0
  9
$DIMTFAC
 40
1.0
  9
$DIMGAP
 40
0.09
  9
$LUNITS
 70
     2
  9
$LUPREC
 70
     4
  9
$SKETCHINC
 40
0.1
  9
$FILLETRAD
 40
0.0
  9
$AUNITS
 70
     0
  9
$AUPREC
 70
     0
  9
$MENU
  1
.
  9
$ELEVATION
 40
0.0
  9
$PELEVATION
 40
0.0
  9
$THICKNESS
 40
0.0
  9
$LIMCHECK
 70
     0
  9
$BLIPMODE
 70
     0
  9
$CHAMFERA
 40
0.0
  9
$CHAMFERB
 40
0.0
  9
$SKPOLY
 70
     0
  9
$TDCREATE
 40
2458060.468368056230247
  9
$TDUPDATE
 40
2459816.7307986109517515
  9
$TDINDWG
 40
0.5264885417
  9
$TDUSRTIMER
 40
0.5264885417
  9
$USRTIMER
 70
     1
  9
$ANGBASE
 50
0.0
  9
$ANGDIR
 70
     0
  9
$PDMODE
 70
     0
  9
$PDSIZE
 40
0.3125
  9
$PLINEWID
 40
0.0
  9
$COORDS
 70
     1
  9
$SPLFRAME
 70
     0
  9
$SPLINETYPE
 70
     6
  9
$SPLINESEGS
 70
     8
  9
$ATTDIA
 70
     1
  9
$ATTREQ
 70
     1
  9
$HANDLING
 70
     1
  9
$HANDSEED
  5
10C53
  9
$SURFTAB1
 70
     6
  9
$SURFTAB2
 70
     6
  9
$SURFTYPE
 70
     6
  9
$SURFU
 70
     6
  9
$SURFV
 70
     6
  9
$UCSNAME
  2

  9
$UCSORG
 10
0.0
 20
0.0
 30
0.0
  9
$UCSXDIR
 10
1.0
 20
0.0
 30
0.0
  9
$UCSYDIR
 10
0.0
 20
1.0
 30
0.0
  9
$PUCSNAME
  2

  9
$PUCSORG
 10
0.0
 20
0.0
 30
0.0
  9
$PUCSXDIR
 10
1.0
 20
0.0
 30
0.0
  9
$PUCSYDIR
 10
0.0
 20
1.0
 30
0.0
  9
$USERI1
 70
     0
  9
$USERI2
 70
     0
  9
$USERI3
 70
     0
  9
$USERI4
 70
     0
  9
$USERI5
 70
     0
  9
$USERR1
 40
0.0
  9
$USERR2
 40
0.0
  9
$USERR3
 40
0.0
  9
$USERR4
 40
0.0
  9
$USERR5
 40
0.0
  9
$WORLDVIEW
 70
     1
  9
$SHADEDGE
 70
     3
  9
$SHADEDIF
 70
    70
  9
$TILEMODE
 70
     1
  9
$MAXACTVP
 70
    64
  9
$PLIMCHECK
 70
     0
  9
$PEXTMIN
 10
1.0000000000000000E+20
 20
1.0000000000000000E+20
 30
1.0000000000000000E+20
  9
$PEXTMAX
 10
-1.0000000000000000E+20
 20
-1.0000000000000000E+20
 30
-1.0000000000000000E+20
  9
$PLIMMIN
 10
0.0
 20
0.0
  9
$PLIMMAX
 10
12.0
 20
9.0
  9
$UNITMODE
 70
     0
  9
$VISRETAIN
 70
     1
  9
$PLINEGEN
 70
     0
  9
$PSLTSCALE
 70
     1
  0
ENDSEC
  0
SECTION
  2
TABLES
  0
TABLE
  2
VPORT
 70
     1
  0
VPORT
  2
*ACTIVE
 70
     0
 10
0.0
 20
0.0
 11
1.0
 21
1.0
 12
791.8694365433752864
 22
88.8304835018666665
 13
0.0
 23
0.0
 14
1.0
 24
1.0
 15
0.0
 25
0.0
 16
0.0
 26
0.0
 36
17.1152628219792007
 17
3803.5440673828129547
 27
125.9952621967499056
 37
0.0
 40
10.3445735121020999
 41
2.0416666666666661
 42
50.0
 43
0.0
 44
0.0
 50
0.0
 51
0.0
 71
     0
 72
   100
 73
     1
 74
     1
 75
     0
 76
     0
 77
     0
 78
     0
  0
ENDTAB
  0
TABLE
  2
LTYPE
 70
     2
  0
LTYPE
  2
CONTINUOUS
 70
     0
  3
Solid line
 72
    65
 73
     0
 40
0.0
  0
LTYPE
  2
PHANTOM2
 70
     0
  3
___ _ _ ___ _ _ ___ _ _ ___ _ _
 72
    65
 73
     6
 40
1.25
 49
0.625
 49
-0.125
 49
0.125
 49
-0.125
 49
0.125
 49
-0.125
  0
ENDTAB
  0
TABLE
  2
LAYER
 70
     2
  0
LAYER
  2
0
 70
     0
 62
   255
  6
CONTINUOUS
  0
LAYER
  2
DEFPOINTS
 70
     0
 62
     7
  6
CONTINUOUS
  0
ENDTAB
  0
TABLE
  2
STYLE
 70
     1
  0
STYLE
  2
STANDARD
 70
     0
 40
0.0
 41
0.8
 50
0.0
 71
     0
 42
0.2
  3
txt
  4

  0
ENDTAB
  0
TABLE
  2
VIEW
 70
     0
  0
ENDTAB
  0
TABLE
  2
UCS
 70
     0
  0
ENDTAB
  0
TABLE
  2
APPID
 70
     9
  0
APPID
  2
ACAD
 70
     0
  0
APPID
  2
ACAD_MLEADERVER
 70
     0
  0
APPID
  2
ACAD_EXEMPT_FROM_CAD_STANDARDS
 70
     0
  0
APPID
  2
ACAD_NAV_VCDISPLAY
 70
     0
  0
APPID
  2
ACAECLAYERSTANDARD
 70
     0
  0
APPID
  2
ACCMTRANSPARENCY
 70
     0
  0
APPID
  2
ACAD_DSTYLE_DIMJAG
 70
     0
  0
APPID
  2
ACAD_DSTYLE_DIMTALN
 70
     0
  0
APPID
  2
ACDBATTR
 70
     0
  0
ENDTAB
  0
TABLE
  2
DIMSTYLE
 70
     1
  0
DIMSTYLE
  2
STANDARD
 70
     0
  3

  4

  5

  6

  7

 40
1.0
 41
0.1875
 42
0.0625
 43
0.38
 44
0.125
 45
0.0
 46
0.0
 47
0.01
 48
0.01
140
0.15625
141
0.09
142
0.0
143
25.3999999999999986
144
1.0
145
0.0
146
1.0
147
0.09
 71
     1
 72
     0
 73
     1
 74
     1
 75
     0
 76
     0
 77
     0
 78
     4
170
     0
171
     2
172
     0
173
     0
174
     0
175
     0
176
     0
177
     0
178
     0
  0
ENDTAB
  0
ENDSEC
  0
SECTION
  2
BLOCKS
  0
BLOCK
  8
0
  2
$MODEL_SPACE
 70
     0
 10
0.0
 20
0.0
 30
0.0
  3
$MODEL_SPACE
  1

  0
ENDBLK
  5
21
  8
0
  0
BLOCK
 67
     1
  8
0
  2
$PAPER_SPACE
 70
     0
 10
0.0
 20
0.0
 30
0.0
  3
$PAPER_SPACE
  1

  0
ENDBLK
  5
1D
 67
     1
  8
0
  0
BLOCK
  8
0
  2
_FILLED
 70
     0
 10
0.0
 20
0.0
 30
0.0
  3
_FILLED
  1

  0
SOLID
  5
107A2
  8
0
  6
BYBLOCK
 62
     0
 10
0.0
 20
0.0
 30
0.0
 11
-1.0
 21
0.1666666667
 31
0.0
 12
-1.0
 22
-0.1666666667
 32
0.0
 13
-1.0
 23
-0.1666666667
 33
0.0
  0
ENDBLK
  5
107A3
  8
0
  6
BYBLOCK
 62
     0
  0
ENDSEC
  0
SECTION
  2
ENTITIES
  0
ATTDEF
  5
3930
  8
DEFPOINTS
 10
4595.3969830374408048
 20
214.5302462963840071
 30
0.0
 40
0.001
  1
P70303-AD
  3

  2
MODELNUMBER
 70
     0
1001
ACDBATTR
1070
     0
1070
     1
  0
ATTDEF
  5
3931
  8
DEFPOINTS
 10
4595.3969830374408048
 20
214.5285796297173135
 30
0.0
 40
0.001
  1

  3

  2
TRADENAME
 70
     0
1001
ACDBATTR
1070
     0
1070
     1
  0
ATTDEF
  5
3932
  8
DEFPOINTS
 10
4595.3969830374408048
 20
214.5269129630507052
 30
0.0
 40
0.001
  1
TOILET SEAT
  3

  2
PRODUCT
 70
     0
1001
ACDBATTR
1070
     0
1070
     1
  0
LINE
  5
10AC3
  8
0
 10
4593.3395867662793535
 20
216.6489367734359917
 30
0.0
 11
4593.3545503536006436
 21
216.6489367734359917
 31
0.0
  0
LINE
  5
10AC4
  8
0
 10
4576.2499700219377701
 20
214.7728650334360054
 30
0.0
 11
4587.5758722644177396
 21
214.7728650334360054
 31
0.0
  0
LINE
  5
10AC5
  8
0
 10
4576.3602358788602942
 20
215.2987763228360052
 30
0.0
 11
4587.0083438539013514
 21
215.2987763228360052
 31
0.0
  0
LINE
  5
10AC6
  8
0
 10
4576.2509700219370643
 20
215.4818404818358886
 30
0.0
 11
4587.9432993698974315
 21
215.4818404818358886
 31
0.0
  0
LINE
  5
10AC7
  8
0
 10
4576.1195653541371939
 20
215.5448404812358945
 30
0.0
 11
4586.9313886315676427
 21
215.5448404812358945
 31
0.0
  0
LINE
  5
10AC8
  8
0
 10
4576.4419664885135717
 20
216.1788630959482873
 30
0.0
 11
4579.0931849778198739
 21
216.1788630959482873
 31
0.0
  0
LINE
  5
10AC9
  8
0
 10
4578.5308382658840856
 20
214.6480903388359991
 30
0.0
 11
4580.8444233244854331
 21
214.6480903388359991
 31
0.0
  0
LINE
  5
10ACA
  8
0
 10
4581.8627073480138279
 20
214.6480903388359991
 30
0.0
 11
4590.4165594779069579
 21
214.6480903388359991
 31
0.0
  0
LINE
  5
10ACB
  8
0
 10
4581.278897653641252
 20
214.5331690735860093
 30
0.0
 11
4581.4344991386396941
 21
214.5331690735860093
 31
0.0
  0
ARC
  5
10ACC
  8
0
 10
4577.382949277210173
 20
215.5989444977693097
 30
0.0
 40
1.2607058827519071
 50
161.7703764065387873
 51
177.913722070592911
  0
ARC
  5
10ACD
  8
0
 10
4691.6779727723533142
 20
211.5344825162765119
 30
0.0
 40
115.6279745392158986
 50
177.9628135088032082
 51
178.0123955372060038
  0
ARC
  5
10ACE
  8
0
 10
4576.4419664885135717
 20
215.9088630959483055
 30
0.0
 40
0.27
 50
90.0
 51
161.7703764065387873
  0
ARC
  5
10ACF
  8
0
 10
4576.2529259557131809
 20
215.615204890573807
 30
0.0
 40
0.133378750912247
 50
211.8402943616586072
 51
269.1597554590343861
  0
ARC
  5
10AD0
  8
0
 10
4576.2514243445812099
 20
214.9054279783308061
 30
0.0
 40
0.1325709222022546
 50
211.6500357585296115
 51
269.3714442085237124
  0
ARC
  5
10AD1
  8
0
 10
4581.1420245947274452
 20
214.6596134685765094
 30
0.0
 40
5.0265502115391678
 50
176.849541279490893
 51
177.9905725540197068
  0
ARC
  5
10AD2
  8
0
 10
4577.3672133191157627
 20
214.8673842162345125
 30
0.0
 40
1.2460252678230139
 50
170.4820560303199954
 51
176.849541279490893
  0
ARC
  5
10AD3
  8
0
 10
4576.4053101792342204
 20
215.0324724341492129
 30
0.0
 40
0.2700915653696774
 50
99.6067704428807872
 51
171.2794258616401919
  0
ARC
  5
10AD4
  8
0
 10
4576.3252102437991198
 20
215.5062047714984033
 30
0.0
 40
0.210364817462247
 50
279.5843540424743878
 51
323.1041996339091043
  0
ARC
  5
10AD5
  8
0
 10
4576.7285664967366756
 20
215.1935807329359989
 30
0.0
 40
0.3000010581999981
 50
106.0843288355049054
 51
141.6038778970707881
  0
ARC
  5
10AD6
  8
0
 10
4577.5031637137371945
 20
213.4808211470362096
 30
0.0
 40
1.502217828799743
 50
53.9808052214369312
 51
59.3282762945060824
  0
ARC
  5
10AD7
  8
0
 10
4578.5334458900051686
 20
214.8978191219318887
 30
0.0
 40
0.2497423969015097
 50
233.9720070756582118
 51
269.401749269153413
  0
ARC
  5
10AD8
  8
0
 10
4561.2135340081204049
 20
212.262217325007299
 30
0.0
 40
19.713600479419231
 50
7.1804345956443072
 51
7.3168365705925673
  0
ARC
  5
10AD9
  8
0
 10
4580.7845664733376907
 20
214.7278241973259867
 30
0.0
 40
0.0121321813326604
 50
187.180434595650695
 51
219.2080726685126137
  0
ARC
  5
10ADA
  8
0
 10
4581.2524151139250534
 20
215.1095020141395082
 30
0.0
 40
0.6159204772995643
 50
219.2080726685138075
 51
228.5160785461648061
  0
ARC
  5
10ADB
  8
0
 10
4581.0982053478774105
 20
214.9351009885729979
 30
0.0
 40
0.3831193397085453
 50
228.5160785461648061
 51
259.8978872510348879
  0
ARC
  5
10ADC
  8
0
 10
4581.315792873706414
 20
216.1563695446818087
 30
0.0
 40
1.623619729687144
 50
259.8978872510348879
 51
268.6978956148382167
  0
ARC
  5
10ADD
  8
0
 10
4591.427210525755072
 20
213.542579797703695
 30
0.0
 40
9.5661299568289007
 50
172.6108177113501938
 51
172.8919111224242897
  0
ARC
  5
10ADE
  8
0
 10
4581.922784659564968
 20
214.7277812727770936
 30
0.0
 40
0.0119081294609214
 50
324.9602778290303036
 51
352.8919111224195149
  0
ARC
  5
10ADF
  8
0
 10
4581.478896709255423
 20
215.0858451063095913
 30
0.0
 40
0.5821854024879555
 50
311.2433415141892965
 51
321.1872161454490993
  0
ARC
  5
10AE0
  8
0
 10
4581.4260676436715585
 20
215.7885844302601868
 30
0.0
 40
1.255443669736322
 50
270.3847983942360997
 51
281.9420054191469944
  0
ARC
  5
10AE1
  8
0
 10
4581.6040031459988313
 20
214.9472775150786958
 30
0.0
 40
0.3955260175624351
 50
281.9419986334478949
 51
310.8496486970158799
  0
ARC
  5
10AE2
  8
0
 10
4590.4164243227724
 20
214.888409601699891
 30
0.0
 40
0.2403193008694545
 50
270.0322230431750086
 51
301.5813071463281858
  0
ARC
  5
10AE3
  8
0
 10
4591.3190792884342954
 20
213.4007368037466108
 30
0.0
 40
1.499787823541239
 50
110.0479017024830029
 51
121.1940701035067036
  0
ARC
  5
10AE4
  8
0
 10
4575.0783215665696844
 20
271.9835079968431728
 30
0.0
 40
55.9488831052594122
 50
274.1150528717083148
 51
275.5818894396156225
  0
ARC
  5
10AE5
  8
0
 10
4589.658304010556094
 20
125.296620614457197
 30
0.0
 40
91.4609364400361784
 50
94.4399230663716338
 51
95.7340299119132538
  0
ARC
  5
10AE6
  8
0
 10
4584.4514692083694172
 20
193.1572703240456974
 30
0.0
 40
23.4009348469984602
 50
91.0648935523651346
 51
94.5920635386935942
  0
ARC
  5
10AE7
  8
0
 10
4584.8391662323747369
 20
172.2999317379965873
 30
0.0
 40
44.2618763855655928
 50
87.9257203175969551
 51
91.0648935523651346
  0
ARC
  5
10AE8
  8
0
 10
4582.8734421925310016
 20
118.0264013336511937
 30
0.0
 40
98.5709932404015632
 50
86.6001476391474512
 51
87.9257203175969551
  0
ARC
  5
10AE9
  8
0
 10
4589.8621902546492493
 20
235.6655336558847864
 30
0.0
 40
19.2755512698374716
 50
266.600147639147508
 51
271.1195424017349751
  0
ARC
  5
10AEA
  8
0
 10
4589.7934516361174246
 20
239.1829810357534996
 30
0.0
 40
22.7936702371015016
 50
271.1195424017349751
 51
274.9063203107297113
  0
ARC
  5
10AEB
  8
0
 10
4548.4009102019808779
 20
616.7570800902097972
 30
0.0
 40
402.6239076355831799
 50
276.1798013300027037
 51
276.408394286263615
  0
ARC
  5
10AEC
  8
0
 10
4592.4267907798202941
 20
216.0598733481324132
 30
0.0
 40
1.2510908704636969
 50
2.0597880251258691
 51
18.9784750872607795
  0
ARC
  5
10AED
  8
0
 10
4593.3545503536006436
 20
216.3789367734360098
 30
0.0
 40
0.27
 50
18.9784750872515389
 51
90.0
  0
ARC
  5
10AEE
  8
0
 10
4597.8915067287489364
 20
216.1775954840439056
 30
0.0
 40
4.2144835450393323
 50
180.9880738352657943
 51
182.3492573701225012
  0
ARC
  5
10AEF
  8
0
 10
4586.930605931151149
 20
265.2987077620434775
 30
0.0
 40
49.7538672869640095
 50
270.0009013456282787
 51
277.2493404128188104
  0
ARC
  5
10AF0
  8
0
 10
4586.9307806620408883
 20
265.2973341387111077
 30
0.0
 40
49.7524825949610516
 50
277.2493404128188104
 51
277.7972080369746095
  0
ARC
  5
10AF1
  8
0
 10
4593.5464091490548526
 20
216.0761270963930087
 30
0.0
 40
0.1345783360494671
 50
280.9983298131372749
 51
326.4870500425315072
  0
ARC
  5
10AF2
  8
0
 10
4589.4953538056779507
 20
242.6765608064912954
 30
0.0
 40
27.0416056418613486
 50
278.3891391789322824
 51
278.6708388781553936
  0
ARC
  5
10AF3
  8
0
 10
4589.105089851739649
 20
245.6776633762544009
 30
0.0
 40
30.0675787385210391
 50
276.2299790093769047
 51
278.290508450944003
  0
ARC
  5
10AF4
  8
0
 10
4586.4928510128293055
 20
268.6305539145606076
 30
0.0
 40
53.1685013893602729
 50
271.5632353446835054
 51
276.3441553234243884
  0
ARC
  5
10AF5
  8
0
 10
4584.4084630320012366
 20
634.5958296923250828
 30
0.0
 40
419.8349129553478178
 50
270.432267296102907
 51
270.8729753208680222
  0
ARC
  5
10AF6
  8
0
 10
4586.9654762614009087
 20
466.7849813698659887
 30
0.0
 40
252.0045845538379012
 50
270.8729753208680222
 51
271.1529410938283036
  0
ARC
  5
10AF7
  8
0
 10
4593.99971630311029
 20
137.1796982301287073
 30
0.0
 40
77.6765405101440933
 50
90.6571523568416211
 51
91.4485379733649069
  0
ARC
  5
10AF8
  8
0
 10
4586.090685538478283
 20
523.5484817263361492
 30
0.0
 40
308.712646006680302
 50
270.02456941266081
 51
271.3046436999994739
  0
ARC
  5
10AF9
  8
0
 10
4585.7467541273726965
 20
532.7783857138731491
 30
0.0
 40
317.4821160124200219
 50
270.2276788310334155
 51
271.2190521803465231
  0
ARC
  5
10AFA
  8
0
 10
4592.4350316021282197
 20
218.4749858741114963
 30
0.0
 40
3.107562006513743
 50
271.2190521803465231
 51
275.1378797374810006
  0
ARC
  5
10AFB
  8
0
 10
4592.6876345753080386
 20
215.6656033330397122
 30
0.0
 40
0.286846047020801
 50
275.1378797374810006
 51
305.5124865149560947
  0
ARC
  5
10AFC
  8
0
 10
4591.4636025633490135
 20
39.9426293899670384
 30
0.0
 40
175.5745060233105903
 50
89.7451316244831219
 51
91.148868572988377
  0
ARC
  5
10AFD
  8
0
 10
4592.1918514560165931
 20
190.2482279941845036
 30
0.0
 40
25.2672254225710411
 50
88.829978035424034
 51
89.880372469869485
  0
ARC
  5
10AFE
  8
0
 10
4592.7303969973472704
 20
215.129790197344505
 30
0.0
 40
0.3810662279355792
 50
2.1006816195920681
 51
93.4009663267835322
  0
LINE
  5
10AFF
  8
0
 10
4593.1195663509588485
 20
214.9158641387425916
 30
0.0
 11
4593.1112071326879231
 21
215.1437584075098925
 31
0.0
  0
ARC
  5
10B00
  8
0
 10
4592.7829613611493187
 20
215.1054518597510139
 30
0.0
 40
0.334352918233211
 50
14.2456369879907392
 51
77.687109851158894
  0
ARC
  5
10B01
  8
0
 10
4592.9771916898598647
 20
214.9952773985376098
 30
0.0
 40
0.1459011739318404
 50
273.3018704470861735
 51
326.8050232232685062
  0
ARC
  5
10B02
  8
0
 10
4593.1095519537966538
 20
214.894143690186894
 30
0.0
 40
0.0430201318762579
 50
269.0343080785253846
 51
354.7190423469464804
  0
ARC
  5
10B03
  8
0
 10
4681.3512140356569944
 20
210.4979074587359094
 30
0.0
 40
88.3081239036582417
 50
176.8506942444691106
 51
177.1490415310636877
  0
ARC
  5
10B04
  8
0
 10
4593.7035630506770758
 20
215.3217644938870023
 30
0.0
 40
0.5278299753039098
 50
116.1074210248004022
 51
177.0002853908198119
  0
ARC
  5
10B05
  8
0
 10
4593.7035654125365909
 20
215.3217618083359923
 30
0.0
 40
0.5278334261999963
 50
28.7530250928360402
 51
116.1075229619626015
  0
ARC
  5
10B06
  8
0
 10
4593.7058252313336197
 20
215.3217231108478131
 30
0.0
 40
0.5258720496085602
 50
329.162748046947172
 51
28.8751600661446304
  0
ARC
  5
10B07
  8
0
 10
4593.5517425612033549
 20
215.3627013472888052
 30
0.0
 40
0.6805877837385529
 50
269.9744268604808894
 51
332.8524604563070284
  0
ARC
  5
10B08
  8
0
 10
4636.924099983690212
 20
222.7327154434817942
 30
0.0
 40
45.6461608710581785
 50
189.9697737393969987
 51
190.0777881543656065
  0
ARC
  5
10B09
  8
0
 10
4592.0568557254500774
 20
214.7585863130260009
 30
0.0
 40
0.0758158787531661
 50
190.0777881543608032
 51
270.9184284058202934
  0
ARC
  5
10B0A
  8
0
 10
4592.4095558531107599
 20
-670.7479416927870943
 30
0.0
 40
885.430791630793351
 50
89.9261093111156242
 51
90.0227444098462399
  0
ARC
  5
10B0B
  8
0
 10
4592.3880857409649252
 20
213.2044525831072974
 30
0.0
 40
1.502989147304068
 50
89.5658077420830949
 51
92.2804325429957544
  0
ARC
  5
10B0C
  8
0
 10
4592.3706485064831213
 20
213.6423310610043131
 30
0.0
 40
1.0647636134157941
 50
92.2804325429957544
 51
95.1092179514560456
  0
ARC
  5
10B0D
  8
0
 10
4592.3131935443971088
 20
214.284933646724312
 30
0.0
 40
0.4195976224936428
 50
95.1092179514560456
 51
98.9996291617688513
  0
ARC
  5
10B0E
  8
0
 10
4592.2620611065258345
 20
214.6077846779703862
 30
0.0
 40
0.0927225476113974
 50
98.9996291617688513
 51
106.5427479230714027
  0
ARC
  5
10B0F
  8
0
 10
4592.2387197578082123
 20
214.6863684019307073
 30
0.0
 40
0.0107455982203236
 50
106.542747923122306
 51
126.6853284335733036
  0
ARC
  5
10B10
  8
0
 10
4592.232856075386735
 20
214.6942393408887995
 30
0.0
 40
0.000930586676675
 50
126.6853284336237948
 51
226.4261819601642003
  0
ARC
  5
10B11
  8
0
 10
4592.2355285671101228
 20
214.6970483027891987
 30
0.0
 40
0.0048077607718783
 50
226.4261819601607897
 51
258.687269829320428
  0
ARC
  5
10B12
  8
0
 10
4592.2528712767962134
 20
214.7588760219092023
 30
0.0
 40
0.0690088278388331
 50
254.6343560234170127
 51
264.2902045538654079
  0
ARC
  5
10B13
  8
0
 10
4592.3045930945509099
 20
215.2668147841901884
 30
0.0
 40
0.5795740338398115
 50
264.1982222230442972
 51
268.3866461997582746
  0
ARC
  5
10B14
  8
0
 10
4592.3897609197656493
 20
218.2199701786070136
 30
0.0
 40
3.5339571662624278
 50
268.3543969050859914
 51
271.3413222146040198
  0
ARC
  5
10B15
  8
0
 10
4592.460974090147829
 20
215.4074963571111141
 30
0.0
 40
0.7206069380581465
 50
270.9152787687925752
 51
275.6286825555201858
  0
ARC
  5
10B16
  8
0
 10
4592.5254501878644078
 20
214.7491116323245137
 30
0.0
 40
0.0590741998996873
 50
276.0262252778222205
 51
286.4922994705203791
  0
ARC
  5
10B17
  8
0
 10
4592.540435311053443
 20
214.6980995413437086
 30
0.0
 40
0.0059078612754207
 50
287.5886450545158937
 51
308.8900278522435201
  0
ARC
  5
10B18
  8
0
 10
4592.5434492069271073
 20
214.6942426209809867
 30
0.0
 40
0.0010164269079037
 50
313.1559680376727783
 51
56.38530905254526
  0
ARC
  5
10B19
  8
0
 10
4592.5276250885062836
 20
214.6629751594632864
 30
0.0
 40
0.0360531787764718
 50
62.9660763062909865
 51
81.9752420121988763
  0
ARC
  5
10B1A
  8
0
 10
4592.4759656419319072
 20
214.3847818600376058
 30
0.0
 40
0.3189719920297409
 50
79.7621388504320805
 51
84.4716716371514593
  0
ARC
  5
10B1B
  8
0
 10
4592.4112814283862463
 20
213.7319371784882946
 30
0.0
 40
0.975012767998108
 50
84.3841324699794626
 51
87.8639188311930894
  0
ARC
  5
10B1C
  8
0
 10
4592.3893811319685483
 20
213.2459969962523871
 30
0.0
 40
1.4614364394940691
 50
87.7160125479256578
 51
89.604249523795886
  0
LINE
  5
10B1D
  8
0
 10
4593.3715780752372666
 20
214.6823136323237122
 30
0.0
 11
4593.3715780752372666
 21
214.5437595973124019
 31
0.0
  0
ARC
  5
10B1E
  8
0
 10
4593.7035653541370266
 20
215.3217617411359015
 30
0.0
 40
0.5600000000000068
 50
165.5708861215998127
 51
196.4256529774064006
  0
ARC
  5
10B1F
  8
0
 10
4593.7035653541370266
 20
215.3217617411359015
 30
0.0
 40
0.5599999999999845
 50
101.7607271388866934
 51
165.5708861215998127
  0
ARC
  5
10B20
  8
0
 10
4593.7035653541370266
 20
215.3217617411359015
 30
0.0
 40
0.5600000000000137
 50
34.9090012089757309
 51
101.7607271388866934
  0
ARC
  5
10B21
  8
0
 10
4593.7035653545271998
 20
215.3217617414080962
 30
0.0
 40
0.5599999995243832
 50
1.399999966630477
 51
34.9090012089757309
  0
LINE
  5
10B22
  8
0
 10
4595.3906808362380616
 20
214.7117596810359998
 30
0.0
 11
4595.396538379640333
 21
214.5441604376474913
 31
0.0
  0
ARC
  5
10B23
  8
0
 10
4594.8917531209190201
 20
214.6790323118551953
 30
0.0
 40
0.499999945806526
 50
3.752963742515198
 51
9.8032362479376847
  0
ARC
  5
10B24
  8
0
 10
4595.3647442433375545
 20
214.760759578635998
 30
0.0
 40
0.0199999999999824
 50
9.8032357904214571
 51
54.6340522388887706
  0
LINE
  5
10B25
  8
0
 10
4594.2633981883382148
 20
215.3354437608360001
 30
0.0
 11
4594.2697785026375641
 21
214.891505657636003
 31
0.0
  0
ARC
  5
10B26
  8
0
 10
4594.3184894903679378
 20
214.8651937822222067
 30
0.0
 40
0.0534984777533299
 50
172.9899003946649998
 51
267.1911494200169841
  0
ARC
  5
10B27
  8
0
 10
4594.3089045465249001
 20
214.8724500554035899
 30
0.0
 40
0.0435196884948323
 50
154.03247516209629
 51
180.9572924094956932
  0
LINE
  5
10B28
  8
0
 10
4594.2697785026375641
 20
214.891505657636003
 30
0.0
 11
4595.3328545248887167
 21
214.8913582483938001
 31
0.0
  0
LINE
  5
10B29
  8
0
 10
4595.3622818068815832
 20
214.8700938568711081
 30
0.0
 11
4595.3815983918793791
 21
214.8116981596812991
 31
0.0
  0
ARC
  5
10B2A
  8
0
 10
4595.3328502263366317
 20
214.8603582486919095
 30
0.0
 40
0.031
 50
18.3035859532558689
 51
89.9920551990436337
  0
LINE
  5
10B2B
  8
0
 10
4595.3815983918793791
 20
214.8116981596812991
 30
0.0
 11
4594.3158678479376249
 21
214.8117595786359004
 31
0.0
  0
LINE
  5
10B2C
  8
0
 10
4595.3719099900499714
 20
214.7969019953555119
 30
0.0
 11
4595.3787464768929567
 21
214.7641650169290983
 31
0.0
  0
ARC
  5
10B2D
  8
0
 10
4595.3537027645106718
 20
214.7930997672991111
 30
0.0
 40
0.0186
 50
11.79559904155035
 51
89.9966979956637942
  0
LINE
  5
10B2E
  8
0
 10
4595.3787464768929567
 20
214.7641650169290983
 30
0.0
 11
4595.3844522090239479
 21
214.7641648816359918
 31
0.0
  0
ARC
  5
10B2F
  8
0
 10
4594.7465913768319297
 20
213.7839353232670874
 30
0.0
 40
1.1358242554467699
 50
77.1906586320506989
 51
102.806363485028001
  0
ARC
  5
10B30
  8
0
 10
4592.4152828911228426
 20
215.8501504776764932
 30
0.0
 40
0.078378470828096
 50
232.8825303572878909
 51
270.0647917719621773
  0
ARC
  5
10B31
  8
0
 10
4592.5959650435370349
 20
56.0718323838094932
 30
0.0
 40
159.7000417834263999
 50
89.8681477968363964
 51
90.06479177196222
  0
ARC
  5
10B32
  8
0
 10
4592.9531903552870062
 20
215.5743214820878109
 30
0.0
 40
0.1973979332423914
 50
5.1252843294566004
 51
87.0134033325357734
  0
ARC
  5
10B33
  8
0
 10
4594.5320123228530065
 20
215.6467593836389938
 30
0.0
 40
1.383299313881998
 50
182.2705398651469011
 51
187.7294601126619966
  0
ARC
  5
10B34
  8
0
 10
4593.4610934514466862
 20
215.1057240058310924
 30
0.0
 40
0.8338039797243093
 50
67.6178694154925353
 51
85.5400460012311044
  0
ARC
  5
10B35
  8
0
 10
4592.774762457766883
 20
214.2966227398352999
 30
0.0
 40
1.502989147304068
 50
89.5658077420830949
 51
92.2804325429957544
  0
ARC
  5
10B36
  8
0
 10
4592.7573252232859886
 20
214.7345012177322872
 30
0.0
 40
1.0647636134157941
 50
92.2804325429957544
 51
95.1092179514560456
  0
ARC
  5
10B37
  8
0
 10
4592.6998702611981571
 20
215.377103803452286
 30
0.0
 40
0.4195976224936428
 50
95.1092179514560456
 51
98.9996291617688513
  0
ARC
  5
10B38
  8
0
 10
4592.6487378233268828
 20
215.6999548346983886
 30
0.0
 40
0.0927225476113974
 50
98.9996291617688513
 51
106.5427479230714027
  0
ARC
  5
10B39
  8
0
 10
4592.6253964746092606
 20
215.7785385586587097
 30
0.0
 40
0.0107455982203236
 50
106.542747923122306
 51
126.6853284335733036
  0
ARC
  5
10B3A
  8
0
 10
4592.6195327921886928
 20
215.7864094976168019
 30
0.0
 40
0.000930586676675
 50
126.6853284336237948
 51
226.4261819601642003
  0
ARC
  5
10B3B
  8
0
 10
4592.6222052839120806
 20
215.7892184595172864
 30
0.0
 40
0.0048077607718783
 50
226.4261819601607897
 51
258.687269829320428
  0
ARC
  5
10B3C
  8
0
 10
4592.6395479935981712
 20
215.8510461786372048
 30
0.0
 40
0.0690088278388331
 50
254.6343560234170127
 51
264.2902045538654079
  0
ARC
  5
10B3D
  8
0
 10
4592.6912698113528677
 20
216.3589849409181909
 30
0.0
 40
0.5795740338398115
 50
264.1982222230442972
 51
268.3866461997582746
  0
ARC
  5
10B3E
  8
0
 10
4592.7764376365676071
 20
219.3121403353349876
 30
0.0
 40
3.5339571662624278
 50
268.3543969050859914
 51
271.3413222146040198
  0
ARC
  5
10B3F
  8
0
 10
4592.8476508069506963
 20
216.4996665138390881
 30
0.0
 40
0.7206069380581465
 50
270.9152787687925752
 51
275.6286825555201858
  0
ARC
  5
10B40
  8
0
 10
4592.9121269046672751
 20
215.8412817890524877
 30
0.0
 40
0.0590741998996873
 50
276.0262252778222205
 51
286.4922994705203791
  0
ARC
  5
10B41
  8
0
 10
4592.9271120278535818
 20
215.790269698071711
 30
0.0
 40
0.0059078612754207
 50
287.5886450545158937
 51
308.8900278522435201
  0
ARC
  5
10B42
  8
0
 10
4592.9301259237290651
 20
215.7864127777089891
 30
0.0
 40
0.0010164269079037
 50
313.1559680376727783
 51
56.38530905254526
  0
ARC
  5
10B43
  8
0
 10
4592.914301805309151
 20
215.7551453161912889
 30
0.0
 40
0.0360531787764718
 50
62.9660763062909865
 51
81.9752420121988763
  0
ARC
  5
10B44
  8
0
 10
4592.862642358733865
 20
215.4769520167656083
 30
0.0
 40
0.3189719920297409
 50
79.7621388504320805
 51
84.4716716371514593
  0
ARC
  5
10B45
  8
0
 10
4592.7979581451882041
 20
214.8241073352162971
 30
0.0
 40
0.975012767998108
 50
84.3841324699794626
 51
87.8639188311930894
  0
ARC
  5
10B46
  8
0
 10
4592.7760578487714156
 20
214.3381671529803043
 30
0.0
 40
1.4614364394940691
 50
87.7160125479256578
 51
89.604249523795886
  0
LINE
  5
10B47
  8
0
 10
4576.1185653540378553
 20
214.8358641033360072
 30
0.0
 11
4586.2230668103093194
 21
214.8358641033360072
 31
0.0
  0
LINE
  5
10B48
  8
0
 10
4595.384545076840368
 20
214.531759578636013
 30
0.0
 11
4593.3835780752378923
 21
214.531759578636013
 31
0.0
  0
ARC
  5
10B49
  8
0
 10
4595.384545076840368
 20
214.5437595786360134
 30
0.0
 40
0.012
 50
270.0000000000521254
 51
1.9143169350028431
  0
ARC
  5
10B4A
  8
0
 10
4593.3835780752378923
 20
214.5437595786360134
 30
0.0
 40
0.012
 50
180.0000000000098055
 51
269.9999999999478746
  0
LINE
  5
10B4C
  8
0
 10
4580.7754920497682178
 20
214.7197553974359039
 30
0.0
 11
4581.9315755887364503
 21
214.7197553974359039
 31
0.0
  0
ENDSEC
  0
EOF
