  0
SECTION
  2
HEADER
  9
$ACADVER
  1
AC1009
  9
$INSBASE
 10
5567.4645427906561963
 20
0.9831619824488226
 30
0.0
  9
$EXTMIN
 10
5559.4193685482896399
 20
0.9780234965674168
 30
-0.0000000000112498
  9
$EXTMAX
 10
5569.1916627222308307
 20
9.7583453693916589
 30
0.0000000000002956
  9
$LIMMIN
 10
0.0
 20
0.0
  9
$LIMMAX
 10
11.6929133858000007
 20
8.2677165353999982
  9
$ORTHOMODE
 70
     0
  9
$REGENMODE
 70
     1
  9
$FILLMODE
 70
     1
  9
$QTEXTMODE
 70
     0
  9
$MIRRTEXT
 70
     0
  9
$DRAGMODE
 70
     2
  9
$LTSCALE
 40
0.6431102362
  9
$OSMODE
 70
  4095
  9
$ATTMODE
 70
     1
  9
$TEXTSIZE
 40
0.2
  9
$TRACEWID
 40
0.05
  9
$TEXTSTYLE
  7
STANDARD
  9
$CLAYER
  8
0
  9
$CELTYPE
  6
BYLAYER
  9
$CECOLOR
 62
   256
  9
$DIMSCALE
 40
1.0
  9
$DIMASZ
 40
0.1875
  9
$DIMEXO
 40
0.0625
  9
$DIMDLI
 40
0.4443307087
  9
$DIMRND
 40
0.0
  9
$DIMDLE
 40
0.0
  9
$DIMEXE
 40
0.125
  9
$DIMTP
 40
0.01
  9
$DIMTM
 40
0.01
  9
$DIMTXT
 40
2.0
  9
$DIMCEN
 40
0.1052362205
  9
$DIMTSZ
 40
0.0
  9
$DIMTOL
 70
     1
  9
$DIMLIM
 70
     0
  9
$DIMTIH
 70
     1
  9
$DIMTOH
 70
     1
  9
$DIMSE1
 70
     0
  9
$DIMSE2
 70
     0
  9
$DIMTAD
 70
     0
  9
$DIMZIN
 70
     0
  9
$DIMBLK
  1

  9
$DIMASO
 70
     1
  9
$DIMSHO
 70
     1
  9
$DIMPOST
  1
\X
  9
$DIMAPOST
  1

  9
$DIMALT
 70
     1
  9
$DIMALTD
 70
     2
  9
$DIMALTF
 40
25.3999999999999986
  9
$DIMLFAC
 40
1.0
  9
$DIMTOFL
 70
     0
  9
$DIMTVP
 40
0.0
  9
$DIMTIX
 70
     0
  9
$DIMSOXD
 70
     0
  9
$DIMSAH
 70
     0
  9
$DIMBLK1
  1

  9
$DIMBLK2
  1

  9
$DIMSTYLE
  2
STANDARD
  9
$DIMCLRD
 70
     0
  9
$DIMCLRE
 70
     0
  9
$DIMCLRT
 70
     0
  9
$DIMTFAC
 40
1.0
  9
$DIMGAP
 40
0.09
  9
$LUNITS
 70
     2
  9
$LUPREC
 70
     4
  9
$SKETCHINC
 40
0.1
  9
$FILLETRAD
 40
0.0
  9
$AUNITS
 70
     0
  9
$AUPREC
 70
     0
  9
$MENU
  1
.
  9
$ELEVATION
 40
0.0
  9
$PELEVATION
 40
0.0
  9
$THICKNESS
 40
0.0
  9
$LIMCHECK
 70
     0
  9
$BLIPMODE
 70
     0
  9
$CHAMFERA
 40
0.0
  9
$CHAMFERB
 40
0.0
  9
$SKPOLY
 70
     0
  9
$TDCREATE
 40
2458060.468368056230247
  9
$TDUPDATE
 40
2460111.6817476851865649
  9
$TDINDWG
 40
0.6112454861
  9
$TDUSRTIMER
 40
0.6112454861
  9
$USRTIMER
 70
     1
  9
$ANGBASE
 50
0.0
  9
$ANGDIR
 70
     0
  9
$PDMODE
 70
     0
  9
$PDSIZE
 40
0.3125
  9
$PLINEWID
 40
0.0
  9
$COORDS
 70
     1
  9
$SPLFRAME
 70
     0
  9
$SPLINETYPE
 70
     6
  9
$SPLINESEGS
 70
     8
  9
$ATTDIA
 70
     1
  9
$ATTREQ
 70
     1
  9
$HANDLING
 70
     1
  9
$HANDSEED
  5
23B00
  9
$SURFTAB1
 70
     6
  9
$SURFTAB2
 70
     6
  9
$SURFTYPE
 70
     6
  9
$SURFU
 70
     6
  9
$SURFV
 70
     6
  9
$UCSNAME
  2

  9
$UCSORG
 10
0.0
 20
0.0
 30
0.0
  9
$UCSXDIR
 10
1.0
 20
0.0
 30
0.0
  9
$UCSYDIR
 10
0.0
 20
1.0
 30
0.0
  9
$PUCSNAME
  2

  9
$PUCSORG
 10
0.0
 20
0.0
 30
0.0
  9
$PUCSXDIR
 10
1.0
 20
0.0
 30
0.0
  9
$PUCSYDIR
 10
0.0
 20
1.0
 30
0.0
  9
$USERI1
 70
     0
  9
$USERI2
 70
     0
  9
$USERI3
 70
     0
  9
$USERI4
 70
     0
  9
$USERI5
 70
     0
  9
$USERR1
 40
0.0
  9
$USERR2
 40
0.0
  9
$USERR3
 40
0.0
  9
$USERR4
 40
0.0
  9
$USERR5
 40
0.0
  9
$WORLDVIEW
 70
     1
  9
$SHADEDGE
 70
     3
  9
$SHADEDIF
 70
    70
  9
$TILEMODE
 70
     1
  9
$MAXACTVP
 70
    64
  9
$PLIMCHECK
 70
     0
  9
$PEXTMIN
 10
1.0000000000000000E+20
 20
1.0000000000000000E+20
 30
1.0000000000000000E+20
  9
$PEXTMAX
 10
-1.0000000000000000E+20
 20
-1.0000000000000000E+20
 30
-1.0000000000000000E+20
  9
$PLIMMIN
 10
0.0
 20
0.0
  9
$PLIMMAX
 10
12.0
 20
9.0
  9
$UNITMODE
 70
     0
  9
$VISRETAIN
 70
     1
  9
$PLINEGEN
 70
     0
  9
$PSLTSCALE
 70
     1
  0
ENDSEC
  0
SECTION
  2
TABLES
  0
TABLE
  2
VPORT
 70
     1
  0
VPORT
  2
*ACTIVE
 70
     0
 10
0.0
 20
0.0
 11
1.0
 21
1.0
 12
1771.9476054790100079
 22
-114.8124720001258936
 13
0.0
 23
0.0
 14
1.0
 24
1.0
 15
0.0
 25
0.0
 16
0.0
 26
0.0
 36
5.1040778033513332
 17
3792.35791015625
 27
120.1806564331053977
 37
0.0
 40
8.8590691541948701
 41
2.8398203592814371
 42
50.0
 43
0.0
 44
0.0
 50
0.0
 51
0.0
 71
     0
 72
   100
 73
     1
 74
     1
 75
     0
 76
     0
 77
     0
 78
     0
  0
ENDTAB
  0
TABLE
  2
LTYPE
 70
     2
  0
LTYPE
  2
CONTINUOUS
 70
     0
  3
Solid line
 72
    65
 73
     0
 40
0.0
  0
LTYPE
  2
PHANTOM2
 70
     0
  3
___ _ _ ___ _ _ ___ _ _ ___ _ _
 72
    65
 73
     6
 40
1.25
 49
0.625
 49
-0.125
 49
0.125
 49
-0.125
 49
0.125
 49
-0.125
  0
ENDTAB
  0
TABLE
  2
LAYER
 70
     2
  0
LAYER
  2
0
 70
     0
 62
   255
  6
CONTINUOUS
  0
LAYER
  2
DEFPOINTS
 70
     0
 62
     7
  6
CONTINUOUS
  0
ENDTAB
  0
TABLE
  2
STYLE
 70
     1
  0
STYLE
  2
STANDARD
 70
     0
 40
0.0
 41
0.8
 50
0.0
 71
     0
 42
0.2
  3
txt
  4

  0
ENDTAB
  0
TABLE
  2
VIEW
 70
     0
  0
ENDTAB
  0
TABLE
  2
UCS
 70
     0
  0
ENDTAB
  0
TABLE
  2
APPID
 70
     9
  0
APPID
  2
ACAD
 70
     0
  0
APPID
  2
ACAD_MLEADERVER
 70
     0
  0
APPID
  2
ACAD_EXEMPT_FROM_CAD_STANDARDS
 70
     0
  0
APPID
  2
ACAD_NAV_VCDISPLAY
 70
     0
  0
APPID
  2
ACAECLAYERSTANDARD
 70
     0
  0
APPID
  2
ACCMTRANSPARENCY
 70
     0
  0
APPID
  2
ACAD_DSTYLE_DIMJAG
 70
     0
  0
APPID
  2
ACAD_DSTYLE_DIMTALN
 70
     0
  0
APPID
  2
ACDBATTR
 70
     0
  0
ENDTAB
  0
TABLE
  2
DIMSTYLE
 70
     1
  0
DIMSTYLE
  2
STANDARD
 70
     0
  3

  4

  5

  6

  7

 40
1.0
 41
0.1875
 42
0.0625
 43
0.38
 44
0.125
 45
0.0
 46
0.0
 47
0.01
 48
0.01
140
0.15625
141
0.09
142
0.0
143
25.3999999999999986
144
1.0
145
0.0
146
1.0
147
0.09
 71
     1
 72
     0
 73
     1
 74
     1
 75
     0
 76
     0
 77
     0
 78
     4
170
     0
171
     2
172
     0
173
     0
174
     0
175
     0
176
     0
177
     0
178
     0
  0
ENDTAB
  0
ENDSEC
  0
SECTION
  2
BLOCKS
  0
BLOCK
  8
0
  2
$MODEL_SPACE
 70
     0
 10
0.0
 20
0.0
 30
0.0
  3
$MODEL_SPACE
  1

  0
ENDBLK
  5
21
  8
0
  0
BLOCK
 67
     1
  8
0
  2
$PAPER_SPACE
 70
     0
 10
0.0
 20
0.0
 30
0.0
  3
$PAPER_SPACE
  1

  0
ENDBLK
  5
1D
 67
     1
  8
0
  0
BLOCK
  8
0
  2
_FILLED
 70
     0
 10
0.0
 20
0.0
 30
0.0
  3
_FILLED
  1

  0
SOLID
  5
1CCA0
  8
0
  6
BYBLOCK
 62
     0
 10
0.0
 20
0.0
 30
0.0
 11
-1.0
 21
0.1666666667
 31
0.0
 12
-1.0
 22
-0.1666666667
 32
0.0
 13
-1.0
 23
-0.1666666667
 33
0.0
  0
ENDBLK
  5
1CCA1
  8
0
  6
BYBLOCK
 62
     0
  0
BLOCK
  8
0
  2
A$C54BF7565
 70
     0
 10
0.0
 20
0.0
 30
0.0
  3
A$C54BF7565
  1

  0
LINE
  5
1EDB5
  8
0
 10
4.213411105075707
 20
0.392500014379415
 30
0.0
 11
4.2134111050757026
 21
29.1282889381617487
 31
0.0
  0
LINE
  5
1EDB6
  8
0
 10
4.6059111050757053
 20
29.5207889381617505
 30
0.0
 11
70.7849254185449297
 21
29.5207889381617505
 31
0.0
  0
ARC
  5
1EDB7
  8
0
 10
4.6059111050757009
 20
29.1282889381617487
 30
0.0
 40
0.3925
 50
89.9999999999993889
 51
180.0
  0
LINE
  5
1EDB8
  8
0
 10
5.89937377115979
 20
28.8903825271539816
 30
0.0
 11
69.4914627524608335
 21
28.8903825271539816
 31
0.0
  0
LINE
  5
1EDB9
  8
0
 10
4.8893737711618419
 20
1.6404064253871229
 30
0.0
 11
4.8893737711597574
 21
27.8803825271538983
 31
0.0
  0
ARC
  5
1EDBA
  8
0
 10
5.8993737711597944
 20
27.8803825271539587
 30
0.0
 40
1.01
 50
90.0000000000001847
 51
180.0000000000036096
  0
LINE
  5
1EDBB
  8
0
 10
10.9121358131603206
 20
28.1376674354441683
 30
0.0
 11
64.4787007104603163
 21
28.1376674354441683
 31
0.0
  0
LINE
  5
1EDBC
  8
0
 10
8.9771358131603112
 20
26.2026674354441695
 30
0.0
 11
8.9771358131603094
 21
3.3181215170969902
 31
0.0
  0
ARC
  5
1EDBD
  8
0
 10
10.9121358131603099
 20
26.2026674354441802
 30
0.0
 40
1.9350000000000001
 50
89.999999999999801
 51
180.000000000000199
  0
LINE
  5
1EDBE
  8
0
 10
5.1851959221613591
 20
28.5945603761523515
 30
0.0
 11
9.5438841915643415
 21
27.5709190570401397
 31
0.0
  0
CIRCLE
  5
1EDBF
  8
0
 10
17.9746459467603117
 20
14.7603944762705801
 30
0.0
 40
2.6574803149999968
  0
CIRCLE
  5
1EDC0
  8
0
 10
17.9746459467603117
 20
14.7603944762705801
 30
0.0
 40
1.318897637799999
  0
LINE
  5
1EDC1
  8
0
 10
19.4313388601603094
 20
16.6895283345705785
 30
0.0
 11
16.5179530334603086
 21
16.6895283345705785
 31
0.0
  0
LINE
  5
1EDC2
  8
0
 10
16.5179530334603086
 20
12.8312606180704591
 30
0.0
 11
16.5179530334603086
 21
16.6895283345705785
 31
0.0
  0
LINE
  5
1EDC3
  8
0
 10
19.4313388601603094
 20
12.8312606180707007
 30
0.0
 11
19.4313388601603094
 21
16.6895283345705785
 31
0.0
  0
LINE
  5
1EDC4
  8
0
 10
16.5179530334603086
 20
12.8312606180704591
 30
0.0
 11
19.4313388601603094
 21
12.8312606180707007
 31
0.0
  0
LINE
  5
1EDC5
  8
0
 10
71.1774254185449422
 20
0.392500014379415
 30
0.0
 11
71.177425418544928
 21
29.1282889381617487
 31
0.0
  0
ARC
  5
1EDC6
  8
0
 10
70.7849254185449297
 20
29.1282889381617487
 30
0.0
 40
0.3925
 50
0.0
 51
90.0000000000003979
  0
LINE
  5
1EDC7
  8
0
 10
70.5014627524587922
 20
1.6404064253871229
 30
0.0
 11
70.5014627524608812
 21
27.8803825271538983
 31
0.0
  0
ARC
  5
1EDC8
  8
0
 10
69.4914627524608477
 20
27.8803825271539587
 30
0.0
 40
1.01
 50
359.9999999999964189
 51
89.999999999999801
  0
LINE
  5
1EDC9
  8
0
 10
66.4137007104603185
 20
26.2026674354441695
 30
0.0
 11
66.4137007104603185
 21
3.3181215170969902
 31
0.0
  0
ARC
  5
1EDCA
  8
0
 10
64.4787007104603163
 20
26.2026674354441802
 30
0.0
 40
1.9350000000000001
 50
359.9999999999997726
 51
90.0
  0
LINE
  5
1EDCB
  8
0
 10
70.2056406014592795
 20
28.5945603761523515
 30
0.0
 11
65.8469523320562757
 21
27.5709190570401397
 31
0.0
  0
LINE
  5
1EDCC
  8
0
 10
6.0587804917603156
 20
16.9648612744813292
 30
0.0
 11
6.0587804917603156
 21
12.5707899059285495
 31
0.0
  0
LINE
  5
1EDCD
  8
0
 10
6.1845708572603106
 20
16.9745707898439697
 30
0.0
 11
6.1845708572603106
 21
12.5516456001736803
 31
0.0
  0
ARC
  5
1EDCE
  8
0
 10
6.6768621544985933
 20
16.9224693827637793
 30
0.0
 40
0.6195337071513586
 50
164.1442345569018073
 51
176.0764429610183868
  0
ARC
  5
1EDCF
  8
0
 10
6.2840565643031701
 20
17.0322553910392891
 30
0.0
 40
0.2116849357968146
 50
148.9114272159978043
 51
163.6808251279447859
  0
ARC
  5
1EDD0
  8
0
 10
6.1492013395549563
 20
17.1135685847582408
 30
0.0
 40
0.0542118678941835
 50
122.0236997237583978
 51
148.9114272159970938
  0
ARC
  5
1EDD1
  8
0
 10
6.1294117326997544
 20
17.1440896121663009
 30
0.0
 40
0.0178513052483979
 50
68.3637245332240724
 51
120.1174353847827945
  0
ARC
  5
1EDD2
  8
0
 10
6.1093204837146011
 20
17.1172519626224791
 30
0.0
 40
0.0509679580751473
 50
18.2421840615057
 51
58.4438507226990467
  0
ARC
  5
1EDD3
  8
0
 10
5.8217205392181093
 20
17.0102690391100708
 30
0.0
 40
0.3577903413166022
 50
5.3853596804652684
 51
20.0965078311244412
  0
ARC
  5
1EDD4
  8
0
 10
3.097786928403635
 20
16.7137066941642907
 30
0.0
 40
3.0977871295269188
 50
4.8305879622378782
 51
6.1178368155844636
  0
ARC
  5
1EDD5
  8
0
 10
6.6288147452080004
 20
12.5871305066994204
 30
0.0
 40
0.5702684151671137
 50
181.6419910366743125
 51
196.0954335816371099
  0
ARC
  5
1EDD6
  8
0
 10
6.2840565643031701
 20
12.4885112934841995
 30
0.0
 40
0.2116849357968146
 50
196.3191748720554131
 51
211.0885727840025083
  0
ARC
  5
1EDD7
  8
0
 10
6.1492013395549563
 20
12.4071980997652496
 30
0.0
 40
0.0542118678941835
 50
211.0885727840025936
 51
237.9763002762416022
  0
ARC
  5
1EDD8
  8
0
 10
6.1294117326997544
 20
12.3766770723571895
 30
0.0
 40
0.0178513052483979
 50
239.8825646152172055
 51
291.636275466775885
  0
ARC
  5
1EDD9
  8
0
 10
6.1093204837146011
 20
12.4035147219010096
 30
0.0
 40
0.0509679580751473
 50
301.5561492773010173
 51
341.7578159384942751
  0
ARC
  5
1EDDA
  8
0
 10
5.8217205392181093
 20
12.5104976454134196
 30
0.0
 40
0.3577903413166022
 50
339.9034921688755162
 51
354.6146403195347148
  0
ARC
  5
1EDDB
  8
0
 10
4.494339004003983
 20
12.6641567549704206
 30
0.0
 40
1.6939723957951669
 50
353.6539827235096141
 51
356.1916950896656999
  0
LINE
  5
1EDDC
  8
0
 10
4.6059111050757053
 20
0.0000000143794168
 30
0.0
 11
70.7849254185449297
 21
0.0000000143794168
 31
0.0
  0
ARC
  5
1EDDD
  8
0
 10
4.6059111050757009
 20
0.392500014379415
 30
0.0
 40
0.3925
 50
180.0
 51
270.0000000000003979
  0
LINE
  5
1EDDE
  8
0
 10
5.89937377115979
 20
0.6304064253871929
 30
0.0
 11
69.4914627524608335
 21
0.6304064253871929
 31
0.0
  0
ARC
  5
1EDDF
  8
0
 10
5.8993737711597944
 20
1.640406425387205
 30
0.0
 40
1.01
 50
179.9999999999967031
 51
269.9999999999997726
  0
LINE
  5
1EDE0
  8
0
 10
10.9121358131603206
 20
1.383121517096995
 30
0.0
 11
64.4787007104603163
 21
1.383121517096995
 31
0.0
  0
ARC
  5
1EDE1
  8
0
 10
10.9121358131603099
 20
3.3181215170969902
 30
0.0
 40
1.9350000000000001
 50
180.0
 51
270.0
  0
LINE
  5
1EDE2
  8
0
 10
5.1851959221613591
 20
0.9262285763888158
 30
0.0
 11
9.5438841915643415
 21
1.9498698955010241
 31
0.0
  0
ARC
  5
1EDE3
  8
0
 10
70.7849254185449297
 20
0.392500014379415
 30
0.0
 40
0.3925
 50
269.9999999999993747
 51
0.0
  0
ARC
  5
1EDE4
  8
0
 10
69.4914627524608477
 20
1.640406425387205
 30
0.0
 40
1.01
 50
270.0000000000002274
 51
0.0000000000032569
  0
ARC
  5
1EDE5
  8
0
 10
64.4787007104603163
 20
3.3181215170969902
 30
0.0
 40
1.9350000000000001
 50
269.9999999999997726
 51
0.0
  0
LINE
  5
1EDE6
  8
0
 10
70.2056406014592795
 20
0.9262285763888158
 30
0.0
 11
65.8469523320562757
 21
1.9498698955010241
 31
0.0
  0
LINE
  5
1EDE7
  8
0
 10
37.6954182618103175
 20
14.7603944762705801
 30
0.0
 11
52.5300195105287386
 21
42.8960013024525324
 31
0.0
  0
ENDBLK
  5
1EDEB
  8
0
  0
ENDSEC
  0
SECTION
  2
ENTITIES
  0
ATTDEF
  5
3930
  8
DEFPOINTS
 10
5567.453316085087863
 20
0.9816451737447948
 30
0.0
 40
0.001
  1
P40882-SN
  3

  2
MODELNUMBER
 70
     0
1001
ACDBATTR
1070
     0
1070
     1
  0
ATTDEF
  5
3931
  8
DEFPOINTS
 10
5567.453316085087863
 20
0.9799785070781297
 30
0.0
 40
0.001
  1
ONE
  3

  2
TRADENAME
 70
     0
1001
ACDBATTR
1070
     0
1070
     1
  0
ATTDEF
  5
3932
  8
DEFPOINTS
 10
5567.453316085087863
 20
0.9783118404114645
 30
0.0
 40
0.001
  1
BATHROOM SINK FAUCET
  3

  2
PRODUCT
 70
     0
1001
ACDBATTR
1070
     0
1070
     1
  0
LINE
  5
232F4
  8
0
 10
5566.1095427906548139
 20
1.5131619824488221
 30
0.0
 11
5568.8195427906557597
 21
1.5131619824488221
 31
0.0
  0
LINE
  5
232F5
  8
0
 10
5566.0895427906552868
 20
0.9831619824488226
 30
0.0
 11
5568.8395427906552868
 21
0.9831619824488226
 31
0.0
  0
LINE
  5
232F6
  8
0
 10
5566.0895427906552868
 20
0.9831619824488226
 30
0.0
 11
5566.0895427906552868
 21
1.493161982448822
 31
0.0
  0
ARC
  5
232F7
  8
0
 10
5566.1095427906548139
 20
1.4931619824488189
 30
0.0
 40
0.02
 50
90.0
 51
179.9999999999917009
  0
LINE
  5
232F8
  8
0
 10
5566.934542790654632
 20
8.1681619824487672
 30
0.0
 11
5566.934542790654632
 21
1.5131619824488221
 31
0.0
  0
LINE
  5
232F9
  8
0
 10
5566.4045427906557961
 20
8.6981619824488234
 30
0.0
 11
5561.3633887837750081
 21
8.6981619824488234
 31
0.0
  0
ARC
  5
232FA
  8
0
 10
5566.4045427906557961
 20
8.1681619824488276
 30
0.0
 40
0.5300000000000001
 50
359.9999999999935199
 51
90.0
  0
LINE
  5
232FB
  8
0
 10
5568.8395427906552868
 20
0.9831619824488226
 30
0.0
 11
5568.8395427906552868
 21
1.493161982448822
 31
0.0
  0
ARC
  5
232FC
  8
0
 10
5568.8195427906557597
 20
1.4931619824488189
 30
0.0
 40
0.02
 50
0.0000000000082949
 51
90.0
  0
LINE
  5
232FD
  8
0
 10
5567.9945427906550321
 20
8.1681619824489911
 30
0.0
 11
5567.9945427906559416
 21
1.5131619824488221
 31
0.0
  0
LINE
  5
232FE
  8
0
 10
5561.3633887837549992
 20
9.7581619824488222
 30
0.0
 11
5566.4045427906548866
 21
9.7581619824488222
 31
0.0
  0
ARC
  5
232FF
  8
0
 10
5566.4045427906548866
 20
8.1681619824488294
 30
0.0
 40
1.5900000000000001
 50
0.0000000000058522
 51
90.0
  0
LINE
  5
23300
  8
0
 10
5559.7755678234880179
 20
8.2513761527369311
 30
0.0
 11
5559.7357924968164298
 21
7.4924177064554831
 31
0.0
  0
LINE
  5
23301
  8
0
 10
5560.8341151303538936
 20
8.1959000392233818
 30
0.0
 11
5560.7943398036595681
 21
7.436941592834871
 31
0.0
  0
ARC
  5
23302
  8
0
 10
5561.3633887837549992
 20
8.1681619824488241
 30
0.0
 40
1.5900000000000001
 50
90.0
 51
177.0000000049853952
  0
ARC
  5
23303
  8
0
 10
5561.3633887837750081
 20
8.1681619824488312
 30
0.0
 40
0.5300000000000001
 50
90.0
 51
177.0000000037034056
  0
LINE
  5
23304
  8
0
 10
5560.7838301487499848
 20
7.4274786570491118
 30
0.0
 11
5559.7452554326018799
 21
7.4819080515463803
 31
0.0
  0
ARC
  5
23305
  8
0
 10
5560.7843535083120514
 20
7.4374649523966561
 30
0.0
 40
0.01
 50
266.9999999997335181
 51
357.0000000037067025
  0
ARC
  5
23306
  8
0
 10
5559.745778792164856
 20
7.491894346893921
 30
0.0
 40
0.01
 50
177.0000000049705875
 51
266.9999999997335749
  0
CIRCLE
  5
23307
  8
0
 10
5567.4645427906561963
 20
4.0062351576488231
 30
0.0
 40
0.4912592647999992
  0
ARC
  5
23308
  8
0
 10
5566.8865943787723154
 20
4.0651940669397391
 30
0.0
 40
0.5999291622080019
 50
38.7430515739832728
 51
42.5824055294691775
  0
ARC
  5
23309
  8
0
 10
5567.3194895067308607
 20
4.4630162734135261
 30
0.0
 40
0.012
 50
42.5824055294678629
 51
107.6175238012509965
  0
ARC
  5
2330A
  8
0
 10
5567.3623149629011095
 20
4.4469053567219179
 30
0.0
 40
0.01
 50
218.7430515739812904
 51
283.0584211811303135
  0
ARC
  5
2330B
  8
0
 10
5567.4645574750456944
 20
4.006095494313251
 30
0.0
 40
0.4425117303304372
 50
101.9189145797007967
 51
103.0584211811300008
  0
ARC
  5
2330C
  8
0
 10
5567.9635204056348812
 20
4.3043310539046544
 30
0.0
 40
0.5997920259891253
 50
162.4537041418714125
 51
166.2904840428383011
  0
ARC
  5
2330D
  8
0
 10
5567.4030761885942411
 20
4.4815364302409364
 30
0.0
 40
0.012
 50
97.368671230731934
 51
162.4537041418707872
  0
ARC
  5
2330E
  8
0
 10
5567.3711014938717199
 20
4.4488514605853062
 30
0.0
 40
0.01
 50
281.9189145797006972
 51
346.2904840428431044
  0
ARC
  5
2330F
  8
0
 10
5566.8921193502992537
 20
3.907079095226528
 30
0.0
 40
0.5999291622080017
 50
54.3952254870158072
 51
58.2345794425060603
  0
ARC
  5
23310
  8
0
 10
5567.201630405817923
 20
4.4069426829040177
 30
0.0
 40
0.012
 50
58.2345794425053782
 51
123.2696977142694976
  0
ARC
  5
23311
  8
0
 10
5567.2472144512066734
 20
4.4029833725047061
 30
0.0
 40
0.01
 50
234.3952254870148124
 51
298.7105950942009258
  0
ARC
  5
23312
  8
0
 10
5567.4645946112268575
 20
4.0061046352099341
 30
0.0
 40
0.4425117303304371
 50
117.5710884927221969
 51
118.7105950941999026
  0
ARC
  5
23313
  8
0
 10
5567.8645916518125887
 20
4.427899398841987
 30
0.0
 40
0.5997920259891251
 50
178.1058780549105904
 51
181.9426579558783885
  0
ARC
  5
23314
  8
0
 10
5567.2771207882651652
 20
4.4473274789560646
 30
0.0
 40
0.012
 50
113.0208451437648023
 51
178.1058780549101073
  0
ARC
  5
23315
  8
0
 10
5567.255150101237632
 20
4.4072278872436872
 30
0.0
 40
0.01
 50
297.5710884927220832
 51
1.9426579558835331
  0
ARC
  5
23316
  8
0
 10
5566.9400983497362176
 20
3.756318075054375
 30
0.0
 40
0.5999291622080017
 50
70.0473994000572162
 51
73.886753355531269
  0
ARC
  5
23317
  8
0
 10
5567.1032703137461795
 20
4.3211504483612853
 30
0.0
 40
0.012
 50
73.88675335553107
 51
138.921871627318211
  0
ARC
  5
23318
  8
0
 10
5567.1482321882385804
 20
4.3296363881939453
 30
0.0
 40
0.01
 50
250.0473994000568041
 51
314.362769007224415
  0
ARC
  5
23319
  8
0
 10
5567.4646279041116941
 20
4.0061234563588091
 30
0.0
 40
0.4425117303304371
 50
133.2232624057589021
 51
134.3627690072223118
  0
ARC
  5
2331A
  8
0
 10
5567.7359931040609808
 20
4.5201948359955706
 30
0.0
 40
0.5997920259891251
 50
193.7580519679517863
 51
197.5948318689137864
  0
ARC
  5
2331B
  8
0
 10
5567.1650656204528786
 20
4.3804047280629383
 30
0.0
 40
0.012
 50
128.6730190568187879
 51
193.7580519679513031
  0
ARC
  5
2331C
  8
0
 10
5567.1547284064672567
 20
4.3358645175676918
 30
0.0
 40
0.01
 50
313.2232624057584758
 51
17.5948318689342216
  0
ARC
  5
2331D
  8
0
 10
5567.026972994181051
 20
3.6240922616036739
 30
0.0
 40
0.5999291622080017
 50
85.69957331309854
 51
89.5389272685905553
  0
ARC
  5
2331E
  8
0
 10
5567.0317041485750451
 20
4.2120023873480044
 30
0.0
 40
0.012
 50
89.5389272685905553
 51
154.5740455403729925
  0
ARC
  5
2331F
  8
0
 10
5567.0727092356291905
 20
4.2323042140758371
 30
0.0
 40
0.01
 50
265.6995733130984831
 51
330.0149429202755869
  0
ARC
  5
23320
  8
0
 10
5567.4646548845212237
 20
4.0061505618813644
 30
0.0
 40
0.4425117303304371
 50
148.875436318822409
 51
150.0149429202724889
  0
ARC
  5
23321
  8
0
 10
5567.5872623283676148
 20
4.5743722350152547
 30
0.0
 40
0.5997920259891251
 50
209.4102258810019919
 51
213.2470057819637077
  0
ARC
  5
23322
  8
0
 10
5567.0752213043379015
 20
4.2857315318440827
 30
0.0
 40
0.012
 50
144.3251929698757863
 51
209.410225881001594
  0
ARC
  5
23323
  8
0
 10
5567.0772842272681373
 20
4.2400540462204983
 30
0.0
 40
0.01
 50
328.8754363188218122
 51
33.2470057819672817
  0
ARC
  5
23324
  8
0
 10
5567.1463001886822894
 20
3.5202082385652189
 30
0.0
 40
0.5999291622080017
 50
101.3517472261529946
 51
105.1911011816167019
  0
ARC
  5
23325
  8
0
 10
5566.9922396453803231
 20
4.0875935122303728
 30
0.0
 40
0.012
 50
105.1911011816166024
 51
170.2262194534233117
  0
ARC
  5
23326
  8
0
 10
5567.0262467852753616
 20
4.1182055322396556
 30
0.0
 40
0.01
 50
281.3517472261530088
 51
345.6671168333194828
  0
ARC
  5
23327
  8
0
 10
5567.4646735514406828
 20
4.0061839414849914
 30
0.0
 40
0.4425117303304371
 50
164.52761023185829
 51
165.667116833315589
  0
ARC
  5
23328
  8
0
 10
5567.4294300059646048
 20
4.5864135060608593
 30
0.0
 40
0.5997920259891251
 50
225.0623997940255947
 51
228.8991796949900959
  0
ARC
  5
23329
  8
0
 10
5567.0142511818366984
 20
4.1703293681619966
 30
0.0
 40
0.012
 50
159.9773668829197959
 51
225.0623997940253105
  0
ARC
  5
2332A
  8
0
 10
5567.0285612441239209
 20
4.1269022975581828
 30
0.0
 40
0.01
 50
344.5276102318575795
 51
48.8991796950316271
  0
ARC
  5
2332B
  8
0
 10
5567.2892299811101111
 20
3.452370608689987
 30
0.0
 40
0.5999291622080014
 50
117.0039211391914051
 51
120.8432750946954997
  0
ARC
  5
2332C
  8
0
 10
5566.9878037058288101
 20
3.9571506601431361
 30
0.0
 40
0.012
 50
120.8432750946949028
 51
185.878393366463996
  0
ARC
  5
2332D
  8
0
 10
5567.0122907445693272
 20
3.995802519950451
 30
0.0
 40
0.01
 50
297.0039211391908225
 51
1.3192907463580119
  0
ARC
  5
2332E
  8
0
 10
5567.4646825204326888
 20
4.0062211195571917
 30
0.0
 40
0.442511730330437
 50
180.179784144898008
 51
181.3192907463538006
  0
ARC
  5
2332F
  8
0
 10
5567.2742018381741218
 20
4.5554256031440783
 30
0.0
 40
0.599792025989125
 50
240.7145737070810014
 51
244.5513536080561039
  0
ARC
  5
23330
  8
0
 10
5566.9866771280139801
 20
4.0427570875672121
 30
0.0
 40
0.012
 50
175.6295407959545116
 51
240.7145737070808877
  0
ARC
  5
23331
  8
0
 10
5567.0121730178043435
 20
4.004801219144225
 30
0.0
 40
0.01
 50
0.1797841448971835
 51
64.5513536080571129
  0
ARC
  5
23332
  8
0
 10
5567.4451619226174444
 20
3.4256105786493158
 30
0.0
 40
0.5999291622080014
 50
132.65609505223469
 51
136.4954490077423941
  0
ARC
  5
23333
  8
0
 10
5567.0187253232616058
 20
3.8303481806892612
 30
0.0
 40
0.012
 50
136.4954490077410867
 51
201.5305672795086025
  0
ARC
  5
23334
  8
0
 10
5567.0318761692060434
 20
3.8741732486731939
 30
0.0
 40
0.01
 50
312.6560950522331268
 51
16.9714646593993201
  0
ARC
  5
23335
  8
0
 10
5567.4646811263055497
 20
4.0062593387704304
 30
0.0
 40
0.4425117303304369
 50
195.8319580579351111
 51
196.9714646593955081
  0
ARC
  5
23336
  8
0
 10
5567.133090388076198
 20
4.4837067572640272
 30
0.0
 40
0.599792025989125
 50
256.3667476201089244
 51
260.2035275210772056
  0
ARC
  5
23337
  8
0
 10
5566.994544184300139
 20
3.9124761425070922
 30
0.0
 40
0.012
 50
191.2817147090011076
 51
256.3667476201089244
  0
ARC
  5
23338
  8
0
 10
5567.0293349880812457
 20
3.8828064893893202
 30
0.0
 40
0.01
 50
15.8319580579344397
 51
80.2035275210773619
  0
ARC
  5
23339
  8
0
 10
5567.6025312544461485
 20
3.4419128174523341
 30
0.0
 40
0.5999291622080013
 50
148.3082689652987938
 51
152.1476229207708002
  0
ARC
  5
2333A
  8
0
 10
5567.0827111827738918
 20
3.7165904336870978
 30
0.0
 40
0.012
 50
152.1476229207688107
 51
217.1827411925636966
  0
ARC
  5
2333B
  8
0
 10
5567.083550497836768
 20
3.7623384050416262
 30
0.0
 40
0.01
 50
328.30826896529652
 51
32.6236385724484066
  0
ARC
  5
2333C
  8
0
 10
5567.4646694724551708
 20
4.0062957645804982
 30
0.0
 40
0.4425117303304369
 50
211.484131970976506
 51
212.623638572445401
  0
ARC
  5
2333D
  8
0
 10
5567.0165612463833895
 20
4.3765760271277427
 30
0.0
 40
0.5997920259891247
 50
272.0189215331903938
 51
275.8557014341266722
  0
ARC
  5
2333E
  8
0
 10
5567.0372688871184437
 20
3.78914887468108
 30
0.0
 40
0.012
 50
206.9338886220540132
 51
272.0189215331903938
  0
ARC
  5
2333F
  8
0
 10
5567.0787743301316368
 20
3.7699658993106371
 30
0.0
 40
0.01
 50
31.4841319709760192
 51
95.8557014341267148
  0
ARC
  5
23340
  8
0
 10
5567.7496666131701204
 20
3.5000682626247981
 30
0.0
 40
0.5999291622080013
 50
163.9604428783368064
 51
167.7997968338115129
  0
ARC
  5
23341
  8
0
 10
5567.1750157458782269
 20
3.6243143108247309
 30
0.0
 40
0.012
 50
167.799796833809296
 51
232.8349151055834909
  0
ARC
  5
23342
  8
0
 10
5567.1634812819047511
 20
3.668592267797532
 30
0.0
 40
0.01
 50
343.960442878333879
 51
48.2758124854779282
  0
ARC
  5
23343
  8
0
 10
5567.4646484231971044
 20
4.0063276954517022
 30
0.0
 40
0.4425117303304368
 50
227.1363058840364033
 51
228.2758124854761093
  0
ARC
  5
23344
  8
0
 10
5566.9332568464496944
 20
4.2419788088989518
 30
0.0
 40
0.5997920259891247
 50
287.6710954462207042
 51
291.507875347192396
  0
ARC
  5
23345
  8
0
 10
5567.1116825407152646
 20
3.6819219033591231
 30
0.0
 40
0.012
 50
222.586062535088189
 51
287.6710954462205905
  0
ARC
  5
23346
  8
0
 10
5567.1568243541278207
 20
3.67464831926296
 30
0.0
 40
0.01
 50
47.1363058840360125
 51
111.5078753471931066
  0
ARC
  5
23347
  8
0
 10
5567.8756556423340953
 20
3.5957637908417288
 30
0.0
 40
0.5999291622080012
 50
179.6126167913751885
 51
183.4519707468583931
  0
ARC
  5
23348
  8
0
 10
5567.2887932053954501
 20
3.5603635099996911
 30
0.0
 40
0.012
 50
183.451970746856091
 51
248.4870890186413135
  0
ARC
  5
23349
  8
0
 10
5567.2657404208102889
 20
3.5998875590802668
 30
0.0
 40
0.01
 50
359.6126167913719769
 51
63.9279863985120684
  0
ARC
  5
2334A
  8
0
 10
5567.4646195396553594
 20
4.0063527632174001
 30
0.0
 40
0.4425117303304368
 50
242.7884797970569934
 51
243.9279863985113082
  0
ARC
  5
2334B
  8
0
 10
5566.8893554945270807
 20
4.0898975625123848
 30
0.0
 40
0.5997920259891246
 50
303.3232693592651117
 51
307.1600492602464101
  0
ARC
  5
2334C
  8
0
 10
5567.2122662248193592
 20
3.5987477624734159
 30
0.0
 40
0.012
 50
238.2382364481084949
 51
303.3232693592648843
  0
ARC
  5
2334D
  8
0
 10
5567.2576964468416918
 20
3.6039230181095139
 30
0.0
 40
0.01
 50
62.7884797970569082
 51
127.1600492602482007
  0
ARC
  5
2334E
  8
0
 10
5567.9711543120038186
 20
3.7219021025531869
 30
0.0
 40
0.5999291622080013
 50
195.264790704422694
 51
199.1041446598941889
  0
ARC
  5
2334F
  8
0
 10
5567.4156052076486958
 20
3.529480969553723
 30
0.0
 40
0.012
 50
199.1041446598921141
 51
264.1392629316932812
  0
ARC
  5
23350
  8
0
 10
5567.3827438220268959
 20
3.5613197928322609
 30
0.0
 40
0.01
 50
15.2647907044198803
 51
79.5801603115721292
  0
ARC
  5
23351
  8
0
 10
5567.4645849639910011
 20
4.0063691087160862
 30
0.0
 40
0.4425117303304369
 50
258.4406537101266963
 51
259.5801603115720013
  0
ARC
  5
23352
  8
0
 10
5566.8881131530506536
 20
3.9316114582871222
 30
0.0
 40
0.5997920259891247
 50
318.9754432723046875
 51
322.8122231732655791
  0
ARC
  5
23353
  8
0
 10
5567.3315601077238171
 20
3.5457950975570749
 30
0.0
 40
0.012
 50
253.8904103611700975
 51
318.975443272304517
  0
ARC
  5
23354
  8
0
 10
5567.3739093866179246
 20
3.5630353678901239
 30
0.0
 40
0.01
 50
78.4406537101266537
 51
142.8122231732689045
  0
ARC
  5
23355
  8
0
 10
5568.0290799227295793
 20
3.8691280962239101
 30
0.0
 40
0.5999291622080014
 50
210.916964617474207
 51
214.7563185729298993
  0
ARC
  5
23356
  8
0
 10
5567.5460466865615672
 20
3.5339571062334811
 30
0.0
 40
0.012
 50
214.756318572928393
 51
279.7914368447391098
  0
ARC
  5
23357
  8
0
 10
5567.5058138785416304
 20
3.555749363840337
 30
0.0
 40
0.01
 50
30.9169646174719297
 51
95.2323342246232727
  0
ARC
  5
23358
  8
0
 10
5567.4645472605243413
 20
4.0063755196768973
 30
0.0
 40
0.442511730330437
 50
274.0928276231799146
 51
275.2323342246231732
  0
ARC
  5
23359
  8
0
 10
5566.9296219608067986
 20
3.7788598524628059
 30
0.0
 40
0.599792025989125
 50
334.6276171853456276
 51
338.4643970863057802
  0
ARC
  5
2335A
  8
0
 10
5567.4607167078684142
 20
3.5269911655246231
 30
0.0
 40
0.012
 50
269.5425842742017721
 51
334.6276171853451729
  0
ARC
  5
2335B
  8
0
 10
5567.4968441913497372
 20
3.5550178185730088
 30
0.0
 40
0.01
 50
94.0928276231798435
 51
158.4643970863102993
  0
ARC
  5
2335C
  8
0
 10
5568.0451363969559679
 20
4.0265226934174514
 30
0.0
 40
0.5999291622080013
 50
226.5691385305142944
 51
230.4084924859760974
  0
ARC
  5
2335D
  8
0
 10
5567.6704433943696131
 20
3.5734599454583931
 30
0.0
 40
0.012
 50
230.4084924859751027
 51
295.4436107577499797
  0
ARC
  5
2335E
  8
0
 10
5567.6258230472703872
 20
3.583589405339811
 30
0.0
 40
0.01
 50
46.5691385305128733
 51
110.8845081376657049
  0
ARC
  5
2335F
  8
0
 10
5567.4645092255468626
 20
4.0063715206282007
 30
0.0
 40
0.4425117303304368
 50
289.7450015361827127
 51
290.8845081376651933
  0
ARC
  5
23360
  8
0
 10
5567.0108033994110883
 20
3.6429716328513289
 30
0.0
 40
0.5997920259891247
 50
350.2797910983891256
 51
354.116570999357009
  0
ARC
  5
23361
  8
0
 10
5567.5901570710693704
 20
3.543730567992641
 30
0.0
 40
0.012
 50
285.1947581872519208
 51
350.2797910983885004
  0
ARC
  5
23362
  8
0
 10
5567.6173833489638128
 20
3.580464995113172
 30
0.0
 40
0.01
 50
109.745001536182599
 51
174.1165709993618975
  0
ARC
  5
23363
  8
0
 10
5568.0181328994412979
 20
4.1824126568923328
 30
0.0
 40
0.5999291622080013
 50
242.2213124435448037
 51
246.0606663990328968
  0
ARC
  5
23364
  8
0
 10
5567.7795693963325903
 20
3.6450597423566111
 30
0.0
 40
0.012
 50
246.0606663990324989
 51
311.0957846708018906
  0
ARC
  5
23365
  8
0
 10
5567.7338707971739495
 20
3.6427751488123832
 30
0.0
 40
0.01
 50
62.2213124435441216
 51
126.5366820507170047
  0
ARC
  5
23366
  8
0
 10
5567.4644736799400562
 20
4.0063574081611426
 30
0.0
 40
0.4425117303304369
 50
305.3971754492574746
 51
306.5366820507156262
  0
ARC
  5
23367
  8
0
 10
5567.1256366129464368
 20
3.5340250070540349
 30
0.0
 40
0.5997920259891247
 50
5.9319650114317772
 51
9.768744912399951
  0
ARC
  5
23368
  8
0
 10
5567.7102811977365491
 20
3.5947718200577481
 30
0.0
 40
0.012
 50
300.8469321003188952
 51
5.9319650114312701
  0
ARC
  5
23369
  8
0
 10
5567.7265870215651375
 20
3.637489596839715
 30
0.0
 40
0.01
 50
125.3971754492572046
 51
189.7687449124047987
  0
ARC
  5
2336A
  8
0
 10
5567.9500721560625607
 20
4.3252363412067529
 30
0.0
 40
0.5999291622080013
 50
257.8734863565725277
 51
261.7128403120631219
  0
ARC
  5
2336B
  8
0
 10
5567.8653313161048573
 20
3.7434462675394702
 30
0.0
 40
0.012
 50
261.7128403120631219
 51
326.7479585838559046
  0
ARC
  5
2336C
  8
0
 10
5567.8219437209272655
 20
3.7289170584214482
 30
0.0
 40
0.01
 50
77.8734863565723714
 51
142.1888559637424976
  0
ARC
  5
2336D
  8
0
 10
5567.4644432599598076
 20
4.0063342289328459
 30
0.0
 40
0.4425117303304368
 50
321.0493493622769847
 51
322.1888559637397975
  0
ARC
  5
2336E
  8
0
 10
5567.2656049472871018
 20
3.4601000479086581
 30
0.0
 40
0.5997920259891247
 50
21.5841389244714001
 51
25.4209188254411913
  0
ARC
  5
2336F
  8
0
 10
5567.8121800309309037
 20
3.6763294255524648
 30
0.0
 40
0.012
 50
316.4991060133523888
 51
21.5841389244709312
  0
ARC
  5
23370
  8
0
 10
5567.8163560723332921
 20
3.7218623699127771
 30
0.0
 40
0.01
 50
141.0493493622765016
 51
205.4209188254453125
  0
ARC
  5
23371
  8
0
 10
5567.8460019208023368
 20
4.4444011670699943
 30
0.0
 40
0.5999291622080012
 50
273.5256602696525192
 51
277.3650142251061084
  0
ARC
  5
23372
  8
0
 10
5567.9213685844279098
 20
3.86132264252256
 30
0.0
 40
0.012
 50
277.3650142251059947
 51
342.4001324968913877
  0
ARC
  5
23373
  8
0
 10
5567.8835098526833463
 20
3.8356263828043211
 30
0.0
 40
0.01
 50
93.5256602696524908
 51
157.8410298767994107
  0
ARC
  5
23374
  8
0
 10
5567.4644202217159545
 20
4.0063037020406318
 30
0.0
 40
0.4425117303304368
 50
336.701523275336001
 51
337.8410298767958011
  0
ARC
  5
23375
  8
0
 10
5567.420327591392379
 20
3.4266794314508271
 30
0.0
 40
0.5997920259891246
 50
37.2363128375199466
 51
41.0730927384745215
  0
ARC
  5
23376
  8
0
 10
5567.888296200349032
 20
3.7823546299784692
 30
0.0
 40
0.012
 50
332.151279926387474
 51
37.2363128375196268
  0
ARC
  5
23377
  8
0
 10
5567.8800327414373896
 20
3.8273257717332809
 30
0.0
 40
0.01
 50
156.7015232753354042
 51
221.0730927384774134
  0
ARC
  5
23378
  8
0
 10
5567.7136406069175791
 20
4.5310692244905786
 30
0.0
 40
0.599929162208001
 50
289.177834182686297
 51
293.0171881381393746
  0
ARC
  5
23379
  8
0
 10
5567.9435251734666963
 20
3.9899465158219201
 30
0.0
 40
0.012
 50
293.0171881381390904
 51
358.052306409940627
  0
ARC
  5
2337A
  8
0
 10
5567.9140031140959763
 20
3.9549889795341988
 30
0.0
 40
0.01
 50
109.1778341826859986
 51
173.4932037898360875
  0
ARC
  5
2337B
  8
0
 10
5567.4644062738489083
 20
4.0062680915244497
 30
0.0
 40
0.4425117303304366
 50
352.35369718837552
 51
353.49320378983208
  0
ARC
  5
2337C
  8
0
 10
5567.5783294745551757
 20
3.4362418119140719
 30
0.0
 40
0.5997920259891245
 50
52.8884867505561189
 51
56.7252666515497879
  0
ARC
  5
2337D
  8
0
 10
5567.932984517911791
 20
3.904984028956517
 30
0.0
 40
0.012
 50
347.8034538394388164
 51
52.8884867505559271
  0
ARC
  5
2337E
  8
0
 10
5567.9128944216327
 20
3.9460580642511589
 30
0.0
 40
0.01
 50
172.3536971883746958
 51
236.7252666515512942
  0
ARC
  5
2337F
  8
0
 10
5567.5628048475473406
 20
4.5788127401296084
 30
0.0
 40
0.5999291622080011
 50
304.8300080957336036
 51
308.6693620512201051
  0
ARC
  5
23380
  8
0
 10
5567.9301578303711722
 20
4.1197784431700022
 30
0.0
 40
0.012
 50
308.6693620512191956
 51
13.7044803229896406
  0
ARC
  5
23381
  8
0
 10
5567.9111619594623335
 20
4.0781522708591744
 30
0.0
 40
0.01
 50
124.8300080957325946
 51
189.1453777028785908
  0
ARC
  5
23382
  8
0
 10
5567.4644024508088478
 20
4.0062300384533742
 30
0.0
 40
0.4425117303304366
 50
8.0058711014188884
 51
9.1453777028745602
  0
ARC
  5
23383
  8
0
 10
5567.7278923199128258
 20
3.4880779912844129
 30
0.0
 40
0.5997920259891245
 50
68.5406606636267099
 51
72.3774405645543908
  0
ARC
  5
23384
  8
0
 10
5567.9429306555439325
 20
4.0351227609565816
 30
0.0
 40
0.012
 50
3.455627752478855
 51
68.5406606636266247
  0
ARC
  5
23385
  8
0
 10
5567.9125039124301111
 20
4.0692534164944583
 30
0.0
 40
0.01
 50
188.0058711014179949
 51
252.3774405645548882
  0
ARC
  5
23386
  8
0
 10
5567.4046814409375656
 20
4.5840907958441832
 30
0.0
 40
0.5999291622080009
 50
320.4821820087693141
 51
324.3215359642459816
  0
ARC
  5
23387
  8
0
 10
5567.8822579498264531
 20
4.2411893844569484
 30
0.0
 40
0.012
 50
324.32153596424439
 51
29.3566542360403311
  0
ARC
  5
23388
  8
0
 10
5567.8751971042256628
 20
4.1959817988962369
 30
0.0
 40
0.01
 50
140.4821820087674098
 51
204.7975516159195877
  0
ARC
  5
23389
  8
0
 10
5567.4644090361343842
 20
4.0061923650496052
 30
0.0
 40
0.4425117303304365
 50
23.6580450144553396
 51
24.7975516159162588
  0
ARC
  5
2338A
  8
0
 10
5567.8579237354288125
 20
3.5783435172726938
 30
0.0
 40
0.5997920259891244
 50
84.1928345766566792
 51
88.0296144776013136
  0
ARC
  5
2338B
  8
0
 10
5567.9173969537141602
 20
4.163119031571302
 30
0.0
 40
0.012
 50
19.1078016655143692
 51
84.192834576656665
  0
ARC
  5
2338C
  8
0
 10
5567.8788901761108718
 20
4.187774992768527
 30
0.0
 40
0.01
 50
203.6580450144545864
 51
268.0296144776012852
  0
ARC
  5
2338D
  8
0
 10
5567.2509976767869375
 20
4.546511942387454
 30
0.0
 40
0.5999291622080009
 50
336.1343559218017276
 51
339.9737098772909007
  0
ARC
  5
2338E
  8
0
 10
5567.8033780468458644
 20
4.3451748455856034
 30
0.0
 40
0.012
 50
339.9737098772887975
 51
45.0088281490531585
  0
ARC
  5
2338F
  8
0
 10
5567.8087758971687435
 20
4.2997386865851039
 30
0.0
 40
0.01
 50
156.1343559217989991
 51
220.449725528970589
  0
ARC
  5
23390
  8
0
 10
5567.4644255414195868
 20
4.0061578653771583
 30
0.0
 40
0.4425117303304364
 50
39.3102189275046001
 51
40.4497255289681377
  0
ARC
  5
23391
  8
0
 10
5567.9587798858692622
 20
3.7003438087536682
 30
0.0
 40
0.5997920259891242
 50
99.845008489699012
 51
103.6817883906733044
  0
ARC
  5
23392
  8
0
 10
5567.8582771302799301
 20
4.2794799429531594
 30
0.0
 40
0.012
 50
34.7599755785648483
 51
99.845008489699012
  0
ARC
  5
23393
  8
0
 10
5567.814546189725661
 20
4.2928325899612529
 30
0.0
 40
0.01
 50
219.3102189275039962
 51
283.6817883906736029
  0
ARC
  5
23394
  8
0
 10
5567.1131515768302052
 20
4.4688632314084868
 30
0.0
 40
0.5999291622080009
 50
351.7865298348536953
 51
355.6258837903374115
  0
ARC
  5
23395
  8
0
 10
5567.6993682829815953
 20
4.4240227006058852
 30
0.0
 40
0.012
 50
355.6258837903350241
 51
60.6610020621247514
  0
ARC
  5
23396
  8
0
 10
5567.7168244953663816
 20
4.3817277602220708
 30
0.0
 40
0.01
 50
171.7865298348505974
 51
236.1018994420302022
  0
ARC
  5
23397
  8
0
 10
5567.4644507425437041
 20
4.0061290981189108
 30
0.0
 40
0.4425117303304364
 50
54.9623928405337523
 51
56.1018994419856014
  0
ARC
  5
23398
  8
0
 10
5568.0229807319419706
 20
3.845030662222388
 30
0.0
 40
0.5997920259891242
 50
115.4971824027498997
 51
119.333962303712994
  0
ARC
  5
23399
  8
0
 10
5567.769955832092819
 20
4.3755755386207102
 30
0.0
 40
0.012
 50
50.4121494915979582
 51
115.4971824027498002
  0
ARC
  5
2339A
  8
0
 10
5567.7242440523914411
 20
4.3766345666953788
 30
0.0
 40
0.01
 50
234.9623928405335107
 51
299.3339623037142019
  0
ARC
  5
2339B
  8
0
 10
5567.0013665556925844
 20
4.3569035125813818
 30
0.0
 40
0.5999291622080007
 50
7.4387037478980762
 51
11.2780577033816307
  0
ARC
  5
2339C
  8
0
 10
5567.5779425866066958
 20
4.4718851648158759
 30
0.0
 40
0.012
 50
11.2780577033792806
 51
76.3131759751360619
  0
ARC
  5
2339D
  8
0
 10
5567.6061625136353541
 20
4.4358682652905346
 30
0.0
 40
0.01
 50
187.4387037478948912
 51
251.754073355068499
  0
ARC
  5
2339E
  8
0
 10
5567.4644827704569252
 20
4.0061081968108061
 30
0.0
 40
0.4425117303304364
 50
70.6145667536087842
 51
71.7540733550681011
  0
ARC
  5
2339F
  8
0
 10
5568.0457647905941485
 20
4.001673315655391
 30
0.0
 40
0.5997920259891241
 50
131.1493563157613949
 51
134.986136216742608
  0
ARC
  5
233A0
  8
0
 10
5567.6589834457927282
 20
4.4442788478513933
 30
0.0
 40
0.012
 50
66.0643234046504801
 51
131.1493563157611959
  0
ARC
  5
233A1
  8
0
 10
5567.6146810605278006
 20
4.4329657137250669
 30
0.0
 40
0.01
 50
250.6145667536086989
 51
314.9861362167450807
  0
ARC
  5
233A2
  8
0
 10
5566.9239331970138664
 20
4.2189363260699064
 30
0.0
 40
0.5999291622080005
 50
23.0908776609335504
 51
26.9302316164292606
  0
ARC
  5
233A3
  8
0
 10
5567.4481065461359321
 20
4.4852124982013244
 30
0.0
 40
0.012
 50
26.9302316164274202
 51
91.9653498882114633
  0
ARC
  5
233A4
  8
0
 10
5567.4849972449183042
 20
4.4581448482059001
 30
0.0
 40
0.01
 50
203.0908776609308006
 51
267.4062472680986957
  0
ARC
  5
233A5
  8
0
 10
5567.4645192497919197
 20
4.0060967116072499
 30
0.0
 40
0.4425117303304363
 50
86.2667406666225958
 51
87.4062472680987952
  0
ARC
  5
233A6
  8
0
 10
5568.0254422724228789
 20
4.1586543000400091
 30
0.0
 40
0.599792025989124
 50
146.8015302288202122
 51
150.6383101297946894
  0
ARC
  5
233A7
  8
0
 10
5567.533590285608625
 20
4.4804944604962902
 30
0.0
 40
0.012
 50
81.7164973177056169
 51
146.8015302288197006
  0
ARC
  5
233A8
  8
0
 10
5567.4939830000248548
 20
4.4576482075729764
 30
0.0
 40
0.01
 50
266.2667406666225816
 51
330.6383101297985831
  0
LINE
  5
233A9
  8
0
 10
5566.9732835258555497
 20
4.0062351576488231
 30
0.0
 11
5566.9732835258555497
 21
2.905161982448822
 31
0.0
  0
LINE
  5
233AA
  8
0
 10
5566.9732835258555497
 20
2.8631619824488221
 30
0.0
 11
5566.9732835258555497
 21
1.5331619824488221
 31
0.0
  0
LINE
  5
233AB
  8
0
 10
5567.9558020554550239
 20
4.0062351576488231
 30
0.0
 11
5567.9558020554550239
 21
2.905161982448822
 31
0.0
  0
LINE
  5
233AC
  8
0
 10
5567.9558020554550239
 20
2.8631619824488221
 30
0.0
 11
5567.9558020554550239
 21
1.5331619824488221
 31
0.0
  0
LINE
  5
233AD
  8
0
 10
5566.9872835258556734
 20
2.8911619824488231
 30
0.0
 11
5567.9418020554558098
 21
2.8911619824488231
 31
0.0
  0
LINE
  5
233AE
  8
0
 10
5566.9932835258550767
 20
2.8831619824488222
 30
0.0
 11
5567.9358020554564064
 21
2.8831619824488222
 31
0.0
  0
ARC
  5
233AF
  8
0
 10
5566.9872835258556734
 20
2.9051619824488188
 30
0.0
 40
0.014
 50
179.9999999999890861
 51
270.0
  0
ARC
  5
233B0
  8
0
 10
5567.9418020554558098
 20
2.9051619824488188
 30
0.0
 40
0.014
 50
270.0
 51
0.0000000000108902
  0
ARC
  5
233B1
  8
0
 10
5566.9932835258550767
 20
2.8631619824488199
 30
0.0
 40
0.02
 50
90.0
 51
179.9999999999936051
  0
ARC
  5
233B2
  8
0
 10
5567.9358020554564064
 20
2.863161982448819
 30
0.0
 40
0.02
 50
0.0000000000101778
 51
90.0
  0
LINE
  5
233B3
  8
0
 10
5567.1145427906558325
 20
2.8911619824488231
 30
0.0
 11
5567.1145427906558325
 21
2.8831619824488222
 31
0.0
  0
LINE
  5
233B4
  8
0
 10
5567.8145427906556506
 20
2.8911619824488231
 30
0.0
 11
5567.8145427906556506
 21
2.8831619824488222
 31
0.0
  0
ARC
  5
233B5
  8
0
 10
5566.9532835258551131
 20
1.5331619824488261
 30
0.0
 40
0.02
 50
270.0
 51
359.9999999999885745
  0
ARC
  5
233B6
  8
0
 10
5567.97580205545637
 20
1.533161982448827
 30
0.0
 40
0.02
 50
180.0000000000152056
 51
270.0
  0
ENDSEC
  0
EOF
