  0
SECTION
  2
HEADER
  9
$ACADVER
  1
AC1009
  9
$INSBASE
 10
5784.6590050578470255
 20
-11.5748540039286603
 30
0.0
  9
$EXTMIN
 10
5777.2150918044862919
 20
-11.5803266632263604
 30
-0.0015258207003583
  9
$EXTMAX
 10
5792.2396622754749842
 20
-2.7992528886266679
 30
0.0000000349246037
  9
$LIMMIN
 10
0.0
 20
0.0
  9
$LIMMAX
 10
11.6929133858000007
 20
8.2677165353999982
  9
$ORTHOMODE
 70
     0
  9
$REGENMODE
 70
     1
  9
$FILLMODE
 70
     1
  9
$QTEXTMODE
 70
     0
  9
$MIRRTEXT
 70
     0
  9
$DRAGMODE
 70
     2
  9
$LTSCALE
 40
0.6431102362
  9
$OSMODE
 70
  4095
  9
$ATTMODE
 70
     1
  9
$TEXTSIZE
 40
0.2
  9
$TRACEWID
 40
0.05
  9
$TEXTSTYLE
  7
STANDARD
  9
$CLAYER
  8
0
  9
$CELTYPE
  6
BYLAYER
  9
$CECOLOR
 62
   256
  9
$DIMSCALE
 40
1.0
  9
$DIMASZ
 40
0.1875
  9
$DIMEXO
 40
0.0625
  9
$DIMDLI
 40
0.4443307087
  9
$DIMRND
 40
0.0
  9
$DIMDLE
 40
0.0
  9
$DIMEXE
 40
0.125
  9
$DIMTP
 40
0.01
  9
$DIMTM
 40
0.01
  9
$DIMTXT
 40
2.0
  9
$DIMCEN
 40
0.1052362205
  9
$DIMTSZ
 40
0.0
  9
$DIMTOL
 70
     1
  9
$DIMLIM
 70
     0
  9
$DIMTIH
 70
     1
  9
$DIMTOH
 70
     1
  9
$DIMSE1
 70
     0
  9
$DIMSE2
 70
     0
  9
$DIMTAD
 70
     0
  9
$DIMZIN
 70
     0
  9
$DIMBLK
  1

  9
$DIMASO
 70
     1
  9
$DIMSHO
 70
     1
  9
$DIMPOST
  1
\X
  9
$DIMAPOST
  1

  9
$DIMALT
 70
     1
  9
$DIMALTD
 70
     2
  9
$DIMALTF
 40
25.3999999999999986
  9
$DIMLFAC
 40
1.0
  9
$DIMTOFL
 70
     0
  9
$DIMTVP
 40
0.0
  9
$DIMTIX
 70
     0
  9
$DIMSOXD
 70
     0
  9
$DIMSAH
 70
     0
  9
$DIMBLK1
  1

  9
$DIMBLK2
  1

  9
$DIMSTYLE
  2
STANDARD
  9
$DIMCLRD
 70
     0
  9
$DIMCLRE
 70
     0
  9
$DIMCLRT
 70
     0
  9
$DIMTFAC
 40
1.0
  9
$DIMGAP
 40
0.09
  9
$LUNITS
 70
     2
  9
$LUPREC
 70
     4
  9
$SKETCHINC
 40
0.1
  9
$FILLETRAD
 40
0.0
  9
$AUNITS
 70
     0
  9
$AUPREC
 70
     0
  9
$MENU
  1
.
  9
$ELEVATION
 40
0.0
  9
$PELEVATION
 40
0.0
  9
$THICKNESS
 40
0.0
  9
$LIMCHECK
 70
     0
  9
$BLIPMODE
 70
     0
  9
$CHAMFERA
 40
0.0
  9
$CHAMFERB
 40
0.0
  9
$SKPOLY
 70
     0
  9
$TDCREATE
 40
2458060.468368056230247
  9
$TDUPDATE
 40
2460111.6812499999068677
  9
$TDINDWG
 40
0.6043820602
  9
$TDUSRTIMER
 40
0.6043820602
  9
$USRTIMER
 70
     1
  9
$ANGBASE
 50
0.0
  9
$ANGDIR
 70
     0
  9
$PDMODE
 70
     0
  9
$PDSIZE
 40
0.3125
  9
$PLINEWID
 40
0.0
  9
$COORDS
 70
     1
  9
$SPLFRAME
 70
     0
  9
$SPLINETYPE
 70
     6
  9
$SPLINESEGS
 70
     8
  9
$ATTDIA
 70
     1
  9
$ATTREQ
 70
     1
  9
$HANDLING
 70
     1
  9
$HANDSEED
  5
2507C
  9
$SURFTAB1
 70
     6
  9
$SURFTAB2
 70
     6
  9
$SURFTYPE
 70
     6
  9
$SURFU
 70
     6
  9
$SURFV
 70
     6
  9
$UCSNAME
  2

  9
$UCSORG
 10
0.0
 20
0.0
 30
0.0
  9
$UCSXDIR
 10
1.0
 20
0.0
 30
0.0
  9
$UCSYDIR
 10
0.0
 20
1.0
 30
0.0
  9
$PUCSNAME
  2

  9
$PUCSORG
 10
0.0
 20
0.0
 30
0.0
  9
$PUCSXDIR
 10
1.0
 20
0.0
 30
0.0
  9
$PUCSYDIR
 10
0.0
 20
1.0
 30
0.0
  9
$USERI1
 70
     0
  9
$USERI2
 70
     0
  9
$USERI3
 70
     0
  9
$USERI4
 70
     0
  9
$USERI5
 70
     0
  9
$USERR1
 40
0.0
  9
$USERR2
 40
0.0
  9
$USERR3
 40
0.0
  9
$USERR4
 40
0.0
  9
$USERR5
 40
0.0
  9
$WORLDVIEW
 70
     1
  9
$SHADEDGE
 70
     3
  9
$SHADEDIF
 70
    70
  9
$TILEMODE
 70
     1
  9
$MAXACTVP
 70
    64
  9
$PLIMCHECK
 70
     0
  9
$PEXTMIN
 10
1.0000000000000000E+20
 20
1.0000000000000000E+20
 30
1.0000000000000000E+20
  9
$PEXTMAX
 10
-1.0000000000000000E+20
 20
-1.0000000000000000E+20
 30
-1.0000000000000000E+20
  9
$PLIMMIN
 10
0.0
 20
0.0
  9
$PLIMMAX
 10
12.0
 20
9.0
  9
$UNITMODE
 70
     0
  9
$VISRETAIN
 70
     1
  9
$PLINEGEN
 70
     0
  9
$PSLTSCALE
 70
     1
  0
ENDSEC
  0
SECTION
  2
TABLES
  0
TABLE
  2
VPORT
 70
     1
  0
VPORT
  2
*ACTIVE
 70
     0
 10
0.0
 20
0.0
 11
1.0
 21
1.0
 12
1992.3694668837310928
 22
-127.370446209031897
 13
0.0
 23
0.0
 14
1.0
 24
1.0
 15
0.0
 25
0.0
 16
0.0
 26
0.0
 36
5.1040778033513332
 17
3792.35791015625
 27
120.1806564331053977
 37
0.0
 40
8.8598277994839663
 41
2.8398203592814371
 42
50.0
 43
0.0
 44
0.0
 50
0.0
 51
0.0
 71
     0
 72
   100
 73
     1
 74
     1
 75
     0
 76
     0
 77
     0
 78
     0
  0
ENDTAB
  0
TABLE
  2
LTYPE
 70
     2
  0
LTYPE
  2
CONTINUOUS
 70
     0
  3
Solid line
 72
    65
 73
     0
 40
0.0
  0
LTYPE
  2
PHANTOM2
 70
     0
  3
___ _ _ ___ _ _ ___ _ _ ___ _ _
 72
    65
 73
     6
 40
1.25
 49
0.625
 49
-0.125
 49
0.125
 49
-0.125
 49
0.125
 49
-0.125
  0
ENDTAB
  0
TABLE
  2
LAYER
 70
     2
  0
LAYER
  2
0
 70
     0
 62
   255
  6
CONTINUOUS
  0
LAYER
  2
DEFPOINTS
 70
     0
 62
     7
  6
CONTINUOUS
  0
ENDTAB
  0
TABLE
  2
STYLE
 70
     1
  0
STYLE
  2
STANDARD
 70
     0
 40
0.0
 41
0.8
 50
0.0
 71
     0
 42
0.2
  3
txt
  4

  0
ENDTAB
  0
TABLE
  2
VIEW
 70
     0
  0
ENDTAB
  0
TABLE
  2
UCS
 70
     0
  0
ENDTAB
  0
TABLE
  2
APPID
 70
     9
  0
APPID
  2
ACAD
 70
     0
  0
APPID
  2
ACAD_MLEADERVER
 70
     0
  0
APPID
  2
ACAD_EXEMPT_FROM_CAD_STANDARDS
 70
     0
  0
APPID
  2
ACAD_NAV_VCDISPLAY
 70
     0
  0
APPID
  2
ACAECLAYERSTANDARD
 70
     0
  0
APPID
  2
ACCMTRANSPARENCY
 70
     0
  0
APPID
  2
ACAD_DSTYLE_DIMJAG
 70
     0
  0
APPID
  2
ACAD_DSTYLE_DIMTALN
 70
     0
  0
APPID
  2
ACDBATTR
 70
     0
  0
ENDTAB
  0
TABLE
  2
DIMSTYLE
 70
     1
  0
DIMSTYLE
  2
STANDARD
 70
     0
  3

  4

  5

  6

  7

 40
1.0
 41
0.1875
 42
0.0625
 43
0.38
 44
0.125
 45
0.0
 46
0.0
 47
0.01
 48
0.01
140
0.15625
141
0.09
142
0.0
143
25.3999999999999986
144
1.0
145
0.0
146
1.0
147
0.09
 71
     1
 72
     0
 73
     1
 74
     1
 75
     0
 76
     0
 77
     0
 78
     4
170
     0
171
     2
172
     0
173
     0
174
     0
175
     0
176
     0
177
     0
178
     0
  0
ENDTAB
  0
ENDSEC
  0
SECTION
  2
BLOCKS
  0
BLOCK
  8
0
  2
$MODEL_SPACE
 70
     0
 10
0.0
 20
0.0
 30
0.0
  3
$MODEL_SPACE
  1

  0
ENDBLK
  5
21
  8
0
  0
BLOCK
 67
     1
  8
0
  2
$PAPER_SPACE
 70
     0
 10
0.0
 20
0.0
 30
0.0
  3
$PAPER_SPACE
  1

  0
ENDBLK
  5
1D
 67
     1
  8
0
  0
BLOCK
  8
0
  2
_FILLED
 70
     0
 10
0.0
 20
0.0
 30
0.0
  3
_FILLED
  1

  0
SOLID
  5
1D213
  8
0
  6
BYBLOCK
 62
     0
 10
0.0
 20
0.0
 30
0.0
 11
-1.0
 21
0.1666666667
 31
0.0
 12
-1.0
 22
-0.1666666667
 32
0.0
 13
-1.0
 23
-0.1666666667
 33
0.0
  0
ENDBLK
  5
1D214
  8
0
  6
BYBLOCK
 62
     0
  0
ENDSEC
  0
SECTION
  2
ENTITIES
  0
ATTDEF
  5
3930
  8
DEFPOINTS
 10
5784.659212861096421
 20
-11.5763876803772501
 30
0.0
 40
0.001
  1
P40882-SN
  3

  2
MODELNUMBER
 70
     0
1001
ACDBATTR
1070
     0
1070
     1
  0
ATTDEF
  5
3931
  8
DEFPOINTS
 10
5784.659212861096421
 20
-11.5780543470439206
 30
0.0
 40
0.001
  1
ONE
  3

  2
TRADENAME
 70
     0
1001
ACDBATTR
1070
     0
1070
     1
  0
ATTDEF
  5
3932
  8
DEFPOINTS
 10
5784.659212861096421
 20
-11.5797210137105804
 30
0.0
 40
0.001
  1
BATHROOM SINK FAUCET
  3

  2
PRODUCT
 70
     0
1001
ACDBATTR
1070
     0
1070
     1
  0
LINE
  5
2453D
  8
0
 10
5782.0140050578465889
 20
-11.0448540039286698
 30
0.0
 11
5779.3040050578483715
 21
-11.0448540039286698
 31
0.0
  0
LINE
  5
2453E
  8
0
 10
5786.0340050578479349
 20
-11.5748540039286603
 30
0.0
 11
5783.2840050578479349
 21
-11.5748540039286603
 31
0.0
  0
LINE
  5
2453F
  8
0
 10
5782.0340050578479349
 20
-11.5748540039286603
 30
0.0
 11
5779.2840050578479349
 21
-11.5748540039286603
 31
0.0
  0
LINE
  5
24540
  8
0
 10
5779.9320050578471637
 20
-8.0605215639286651
 30
0.0
 11
5777.2671210578491809
 21
-8.0605215639286651
 31
0.0
  0
LINE
  5
24541
  8
0
 10
5779.9320050578471637
 20
-9.043040093528667
 30
0.0
 11
5777.2671210578491809
 21
-9.043040093528667
 31
0.0
  0
ARC
  5
24542
  8
0
 10
5779.9320050578471637
 20
-9.0310400935286665
 30
0.0
 40
0.012
 50
270.0
 51
0.0
  0
LINE
  5
24543
  8
0
 10
5781.1360050578477967
 20
-9.6668540039286697
 30
0.0
 11
5780.1820050578489827
 21
-9.6668540039286697
 31
0.0
  0
ARC
  5
24544
  8
0
 10
5781.1360050578477967
 20
-9.6528540039286668
 30
0.0
 40
0.014
 50
270.0
 51
0.0
  0
LINE
  5
24545
  8
0
 10
5781.1300050578465743
 20
-9.6748540039286688
 30
0.0
 11
5780.1880050578483861
 21
-9.6748540039286688
 31
0.0
  0
LINE
  5
24546
  8
0
 10
5777.2551210578476457
 20
-8.0725215639286674
 30
0.0
 11
5777.2551210578476457
 21
-9.0310400935286665
 31
0.0
  0
ARC
  5
24547
  8
0
 10
5777.2671210578491809
 20
-8.0725215639286674
 30
0.0
 40
0.012
 50
90.0
 51
180.0
  0
ARC
  5
24548
  8
0
 10
5777.2671210578491809
 20
-9.0310400935286665
 30
0.0
 40
0.012
 50
180.0
 51
270.0
  0
LINE
  5
24549
  8
0
 10
5780.168005057848859
 20
-9.2670400935286672
 30
0.0
 11
5780.168005057848859
 21
-9.6528540039286668
 31
0.0
  0
ARC
  5
2454A
  8
0
 10
5779.9440050578477894
 20
-9.2670400935286672
 30
0.0
 40
0.224
 50
0.0
 51
86.6277133165691851
  0
LINE
  5
2454B
  8
0
 10
5780.168005057848859
 20
-9.6948540039286684
 30
0.0
 11
5780.168005057848859
 21
-11.0248540039286702
 31
0.0
  0
LINE
  5
2454C
  8
0
 10
5781.1500050578479204
 20
-9.2665215639286682
 30
0.0
 11
5781.1500050578479204
 21
-9.6528540039286668
 31
0.0
  0
ARC
  5
2454D
  8
0
 10
5779.9440050578477894
 20
-9.2665215639286682
 30
0.0
 40
1.2059999999999991
 50
0.0
 51
89.3270475200315701
  0
LINE
  5
2454E
  8
0
 10
5781.1500050578479204
 20
-9.6948540039286684
 30
0.0
 11
5781.1500050578479204
 21
-11.0248540039286702
 31
0.0
  0
LINE
  5
2454F
  8
0
 10
5779.2840050578479349
 20
-11.0648540039286605
 30
0.0
 11
5779.2840050578479349
 21
-11.5748540039286603
 31
0.0
  0
ARC
  5
24550
  8
0
 10
5779.3040050578483715
 20
-11.0648540039286694
 30
0.0
 40
0.02
 50
90.0
 51
180.0000000000005969
  0
ARC
  5
24551
  8
0
 10
5780.1480050578466034
 20
-11.0248540039286702
 30
0.0
 40
0.02
 50
270.0
 51
0.0
  0
ARC
  5
24552
  8
0
 10
5781.1700050578474475
 20
-11.0248540039286702
 30
0.0
 40
0.02
 50
180.0
 51
270.0
  0
LINE
  5
24553
  8
0
 10
5782.0340050578479349
 20
-11.0648540039286605
 30
0.0
 11
5782.0340050578479349
 21
-11.5748540039286603
 31
0.0
  0
ARC
  5
24554
  8
0
 10
5782.0140050578465889
 20
-11.0648540039286694
 30
0.0
 40
0.02
 50
359.9999999999993747
 51
90.0
  0
ARC
  5
24555
  8
0
 10
5781.1300050578465743
 20
-9.6948540039286684
 30
0.0
 40
0.02
 50
0.0
 51
90.0
  0
ARC
  5
24556
  8
0
 10
5780.1880050578483861
 20
-9.6948540039286684
 30
0.0
 40
0.02
 50
90.0
 51
180.0000000000011937
  0
ARC
  5
24557
  8
0
 10
5780.1820050578489827
 20
-9.6528540039286668
 30
0.0
 40
0.014
 50
180.0000000000017906
 51
270.0
  0
LINE
  5
24558
  8
0
 10
5780.3090050578475712
 20
-9.6668540039286697
 30
0.0
 11
5780.3090050578475712
 21
-9.6748540039286688
 31
0.0
  0
LINE
  5
24559
  8
0
 10
5781.0090050578473893
 20
-9.6668540039286697
 30
0.0
 11
5781.0090050578473893
 21
-9.6748540039286688
 31
0.0
  0
LINE
  5
2455A
  8
0
 10
5779.9440050578477894
 20
-8.0725215639286674
 30
0.0
 11
5779.9440050578477894
 21
-9.0310400935286665
 31
0.0
  0
ARC
  5
2455B
  8
0
 10
5779.9320050578471637
 20
-8.0725215639286674
 30
0.0
 40
0.012
 50
0.0
 51
90.0
  0
ARC
  5
2455C
  8
0
 10
5779.9580050578479131
 20
-8.0746037815292304
 30
0.0
 40
0.014
 50
89.3270475200315843
 51
179.9999999999926104
  0
ARC
  5
2455D
  8
0
 10
5779.9580050578479131
 20
-9.0294522150499859
 30
0.0
 40
0.014
 50
180.0000000000036096
 51
266.6277133165692135
  0
LINE
  5
2455E
  8
0
 10
5783.2840050578479349
 20
-11.0648540039286605
 30
0.0
 11
5783.2840050578479349
 21
-11.5748540039286603
 31
0.0
  0
LINE
  5
2455F
  8
0
 10
5783.2940050578481532
 20
-11.0548540039286696
 30
0.0
 11
5786.0240050578468072
 21
-11.0548540039286696
 31
0.0
  0
ARC
  5
24560
  8
0
 10
5783.2940050578481532
 20
-11.0648540039286694
 30
0.0
 40
0.01
 50
90.0
 51
179.9999999999988063
  0
LINE
  5
24561
  8
0
 10
5784.1290050578490991
 20
-11.0548540039286696
 30
0.0
 11
5784.1290050578490991
 21
-3.3298540039286659
 31
0.0
  0
ARC
  5
24562
  8
0
 10
5784.6590050578470255
 20
-3.3298540039286659
 30
0.0
 40
0.5299999999999994
 50
0.0
 51
180.0
  0
ARC
  5
24563
  8
0
 10
5784.6909168465617768
 20
-15.5637491160194799
 30
0.0
 40
10.4981993379680603
 50
90.1741644988006215
 51
92.0802975119224953
  0
ARC
  5
24564
  8
0
 10
5784.4176897583629398
 20
-7.5921007356396402
 30
0.0
 40
2.52193946098518
 50
92.4511715928274498
 51
95.2779702450709607
  0
ARC
  5
24565
  8
0
 10
5784.2227257134873071
 20
-5.4816299260399921
 30
0.0
 40
0.4024824510491733
 50
95.2779702450709607
 51
101.9414067210401953
  0
ARC
  5
24566
  8
0
 10
5784.1461530967198996
 20
-5.1195638189569648
 30
0.0
 40
0.0324078213639349
 50
101.9414067209892067
 51
117.3717598613825004
  0
ARC
  5
24567
  8
0
 10
5784.1337559617159059
 20
-5.095618441804759
 30
0.0
 40
0.0054435849893337
 50
117.3717598613823014
 51
150.7801219912331021
  0
ARC
  5
24568
  8
0
 10
5784.1413202999192436
 20
-5.093035299698073
 30
0.0
 40
0.0123597215759055
 50
184.8623205849872875
 51
228.3518340370249859
  0
ARC
  5
24569
  8
0
 10
5784.1481772565821302
 20
-5.0844081823949621
 30
0.0
 40
0.0233710147087004
 50
229.8459938675366914
 51
251.9972293528080058
  0
ARC
  5
2456A
  8
0
 10
5784.170202874165625
 20
-5.0206672383301116
 30
0.0
 40
0.0908071722882658
 50
251.2101997023542879
 51
258.9566214962719073
  0
ARC
  5
2456B
  8
0
 10
5784.2425777089174517
 20
-4.6229161369656628
 30
0.0
 40
0.4950832910768093
 50
259.5532692272224722
 51
264.9781398067281089
  0
ARC
  5
2456C
  8
0
 10
5784.3751832331327023
 20
-3.246273919518941
 30
0.0
 40
1.8780845937262189
 50
264.6245244280474935
 51
266.7590197488407853
  0
ARC
  5
2456D
  8
0
 10
5784.5031280770263038
 20
-1.080982177798574
 30
0.0
 40
4.0471500735582477
 50
266.6836460114947727
 51
267.8683428850238784
  0
ARC
  5
2456E
  8
0
 10
5784.5578361510870309
 20
0.2621675194606894
 30
0.0
 40
5.3914072756521483
 50
267.8182820183823765
 51
267.9250740093049785
  0
ARC
  5
2456F
  8
0
 10
5784.5849231615748067
 20
1.0098052043856141
 30
0.0
 40
6.1395354826173856
 50
267.9250740093049785
 51
268.5994218104714264
  0
ARC
  5
24570
  8
0
 10
5784.6376445114201488
 20
3.0597092257932061
 30
0.0
 40
8.1901161235987132
 50
268.5812238463844892
 51
269.2087733806952201
  0
ARC
  5
24571
  8
0
 10
5791.3574030024929016
 20
978.258981300905134
 30
0.0
 40
983.412345275800476
 50
269.6018994628938117
 51
269.6097334945068269
  0
ARC
  5
24572
  8
0
 10
5785.0105944384113172
 20
-50.6159760944856814
 30
0.0
 40
45.5412253578144828
 50
90.4423418031553012
 51
90.678673558294463
  0
ARC
  5
24573
  8
0
 10
5784.6060923276636458
 20
-11.8151066050886406
 30
0.0
 40
6.738511986480237
 50
91.1473090250385383
 51
92.3728403018969431
  0
ARC
  5
24574
  8
0
 10
5784.4400684151496534
 20
-7.8085029798424372
 30
0.0
 40
2.728470022938891
 50
92.3728403018969431
 51
95.1887566164802621
  0
ARC
  5
24575
  8
0
 10
5784.2245960201398702
 20
-5.4357013177736064
 30
0.0
 40
0.3459050016795884
 50
95.1887566164802621
 51
103.0686933142180948
  0
ARC
  5
24576
  8
0
 10
5784.150288218535934
 20
-5.1155903305317869
 30
0.0
 40
0.0172825838013184
 50
103.0686933142180948
 51
128.0251385537825115
  0
ARC
  5
24577
  8
0
 10
5784.1406668718273067
 20
-5.1032866991067962
 30
0.0
 40
0.0016636959177681
 50
128.0251385537885938
 51
194.1928274578187938
  0
ARC
  5
24578
  8
0
 10
5784.1447263099180418
 20
-5.1002538935367951
 30
0.0
 40
0.0066343144937199
 50
211.2400562888622915
 51
252.9608019211896135
  0
ARC
  5
24579
  8
0
 10
5784.1737316241888038
 20
-5.024604561316095
 30
0.0
 40
0.0876391480333055
 50
249.3201923233445996
 51
257.2360898764349031
  0
ARC
  5
2457A
  8
0
 10
5784.8857070996818948
 20
-27.6183887094671583
 30
0.0
 40
22.5411965227360405
 50
90.5762466588895592
 51
91.2544226830062541
  0
ARC
  5
2457B
  8
0
 10
5784.5091950222386004
 20
-8.6057741854813141
 30
0.0
 40
3.5251206586121722
 50
91.9013835652920932
 51
93.6743698739408615
  0
ARC
  5
2457C
  8
0
 10
5784.3317582386816866
 20
-5.9696358719124873
 30
0.0
 40
0.88306748261313
 50
93.1466888393147343
 51
98.6176009443542512
  0
ARC
  5
2457D
  8
0
 10
5784.2140882652747678
 20
-5.1834842124353946
 30
0.0
 40
0.0881716035368683
 50
99.5629470083581651
 51
108.189795562197105
  0
ARC
  5
2457E
  8
0
 10
5784.190359433163394
 20
-5.1124961961252628
 30
0.0
 40
0.0133292005328796
 50
106.5431447958419966
 51
127.1375896475882001
  0
ARC
  5
2457F
  8
0
 10
5784.1835731154496898
 20
-5.1035210210169017
 30
0.0
 40
0.0020772051824999
 50
127.3753955023372981
 51
174.5198240497603877
  0
ARC
  5
24580
  8
0
 10
5784.1836332879693146
 20
-5.1031014020845902
 30
0.0
 40
0.0021393541864322
 50
185.9359022104247003
 51
234.2646715780221029
  0
ARC
  5
24581
  8
0
 10
5784.2141904821382923
 20
-5.0338399434342591
 30
0.0
 40
0.0777970647441128
 50
245.8679213349284964
 51
263.6676305547716765
  0
ARC
  5
24582
  8
0
 10
5784.3310038305280614
 20
-4.2160003357757736
 30
0.0
 40
0.9039019317949705
 50
262.0259100964053118
 51
266.3699537274317208
  0
ARC
  5
24583
  8
0
 10
5784.5480508100117731
 20
-0.880846185642099
 30
0.0
 40
4.2461102247603906
 50
266.2964136313237873
 51
268.8283536026376055
  0
ARC
  5
24584
  8
0
 10
5784.7083957065233335
 20
7.9392428809219524
 30
0.0
 40
13.06764927129462
 50
268.9162149122877281
 51
269.7834436480931117
  0
LINE
  5
24585
  8
0
 10
5784.541141834048176
 20
-5.1231981771286712
 30
0.0
 11
5784.541141834048176
 21
-5.079825857006373
 31
0.0
  0
LINE
  5
24586
  8
0
 10
5784.541141834048176
 20
-5.1231981771286668
 30
0.0
 11
5784.5184441040082675
 21
-5.1270257473540184
 31
0.0
  0
LINE
  5
24587
  8
0
 10
5784.3382634562476596
 20
-5.085168055376097
 30
0.0
 11
5784.3382634562476596
 21
-5.1214864190183809
 31
0.0
  0
LINE
  5
24588
  8
0
 10
5784.3382634562476596
 20
-5.085168055376097
 30
0.0
 11
5784.391304853944348
 21
-5.0826253714239762
 31
0.0
  0
LINE
  5
24589
  8
0
 10
5784.3382634562476596
 20
-5.1214864190183809
 30
0.0
 11
5784.4041859646085868
 21
-5.1245185277382417
 31
0.0
  0
LINE
  5
2458A
  8
0
 10
5784.3890475431480809
 20
-5.0880427952391996
 30
0.0
 11
5784.3890475431480809
 21
-5.1186024689286667
 31
0.0
  0
LINE
  5
2458B
  8
0
 10
5784.3890475431480809
 20
-5.0880427952391996
 30
0.0
 11
5784.3382634562476596
 21
-5.085168055376097
 31
0.0
  0
LINE
  5
2458C
  8
0
 10
5784.541141834048176
 20
-5.0834470870280546
 30
0.0
 11
5784.3890475431480809
 21
-5.0880427952391996
 31
0.0
  0
LINE
  5
2458D
  8
0
 10
5784.5411418340436285
 20
-5.083447087028147
 30
0.0
 11
5784.5214992359751704
 21
-5.0801347107959058
 31
0.0
  0
LINE
  5
2458E
  8
0
 10
5784.3890475431480809
 20
-5.1186024689286667
 30
0.0
 11
5784.541141834048176
 21
-5.1231981771286668
 31
0.0
  0
LINE
  5
2458F
  8
0
 10
5784.3382634562476596
 20
-5.1214864190183809
 30
0.0
 11
5784.3890475431480809
 21
-5.1186024689286667
 31
0.0
  0
LINE
  5
24590
  8
0
 10
5784.2711412586822917
 20
-5.0886513314213602
 30
0.0
 11
5784.2713695483480478
 21
-5.1079161453506181
 31
0.0
  0
LINE
  5
24591
  8
0
 10
5784.2713695483480478
 20
-5.1079161453506181
 30
0.0
 11
5784.1982279429475966
 21
-5.1087828795286683
 31
0.0
  0
ARC
  5
24592
  8
0
 10
5784.2047215326556397
 20
-5.1336244754446261
 30
0.0
 40
0.0363468546048869
 50
100.2914950866564965
 51
116.7413924429406933
  0
ARC
  5
24593
  8
0
 10
5784.1899741829456616
 20
-5.1043553305663352
 30
0.0
 40
0.0035723650533784
 50
116.7413924429419012
 51
162.6631409433987869
  0
ARC
  5
24594
  8
0
 10
5784.1906249251542249
 20
-5.1019244114595921
 30
0.0
 40
0.0042845334723553
 50
198.5972021191753925
 51
253.620736213424891
  0
ARC
  5
24595
  8
0
 10
5784.208131692805182
 20
-5.0615241454600302
 30
0.0
 40
0.0482853208232813
 50
247.1952797704736042
 51
258.1641249856130003
  0
LINE
  5
24596
  8
0
 10
5784.1982279429475966
 20
-5.0978623847286668
 30
0.0
 11
5784.2712606660206802
 21
-5.0987278286419944
 31
0.0
  0
LINE
  5
24597
  8
0
 10
5784.1982279429475966
 20
-5.0978623847286668
 30
0.0
 11
5784.1982279429475966
 21
-5.0967508172178659
 31
0.0
  0
LINE
  5
24598
  8
0
 10
5784.1865641129479627
 20
-5.1032908050003369
 30
0.0
 11
5784.1865641129479627
 21
-5.0997187499286047
 31
0.0
  0
LINE
  5
24599
  8
0
 10
5786.0340050578479349
 20
-11.0648540039286605
 30
0.0
 11
5786.0340050578479349
 21
-11.5748540039286603
 31
0.0
  0
ARC
  5
2459A
  8
0
 10
5786.0240050578468072
 20
-11.0648540039286694
 30
0.0
 40
0.01
 50
0.0000000000012213
 51
90.0
  0
LINE
  5
2459B
  8
0
 10
5785.1890050578476803
 20
-11.0548540039286696
 30
0.0
 11
5785.1890050578476803
 21
-3.3298540039286659
 31
0.0
  0
ARC
  5
2459C
  8
0
 10
5784.6270932691340931
 20
-15.5637491160194799
 30
0.0
 40
10.4981993379680603
 50
87.9197024880775047
 51
89.8258355011993785
  0
ARC
  5
2459D
  8
0
 10
5784.9003203573320206
 20
-7.5921007356396402
 30
0.0
 40
2.52193946098518
 50
84.7220297549290251
 51
87.5488284071725644
  0
ARC
  5
2459E
  8
0
 10
5785.0952844022085628
 20
-5.4816299260399921
 30
0.0
 40
0.4024824510491733
 50
78.0585932789597763
 51
84.7220297549290251
  0
ARC
  5
2459F
  8
0
 10
5785.1718570189750608
 20
-5.1195638189569648
 30
0.0
 40
0.0324078213639349
 50
62.628240138617457
 51
78.0585932789597763
  0
ARC
  5
245A0
  8
0
 10
5785.184254153978145
 20
-5.095618441804759
 30
0.0
 40
0.0054435849893337
 50
29.2198780087668695
 51
62.628240138617663
  0
ARC
  5
245A1
  8
0
 10
5785.1766898157766263
 20
-5.093035299698073
 30
0.0
 40
0.0123597215759055
 50
311.6481659629749856
 51
355.1376794150124283
  0
ARC
  5
245A2
  8
0
 10
5785.1698328591119207
 20
-5.0844081823949621
 30
0.0
 40
0.0233710147087004
 50
288.0027706471919942
 51
310.1540061324632802
  0
ARC
  5
245A3
  8
0
 10
5785.1478072415284259
 20
-5.0206672383301116
 30
0.0
 40
0.0908071722882658
 50
281.0433785037280927
 51
288.7898002976456269
  0
ARC
  5
245A4
  8
0
 10
5785.0754324067793277
 20
-4.6229161369656628
 30
0.0
 40
0.4950832910768093
 50
275.0218601932718911
 51
280.4467307727774141
  0
ARC
  5
245A5
  8
0
 10
5784.9428268825631676
 20
-3.246273919518941
 30
0.0
 40
1.8780845937262189
 50
273.2409802511592147
 51
275.3754755719525065
  0
ARC
  5
245A6
  8
0
 10
5784.8148820386695661
 20
-1.080982177798574
 30
0.0
 40
4.0471500735582477
 50
272.1316571149761216
 51
273.3163539885052273
  0
ARC
  5
245A7
  8
0
 10
5784.7601739646079295
 20
0.2621675194606894
 30
0.0
 40
5.3914072756521483
 50
272.0749259906950215
 51
272.1817179816176235
  0
ARC
  5
245A8
  8
0
 10
5784.7330869541210632
 20
1.0098052043856141
 30
0.0
 40
6.1395354826173856
 50
271.4005781895285736
 51
272.0749259906950215
  0
ARC
  5
245A9
  8
0
 10
5784.6803656042766306
 20
3.0597092257932061
 30
0.0
 40
8.1901161235987132
 50
270.7912266193047799
 51
271.4187761536155108
  0
ARC
  5
245AA
  8
0
 10
5777.9606071132029683
 20
978.258981300905134
 30
0.0
 40
983.412345275800476
 50
270.3902665054931731
 51
270.3981005371061883
  0
ARC
  5
245AB
  8
0
 10
5784.3074156772836432
 20
-50.6159760944856814
 30
0.0
 40
45.5412253578144828
 50
89.3213264417055228
 51
89.557658196844713
  0
ARC
  5
245AC
  8
0
 10
5784.7119177880313146
 20
-11.8151066050886406
 30
0.0
 40
6.738511986480237
 50
87.6271596981030854
 51
88.8526909749614759
  0
ARC
  5
245AD
  8
0
 10
5784.877941700545307
 20
-7.8085029798424372
 30
0.0
 40
2.728470022938891
 50
84.8112433835197237
 51
87.6271596981030854
  0
ARC
  5
245AE
  8
0
 10
5785.0934140955550902
 20
-5.4357013177736064
 30
0.0
 40
0.3459050016795884
 50
76.931306685781891
 51
84.8112433835197237
  0
ARC
  5
245AF
  8
0
 10
5785.1677218971599359
 20
-5.1155903305317869
 30
0.0
 40
0.0172825838013184
 50
51.9748614462174388
 51
76.931306685781891
  0
ARC
  5
245B0
  8
0
 10
5785.1773432438676537
 20
-5.1032866991067962
 30
0.0
 40
0.0016636959177681
 50
345.8071725421810925
 51
51.9748614462114134
  0
ARC
  5
245B1
  8
0
 10
5785.1732838057778281
 20
-5.1002538935367951
 30
0.0
 40
0.0066343144937199
 50
287.0391980788102728
 51
328.7599437111376233
  0
ARC
  5
245B2
  8
0
 10
5785.1442784915070661
 20
-5.024604561316095
 30
0.0
 40
0.0876391480333055
 50
282.7639101235650969
 51
290.6798076766554004
  0
ARC
  5
245B3
  8
0
 10
5784.4323030160130656
 20
-27.6183887094671583
 30
0.0
 40
22.5411965227360405
 50
88.7455773169937459
 51
89.4237533411104408
  0
ARC
  5
245B4
  8
0
 10
5784.8088150934572695
 20
-8.6057741854813141
 30
0.0
 40
3.5251206586121722
 50
86.3256301260591243
 51
88.0986164347078926
  0
ARC
  5
245B5
  8
0
 10
5784.9862518770132738
 20
-5.9696358719124873
 30
0.0
 40
0.88306748261313
 50
81.3823990556457346
 51
86.8533111606852941
  0
ARC
  5
245B6
  8
0
 10
5785.1039218504211021
 20
-5.1834842124353946
 30
0.0
 40
0.0881716035368683
 50
71.810204437802895
 51
80.4370529916418491
  0
ARC
  5
245B7
  8
0
 10
5785.1276506825315664
 20
-5.1124961961252628
 30
0.0
 40
0.0133292005328796
 50
52.862410352411807
 51
73.4568552041580034
  0
ARC
  5
245B8
  8
0
 10
5785.1344370002452706
 20
-5.1035210210169017
 30
0.0
 40
0.0020772051824999
 50
5.4801759502395724
 51
52.6246044976626592
  0
ARC
  5
245B9
  8
0
 10
5785.1343768277265553
 20
-5.1031014020845902
 30
0.0
 40
0.0021393541864322
 50
305.7353284219777834
 51
354.064097789574987
  0
ARC
  5
245BA
  8
0
 10
5785.1038196335575776
 20
-5.0338399434342591
 30
0.0
 40
0.0777970647441128
 50
276.3323694452283235
 51
294.1320786650715036
  0
ARC
  5
245BB
  8
0
 10
5784.9870062851678085
 20
-4.2160003357757736
 30
0.0
 40
0.9039019317949705
 50
273.6300462725682792
 51
277.9740899035946882
  0
ARC
  5
245BC
  8
0
 10
5784.7699593056840968
 20
-0.880846185642099
 30
0.0
 40
4.2461102247603906
 50
271.1716463973623945
 51
273.7035863686762127
  0
ARC
  5
245BD
  8
0
 10
5784.6096144091716269
 20
7.9392428809219524
 30
0.0
 40
13.06764927129462
 50
270.216556351907002
 51
271.0837850877122719
  0
LINE
  5
245BE
  8
0
 10
5784.7768682816476939
 20
-5.1231981771286712
 30
0.0
 11
5784.7768682816476939
 21
-5.079825857006373
 31
0.0
  0
LINE
  5
245BF
  8
0
 10
5784.7768682816476939
 20
-5.1231981771286668
 30
0.0
 11
5784.7995660116876024
 21
-5.1270257473540184
 31
0.0
  0
LINE
  5
245C0
  8
0
 10
5784.9797466594482103
 20
-5.085168055376097
 30
0.0
 11
5784.9797466594482103
 21
-5.1214864190183809
 31
0.0
  0
LINE
  5
245C1
  8
0
 10
5784.9797466594482103
 20
-5.085168055376097
 30
0.0
 11
5784.9267052617533409
 21
-5.0826253714239762
 31
0.0
  0
LINE
  5
245C2
  8
0
 10
5784.9797466594482103
 20
-5.1214864190183809
 30
0.0
 11
5784.9138241510872831
 21
-5.1245185277382417
 31
0.0
  0
LINE
  5
245C3
  8
0
 10
5784.9289625725468795
 20
-5.0880427952391996
 30
0.0
 11
5784.9289625725468795
 21
-5.1186024689286667
 31
0.0
  0
LINE
  5
245C4
  8
0
 10
5784.9289625725468795
 20
-5.0880427952391996
 30
0.0
 11
5784.9797466594482103
 21
-5.085168055376097
 31
0.0
  0
LINE
  5
245C5
  8
0
 10
5784.7768682816476939
 20
-5.0834470870280546
 30
0.0
 11
5784.9289625725468795
 21
-5.0880427952391996
 31
0.0
  0
LINE
  5
245C6
  8
0
 10
5784.7768682816513319
 20
-5.083447087028147
 30
0.0
 11
5784.7965108797206994
 21
-5.0801347107959058
 31
0.0
  0
LINE
  5
245C7
  8
0
 10
5784.9289625725468795
 20
-5.1186024689286667
 30
0.0
 11
5784.7768682816476939
 21
-5.1231981771286668
 31
0.0
  0
LINE
  5
245C8
  8
0
 10
5784.9797466594482103
 20
-5.1214864190183809
 30
0.0
 11
5784.9289625725468795
 21
-5.1186024689286667
 31
0.0
  0
LINE
  5
245C9
  8
0
 10
5785.0468688570135782
 20
-5.0886513314213602
 30
0.0
 11
5785.0466405673469126
 21
-5.1079161453506181
 31
0.0
  0
LINE
  5
245CA
  8
0
 10
5785.0466405673469126
 20
-5.1079161453506181
 30
0.0
 11
5785.1197821727482733
 21
-5.1087828795286683
 31
0.0
  0
ARC
  5
245CB
  8
0
 10
5785.1132885830402302
 20
-5.1336244754446261
 30
0.0
 40
0.0363468546048869
 50
63.2586075570592783
 51
79.7085049133434751
  0
ARC
  5
245CC
  8
0
 10
5785.1280359327502083
 20
-5.1043553305663352
 30
0.0
 40
0.0035723650533784
 50
17.3368590566012308
 51
63.2586075570580917
  0
ARC
  5
245CD
  8
0
 10
5785.127385190541645
 20
-5.1019244114595921
 30
0.0
 40
0.0042845334723553
 50
286.379263786575109
 51
341.4027978808244939
  0
ARC
  5
245CE
  8
0
 10
5785.1098784228906879
 20
-5.0615241454600302
 30
0.0
 40
0.0482853208232813
 50
281.8358750143869997
 51
292.8047202295264242
  0
LINE
  5
245CF
  8
0
 10
5785.1197821727482733
 20
-5.0978623847286668
 30
0.0
 11
5785.0467494496733707
 21
-5.0987278286419944
 31
0.0
  0
LINE
  5
245D0
  8
0
 10
5785.1197821727482733
 20
-5.0978623847286668
 30
0.0
 11
5785.1197821727482733
 21
-5.0967508172178659
 31
0.0
  0
LINE
  5
245D1
  8
0
 10
5785.1314460027479072
 20
-5.1032908050003369
 30
0.0
 11
5785.1314460027479072
 21
-5.0997187499286047
 31
0.0
  0
ARC
  5
245D2
  8
0
 10
5779.1760717505803768
 20
-12.1102529998604407
 30
0.0
 40
4.0429040300050421
 50
79.1675651275666468
 51
89.830695077455843
  0
ARC
  5
245D3
  8
0
 10
5779.9340050578475712
 20
-8.1492112155611736
 30
0.0
 40
0.01
 50
0.0
 51
79.1675651275666752
  0
ARC
  5
245D4
  8
0
 10
5779.2520340451683296
 20
-13.0267039179317603
 30
0.0
 40
4.9676789655620937
 50
82.0934067831039442
 51
88.5935433989361769
  0
ARC
  5
245D5
  8
0
 10
5779.9340050578475712
 20
-8.1161544310166462
 30
0.0
 40
0.01
 50
0.0
 51
82.0934067831038732
  0
ARC
  5
245D6
  8
0
 10
5779.5901229957125906
 20
-11.84037162171545
 30
0.0
 40
3.7798811563119998
 50
84.7663024814600732
 51
89.7675825390919471
  0
ARC
  5
245D7
  8
0
 10
5779.9340050578475712
 20
-8.0862073924816702
 30
0.0
 40
0.01
 50
0.0
 51
84.7663024814600732
  0
ARC
  5
245D8
  8
0
 10
5780.2041877457595547
 20
-0.5224983327619235
 30
0.0
 40
7.5495986858796229
 50
266.8267796333797151
 51
267.9517926883542032
  0
ARC
  5
245D9
  8
0
 10
5779.9340050578475712
 20
-8.0772672641525691
 30
0.0
 40
0.01
 50
0.0
 51
87.9517926884063002
  0
ARC
  5
245DA
  8
0
 10
5778.7762914845689011
 20
-13.4276343659172195
 30
0.0
 40
5.3766001430769581
 50
77.5418939905696618
 51
85.274275044732363
  0
ARC
  5
245DB
  8
0
 10
5779.9340050578475712
 20
-8.1873961673312579
 30
0.0
 40
0.01
 50
0.0
 51
77.5418939905697471
  0
ARC
  5
245DC
  8
0
 10
5778.7154623019887367
 20
-12.7570117003771806
 30
0.0
 40
4.6951838808000002
 50
74.9905251207169101
 51
85.3198714017229634
  0
ARC
  5
245DD
  8
0
 10
5779.9340050578475712
 20
-8.2123545181152409
 30
0.0
 40
0.01
 50
254.9905251207169954
 51
0.0
  0
ARC
  5
245DE
  8
0
 10
5777.9085182255339532
 20
-15.5703431498771199
 30
0.0
 40
7.5711902750183313
 50
74.461884537592212
 51
81.0293509476452272
  0
ARC
  5
245DF
  8
0
 10
5779.9340050578475712
 20
-8.2854957618288267
 30
0.0
 40
0.01
 50
0.0000000000024427
 51
74.4618845375920557
  0
ARC
  5
245E0
  8
0
 10
5778.0459075638163995
 20
-14.0986802988649291
 30
0.0
 40
6.0690390167129351
 50
71.9051228639217896
 51
80.0177680948440724
  0
ARC
  5
245E1
  8
0
 10
5779.9340050578475712
 20
-8.3202892408150682
 30
0.0
 40
0.01
 50
251.9051228639220881
 51
359.9999999999973284
  0
ARC
  5
245E2
  8
0
 10
5777.7768638712859683
 20
-15.4123395192697892
 30
0.0
 40
7.3717773619011924
 50
73.0087788938871114
 51
79.6453093197964819
  0
ARC
  5
245E3
  8
0
 10
5779.9340050578475712
 20
-8.3527801192849296
 30
0.0
 40
0.01
 50
253.0087788938870972
 51
0.0
  0
ARC
  5
245E4
  8
0
 10
5776.0784635987820366
 20
-20.6042135678309002
 30
0.0
 40
12.8056260544552494
 50
72.4632691586384112
 51
76.4408245084906781
  0
ARC
  5
245E5
  8
0
 10
5779.9340050578475712
 20
-8.4032772847878618
 30
0.0
 40
0.01
 50
0.0
 51
72.4632691586375586
  0
ARC
  5
245E6
  8
0
 10
5776.7404513685742131
 20
-34.0992966816960035
 30
0.0
 40
26.0214568254180811
 50
84.7974375665719577
 51
88.844224763802913
  0
ARC
  5
245E7
  8
0
 10
5777.265121057847864
 20
-8.0931318760629765
 30
0.0
 40
0.01
 50
88.844224763802913
 51
180.0
  0
ARC
  5
245E8
  8
0
 10
5779.0990953330865523
 20
-8.1949981034821064
 30
0.0
 40
0.01
 50
75.7009730709003748
 51
84.7974375665719577
  0
ARC
  5
245E9
  8
0
 10
5776.9402971214631179
 20
-16.6649018922934182
 30
0.0
 40
8.7506910430599731
 50
70.0182675803632435
 51
75.7009730709003748
  0
ARC
  5
245EA
  8
0
 10
5779.9340050578475712
 20
-8.431590265518885
 30
0.0
 40
0.01
 50
250.0182675803633003
 51
359.9999999999973284
  0
ARC
  5
245EB
  8
0
 10
5776.5039741074979247
 20
-43.989922074309483
 30
0.0
 40
35.9270803711498417
 50
85.889703064150126
 51
88.7857094106837934
  0
ARC
  5
245EC
  8
0
 10
5777.265121057847864
 20
-8.0809076391065844
 30
0.0
 40
0.01
 50
88.7857094106837934
 51
180.0
  0
ARC
  5
245ED
  8
0
 10
5779.078391854702204
 20
-8.1652233923873254
 30
0.0
 40
0.01
 50
76.4408245084908202
 51
85.8897030642021804
  0
ARC
  5
245EE
  8
0
 10
5777.0562072680422716
 20
-46.5419332587757495
 30
0.0
 40
38.4744162833175594
 50
87.6499447630111206
 51
89.6888049151112057
  0
ARC
  5
245EF
  8
0
 10
5777.265121057847864
 20
-8.0780843218223168
 30
0.0
 40
0.01
 50
89.6888049151112057
 51
180.0
  0
ARC
  5
245F0
  8
0
 10
5776.8765862758464209
 20
-50.9187464982509894
 30
0.0
 40
42.8549137247143079
 50
87.0304211891479014
 51
87.6499447630111206
  0
ARC
  5
245F1
  8
0
 10
5779.0961981636010023
 20
-8.1313657050083741
 30
0.0
 40
0.01
 50
80.017768094844044
 51
87.0304211890958186
  0
ARC
  5
245F2
  8
0
 10
5777.4622589218815847
 20
-49.5187814639058672
 30
0.0
 40
41.459019246023999
 50
87.7527897927212166
 51
89.6532243062944048
  0
ARC
  5
245F3
  8
0
 10
5779.0875231378831813
 20
-8.1016387246311474
 30
0.0
 40
0.01
 50
81.0293509476451419
 51
87.7527897927211882
  0
ARC
  5
245F4
  8
0
 10
5778.2267830725495514
 20
-46.053666428251482
 30
0.0
 40
37.9862057044506116
 50
88.6858476413337939
 51
89.9468283845210834
  0
ARC
  5
245F5
  8
0
 10
5779.097739800794443
 20
-8.0874494178055372
 30
0.0
 40
0.01
 50
85.3198714017229634
 51
88.6858476413337939
  0
ARC
  5
245F6
  8
0
 10
5778.9450089137271789
 20
-12.2201244498134791
 30
0.0
 40
4.1598619106201991
 50
86.220032630675135
 51
89.3606023348126257
  0
ARC
  5
245F7
  8
0
 10
5776.620689145194774
 20
-18.30130940347604
 30
0.0
 40
10.36523189649035
 50
71.3764636755543478
 51
76.1997668953036253
  0
ARC
  5
245F8
  8
0
 10
5779.9340050578475712
 20
-8.4693526008395281
 30
0.0
 40
0.01
 50
251.3764636755537083
 51
0.0
  0
ARC
  5
245F9
  8
0
 10
5779.0907993270529914
 20
-8.2449987818031545
 30
0.0
 40
0.01
 50
76.199766895304009
 51
85.8537033653182675
  0
ARC
  5
245FA
  8
0
 10
5774.3860240095227709
 20
-23.7589239986049314
 30
0.0
 40
16.205222237337459
 50
69.9922973101646306
 51
73.1604270869466262
  0
ARC
  5
245FB
  8
0
 10
5779.9340050578475712
 20
-8.5223450356725934
 30
0.0
 40
0.01
 50
249.9922973101654122
 51
0.0
  0
ARC
  5
245FC
  8
0
 10
5779.0776653446819182
 20
-8.2581586981762012
 30
0.0
 40
0.01
 50
73.1604270869459725
 51
84.2968466545296309
  0
ARC
  5
245FD
  8
0
 10
5769.3018895970481026
 20
-143.2772593030881012
 30
0.0
 40
135.3966098814439931
 50
85.8537033653705492
 51
86.628004461553644
  0
ARC
  5
245FE
  8
0
 10
5777.265121057847864
 20
-8.1250448192251881
 30
0.0
 40
0.01
 50
86.6280044615016038
 51
180.0
  0
ARC
  5
245FF
  8
0
 10
5775.7338145263383922
 20
-41.7405776185254425
 30
0.0
 40
33.6589779198878603
 50
84.2968466545294177
 51
85.559615210417661
  0
ARC
  5
24600
  8
0
 10
5774.1640569911342027
 20
-58.2633628236431917
 30
0.0
 40
50.2199315208421169
 50
84.3612460403033566
 51
86.4590464099364056
  0
ARC
  5
24601
  8
0
 10
5777.265121057847864
 20
-8.1492867074282032
 30
0.0
 40
0.01
 50
86.4590464099884741
 51
180.0
  0
ARC
  5
24602
  8
0
 10
5773.3699669770176115
 20
-26.1814015701292284
 30
0.0
 40
18.7897272776589794
 50
69.564297363779346
 51
72.242791057774383
  0
ARC
  5
24603
  8
0
 10
5779.9340050578475712
 20
-8.5648426045490567
 30
0.0
 40
0.01
 50
249.5642973637785076
 51
0.0
  0
ARC
  5
24604
  8
0
 10
5779.0974857031333158
 20
-8.2963886860062495
 30
0.0
 40
0.01
 50
72.2427910577740846
 51
84.3612460403032003
  0
ARC
  5
24605
  8
0
 10
5787.8768817867621692
 20
108.3671254205240047
 30
0.0
 40
117.0398346765690007
 50
264.7984113006108942
 51
265.6938293309373194
  0
ARC
  5
24606
  8
0
 10
5777.265121057847864
 20
-8.2006845959827146
 30
0.0
 40
0.01
 50
84.7984113009774916
 51
180.0
  0
ARC
  5
24607
  8
0
 10
5769.2697066802365953
 20
-40.7498021947369367
 30
0.0
 40
33.8626119520794475
 50
71.6491208070787593
 51
73.1400994854589754
  0
ARC
  5
24608
  8
0
 10
5779.9340050578475712
 20
-8.5997387333772881
 30
0.0
 40
0.01
 50
251.649120807079214
 51
0.0
  0
ARC
  5
24609
  8
0
 10
5779.0880636521205815
 20
-8.3522837349730814
 30
0.0
 40
0.01
 50
73.1400994854584638
 51
85.6938293310420107
  0
ARC
  5
2460A
  8
0
 10
5835.3343783540949516
 20
149.2382471638308914
 30
0.0
 40
167.3409609069854014
 50
250.3566273979513994
 51
250.6655005849451072
  0
ARC
  5
2460B
  8
0
 10
5779.9340050578475712
 20
-8.6555434572430201
 30
0.0
 40
0.01
 50
250.6655005847223094
 51
0.0
  0
ARC
  5
2460C
  8
0
 10
5779.0769085041247308
 20
-8.3734313456342662
 30
0.0
 40
0.01
 50
70.3566273982808212
 51
83.9018697777956675
  0
ARC
  5
2460D
  8
0
 10
5770.9650734746956005
 20
-84.3012324980523715
 30
0.0
 40
76.3698903573453123
 50
83.9018697777955822
 51
84.8130436783976904
  0
ARC
  5
2460E
  8
0
 10
5770.9052523165446473
 20
-81.9081181178433155
 30
0.0
 40
73.9555407025904543
 50
83.6395490590367103
 51
85.0660392816539854
  0
ARC
  5
2460F
  8
0
 10
5777.265121057847864
 20
-8.2365831847916322
 30
0.0
 40
0.01
 50
85.0660392816019169
 51
180.0
  0
ARC
  5
24610
  8
0
 10
5817.1690320640127538
 20
96.4976259198240314
 30
0.0
 40
111.5995947999801956
 50
250.0550878202280956
 51
250.5078135285899066
  0
ARC
  5
24611
  8
0
 10
5779.9340050578475712
 20
-8.6964348986172482
 30
0.0
 40
0.01
 50
250.5078135283125107
 51
359.9999999999973284
  0
ARC
  5
24612
  8
0
 10
5779.0971571719828717
 20
-8.4177399405750801
 30
0.0
 40
0.01
 50
70.0550878204541903
 51
83.6395490589843575
  0
ARC
  5
24613
  8
0
 10
5774.5445015960667661
 20
-45.2133515566185409
 30
0.0
 40
37.0375923995075169
 50
82.9500503944429255
 51
85.7886478124237044
  0
ARC
  5
24614
  8
0
 10
5777.265121057847864
 20
-8.2657896296898912
 30
0.0
 40
0.01
 50
180.0000000000025864
 51
265.7886478124237897
  0
ARC
  5
24615
  8
0
 10
5768.0432080049931756
 20
-43.0909219254243396
 30
0.0
 40
36.3544171096956106
 50
70.9138239541155144
 51
72.3066929646923455
  0
ARC
  5
24616
  8
0
 10
5779.9340050578475712
 20
-8.7255356017447632
 30
0.0
 40
0.01
 50
250.9138239541146902
 51
0.0
  0
ARC
  5
24617
  8
0
 10
5779.0890677423285524
 20
-8.4657051361153286
 30
0.0
 40
0.01
 50
72.3066929646922176
 51
82.9500503944430534
  0
ARC
  5
24618
  8
0
 10
5775.1845714737710296
 20
-36.1619071052216725
 30
0.0
 40
27.94132527274515
 50
81.9880539609200838
 51
85.7281933104568878
  0
ARC
  5
24619
  8
0
 10
5777.265121057847864
 20
-8.3081776436201125
 30
0.0
 40
0.01
 50
85.7281933104569589
 51
180.0000000000025864
  0
ARC
  5
2461A
  8
0
 10
5786.2563531760570186
 20
10.5692910167103093
 30
0.0
 40
20.3687813181304485
 50
249.3741017868645997
 51
251.9078322910671943
  0
ARC
  5
2461B
  8
0
 10
5779.9340050578475712
 20
-8.7829153441062786
 30
0.0
 40
0.01
 50
251.9078322910168879
 51
0.0
  0
ARC
  5
2461C
  8
0
 10
5779.0776274838135578
 20
-8.5032186620838122
 30
0.0
 40
0.01
 50
69.3741017869233474
 51
81.9880539609199133
  0
ARC
  5
2461D
  8
0
 10
5766.4315070730590378
 20
-115.0972321670085989
 30
0.0
 40
107.3075483671210009
 50
83.2208476356141773
 51
84.2061713362866158
  0
ARC
  5
2461E
  8
0
 10
5777.265121057847864
 20
-8.3279060683676178
 30
0.0
 40
0.01
 50
180.0
 51
264.2061713362862747
  0
ARC
  5
2461F
  8
0
 10
5784.0496465051674022
 20
4.4952446968482462
 30
0.0
 40
13.9435415293427507
 50
249.2111931186084064
 51
252.8198815840399902
  0
ARC
  5
24620
  8
0
 10
5779.9340050578475712
 20
-8.8165949591509651
 30
0.0
 40
0.01
 50
252.8198815839853069
 51
0.0
  0
ARC
  5
24621
  8
0
 10
5779.097195111315159
 20
-8.5498519452863597
 30
0.0
 40
0.01
 50
69.2111931186079516
 51
83.2208476356146036
  0
ARC
  5
24622
  8
0
 10
5758.4923459159799677
 20
-201.087675808897103
 30
0.0
 40
193.6193552622692096
 50
83.8929656251739573
 51
84.4363136057818338
  0
ARC
  5
24623
  8
0
 10
5777.265121057847864
 20
-8.3704992709586108
 30
0.0
 40
0.01
 50
180.0
 51
264.4363136058343002
  0
ARC
  5
24624
  8
0
 10
5790.4983632165676681
 20
26.1871696609560907
 30
0.0
 40
36.5783903172291218
 50
251.8315944374529067
 51
253.2082967397799962
  0
ARC
  5
24625
  8
0
 10
5779.9340050578475712
 20
-8.8219935265224976
 30
0.0
 40
0.01
 50
253.2082967398322069
 51
0.0
  0
ARC
  5
24626
  8
0
 10
5779.0896995144839821
 20
-8.5770748805071602
 30
0.0
 40
0.01
 50
71.8315944375638651
 51
83.8929656251215334
  0
ARC
  5
24627
  8
0
 10
5774.4315391500931582
 20
-41.3933410381865627
 30
0.0
 40
33.094152157368292
 50
81.9268077296282655
 51
85.0867281847280168
  0
ARC
  5
24628
  8
0
 10
5777.265121057847864
 20
-8.4307571354652246
 30
0.0
 40
0.01
 50
85.0867281846759624
 51
180.0
  0
ARC
  5
24629
  8
0
 10
5782.2244807019669679
 20
-0.2398771546199825
 30
0.0
 40
8.9574064931217681
 50
249.4575832190359108
 51
255.1675523104422041
  0
ARC
  5
2462A
  8
0
 10
5779.9340050578475712
 20
-8.8891432666583867
 30
0.0
 40
0.01
 50
255.1675523103899934
 51
0.0
  0
ARC
  5
2462B
  8
0
 10
5779.0778113487367591
 20
-8.6370702091068914
 30
0.0
 40
0.01
 50
69.4575832190354134
 51
81.9268077295764954
  0
ARC
  5
2462C
  8
0
 10
5707.4564648704090359
 20
-632.9678634360670912
 30
0.0
 40
628.3922277016532689
 50
83.453577371140625
 51
83.6218971148847459
  0
ARC
  5
2462D
  8
0
 10
5777.265121057847864
 20
-8.4551643644594421
 30
0.0
 40
0.01
 50
180.0
 51
263.621897115146794
  0
ARC
  5
2462E
  8
0
 10
5781.7522609688849116
 20
-1.445639082648877
 30
0.0
 40
7.6988272466519554
 50
249.853624164241495
 51
256.3211045513186832
  0
ARC
  5
2462F
  8
0
 10
5779.9340050578475712
 20
-8.9163826782246005
 30
0.0
 40
0.01
 50
256.3211045512663873
 51
0.0
  0
ARC
  5
24630
  8
0
 10
5779.0971890384562357
 20
-8.6828077668077235
 30
0.0
 40
0.01
 50
69.8536241642957947
 51
83.4535773710880449
  0
ARC
  5
24631
  8
0
 10
5773.3764803188760197
 20
-56.8285806028859213
 30
0.0
 40
48.4853516452780582
 50
83.2251567632096254
 51
85.4007518249830611
  0
ARC
  5
24632
  8
0
 10
5777.265121057847864
 20
-8.4893873493532084
 30
0.0
 40
0.01
 50
179.9999999999972999
 51
265.4007518250351723
  0
ARC
  5
24633
  8
0
 10
5781.4257711365871728
 20
-2.2278196171051761
 30
0.0
 40
6.8612677369705342
 50
250.1717025259945899
 51
256.6926062475189951
  0
ARC
  5
24634
  8
0
 10
5779.0950194956949417
 20
-8.6917129563870716
 30
0.0
 40
0.01
 50
70.1717025259974605
 51
83.2251567632092986
  0
ARC
  5
24635
  8
0
 10
5810.384060721286005
 20
306.2355585474185773
 30
0.0
 40
316.4998199176104094
 50
263.9936921083261154
 51
264.32458067751719
  0
ARC
  5
24636
  8
0
 10
5777.265121057847864
 20
-8.5367431880546221
 30
0.0
 40
0.01
 50
83.9936921097933009
 51
180.0
  0
ARC
  5
24637
  8
0
 10
5781.3880135549770785
 20
-1.470345666585178
 30
0.0
 40
7.5997472775618027
 50
252.3719411633809102
 51
258.9552658399086909
  0
ARC
  5
24638
  8
0
 10
5779.9340050578475712
 20
-8.9195149509776162
 30
0.0
 40
0.01
 50
258.9552658399081793
 51
0.0
  0
ARC
  5
24639
  8
0
 10
5779.0835031810756846
 20
-8.7227580628119128
 30
0.0
 40
0.01
 50
72.3719411633813934
 51
84.3245806774650646
  0
ARC
  5
2463A
  8
0
 10
5802.4784527080928456
 20
210.2435547633714066
 30
0.0
 40
220.2451502374831023
 50
263.4267538451426276
 51
263.9009256408476745
  0
ARC
  5
2463B
  8
0
 10
5777.265121057847864
 20
-8.5637100000066582
 30
0.0
 40
0.01
 50
83.4267538451422155
 51
180.0
  0
ARC
  5
2463C
  8
0
 10
5780.9716279267850041
 20
-3.275726041119678
 30
0.0
 40
5.7969971043449453
 50
250.9554075007634992
 51
259.6708667567609155
  0
ARC
  5
2463D
  8
0
 10
5779.9340050578475712
 20
-8.9689390414873138
 30
0.0
 40
0.01
 50
259.6708667567605744
 51
0.0
  0
ARC
  5
2463E
  8
0
 10
5779.0767818944677856
 20
-8.7648766023342617
 30
0.0
 40
0.01
 50
70.9554075007622913
 51
83.9009256410576256
  0
ARC
  5
2463F
  8
0
 10
5799.1127011641674471
 20
185.1476184447971889
 30
0.0
 40
194.974457426897601
 50
263.5659613083188901
 51
264.1081892401111872
  0
ARC
  5
24640
  8
0
 10
5777.265121057847864
 20
-8.5888595433775876
 30
0.0
 40
0.01
 50
180.0
 51
263.5659613077418726
  0
ARC
  5
24641
  8
0
 10
5780.7632843182673241
 20
-3.7355743536096782
 30
0.0
 40
5.3278447516165039
 50
251.8156677082889985
 51
261.0285240652552261
  0
ARC
  5
24642
  8
0
 10
5779.9340050578475712
 20
-8.9883611102308851
 30
0.0
 40
0.01
 50
261.0285240652034986
 51
0.0
  0
ARC
  5
24643
  8
0
 10
5779.0974757019257595
 20
-8.8068333931467038
 30
0.0
 40
0.01
 50
71.8156677083400865
 51
84.1081892403206837
  0
ARC
  5
24644
  8
0
 10
5785.5231403158450121
 20
65.4384348855490714
 30
0.0
 40
74.5187703534410133
 50
263.6366721487423206
 51
265.0513516874491984
  0
ARC
  5
24645
  8
0
 10
5777.265121057847864
 20
-8.6112914982557012
 30
0.0
 40
0.01
 50
180.0
 51
263.6366721487423774
  0
ARC
  5
24646
  8
0
 10
5780.6023805214117601
 20
-4.0285448944125051
 30
0.0
 40
5.0061170620849929
 50
252.500841079867314
 51
257.4660441413860781
  0
ARC
  5
24647
  8
0
 10
5779.0940752566330048
 20
-8.8125229053128606
 30
0.0
 40
0.01
 50
72.5008410798680956
 51
85.0513516875014943
  0
ARC
  5
24648
  8
0
 10
5789.516183678840207
 20
111.6871845852079019
 30
0.0
 40
120.9575249107130048
 50
264.187368194075475
 51
265.0527449158407762
  0
ARC
  5
24649
  8
0
 10
5777.265121057847864
 20
-8.6583743178131485
 30
0.0
 40
0.01
 50
84.1873681940750913
 51
180.0
  0
ARC
  5
2464A
  8
0
 10
5780.9734962568027186
 20
-2.0085598246029899
 30
0.0
 40
7.0679532073047211
 50
254.5177555723554121
 51
261.530702736495698
  0
ARC
  5
2464B
  8
0
 10
5779.9340050578475712
 20
-8.9895455375089988
 30
0.0
 40
0.01
 50
261.5307027364959254
 51
0.0
  0
ARC
  5
2464C
  8
0
 10
5779.0841092627579201
 20
-8.8296769172444982
 30
0.0
 40
0.01
 50
74.5177555723556679
 51
85.0527449159977067
  0
ARC
  5
2464D
  8
0
 10
5787.547777440822756
 20
84.7739503315200551
 30
0.0
 40
94.0113006273899856
 50
263.7212777690954226
 51
264.838800156410116
  0
ARC
  5
2464E
  8
0
 10
5777.265121057847864
 20
-8.6833765582198836
 30
0.0
 40
0.01
 50
83.7212777690953942
 51
180.0
  0
ARC
  5
2464F
  8
0
 10
5780.3495631187006438
 20
-4.6167119585791383
 30
0.0
 40
4.422234186814503
 50
253.4872454902275933
 51
264.5956937408427052
  0
ARC
  5
24650
  8
0
 10
5779.9340050578475712
 20
-9.0093332736204488
 30
0.0
 40
0.01
 50
264.5956937408427052
 51
0.0
  0
ARC
  5
24651
  8
0
 10
5779.0897946084660362
 20
-8.8661452369574505
 30
0.0
 40
0.01
 50
73.4872454902282612
 51
84.8388001565668191
  0
ARC
  5
24652
  8
0
 10
5783.9736756013162449
 20
55.2684764162186468
 30
0.0
 40
64.3559963368309127
 50
264.0156087059124843
 51
265.6553085799806126
  0
ARC
  5
24653
  8
0
 10
5777.265121057847864
 20
-8.7268557613454671
 30
0.0
 40
0.01
 50
180.0
 51
264.0156087058605863
  0
ARC
  5
24654
  8
0
 10
5780.1680018494180331
 20
-4.9271951701840591
 30
0.0
 40
4.116620150662575
 50
254.965178523154691
 51
266.7334952796908283
  0
ARC
  5
24655
  8
0
 10
5779.9340050578475712
 20
-9.0271432873390722
 30
0.0
 40
0.01
 50
266.7334952796908283
 51
0.0
  0
ARC
  5
24656
  8
0
 10
5779.0975316652684342
 20
-8.9125543074140374
 30
0.0
 40
0.01
 50
74.9651785231543357
 51
85.6553085801893843
  0
ARC
  5
24657
  8
0
 10
5783.6602318610212023
 20
60.5385820702734634
 30
0.0
 40
69.5958254708115334
 50
264.7284538463799208
 51
266.2249886671160084
  0
ARC
  5
24658
  8
0
 10
5777.265121057847864
 20
-8.7728419324709321
 30
0.0
 40
0.01
 50
84.7284538464323873
 51
180.0
  0
ARC
  5
24659
  8
0
 10
5782.4320833188221513
 20
6.7468853998194831
 30
0.0
 40
16.0083088337038895
 50
257.9114317960620042
 51
259.1828894280286022
  0
ARC
  5
2465A
  8
0
 10
5779.0774735154163864
 20
-8.9162180908302773
 30
0.0
 40
0.01
 50
77.91143179606253
 51
86.2249886673770902
  0
ARC
  5
2465B
  8
0
 10
5783.2366823455704434
 20
52.2642949678654318
 30
0.0
 40
61.3511312715433377
 50
264.4152326654515264
 51
266.1226218317639791
  0
ARC
  5
2465C
  8
0
 10
5777.265121057847864
 20
-8.8055739259724888
 30
0.0
 40
0.01
 50
84.4152326654512848
 51
180.0
  0
ARC
  5
2465D
  8
0
 10
5779.9282374479262216
 20
-5.0751055560859291
 30
0.0
 40
3.9613222677384532
 50
257.7757875387947024
 51
269.9009689685573221
  0
ARC
  5
2465E
  8
0
 10
5779.0873583245102054
 20
-8.9563840637479935
 30
0.0
 40
0.01
 50
77.7757875387948729
 51
86.1226218319205969
  0
ARC
  5
2465F
  8
0
 10
5785.5363734368502264
 20
93.6206660066454646
 30
0.0
 40
102.8050435614013054
 50
265.384789884691827
 51
266.410307737961773
  0
ARC
  5
24660
  8
0
 10
5777.265121057847864
 20
-8.8410700945608127
 30
0.0
 40
0.01
 50
180.0
 51
265.3847898843260964
  0
ARC
  5
24661
  8
0
 10
5779.7847742753001512
 20
-5.1487945081244666
 30
0.0
 40
3.894551130697768
 50
259.8847658803480272
 51
269.2822890637656883
  0
ARC
  5
24662
  8
0
 10
5779.0990238753911399
 20
-8.9926553174225212
 30
0.0
 40
0.01
 50
79.8847658803480556
 51
86.4103077378571953
  0
ARC
  5
24663
  8
0
 10
5780.8995487123083876
 20
38.0196930923034202
 30
0.0
 40
47.0724118433606975
 50
265.5708835110984865
 51
267.7825598958975206
  0
ARC
  5
24664
  8
0
 10
5777.265121057847864
 20
-8.9021732829655562
 30
0.0
 40
0.01
 50
180.0
 51
265.5708835108894732
  0
ARC
  5
24665
  8
0
 10
5779.5218838655919171
 20
-5.2196703576184262
 30
0.0
 40
3.823596242136905
 50
263.3484848356525276
 51
269.3763458253756085
  0
ARC
  5
24666
  8
0
 10
5779.0778374370611346
 20
-9.0274627517799573
 30
0.0
 40
0.01
 50
83.3484848356526271
 51
87.782559895845381
  0
ARC
  5
24667
  8
0
 10
5780.3149329497737199
 20
36.123690977254391
 30
0.0
 40
45.1707350764446289
 50
266.1277325469120001
 51
268.4476004475571926
  0
ARC
  5
24668
  8
0
 10
5777.265121057847864
 20
-8.9339458900812119
 30
0.0
 40
0.01
 50
180.0
 51
266.1277325468075787
  0
ARC
  5
24669
  8
0
 10
5779.4823720812091778
 20
-3.7020908519961599
 30
0.0
 40
5.3427023566920733
 50
265.806270455077879
 51
268.5321751397981984
  0
ARC
  5
2466A
  8
0
 10
5779.0909340402222369
 20
-9.0404612755809097
 30
0.0
 40
0.01
 50
85.8062704550779358
 51
88.4476004476094033
  0
ARC
  5
2466B
  8
0
 10
5779.4215701577422806
 20
32.7951982390068082
 30
0.0
 40
41.8397312912245383
 50
267.0449194132526145
 51
269.5159743535484722
  0
ARC
  5
2466C
  8
0
 10
5777.265121057847864
 20
-8.9789103352717419
 30
0.0
 40
0.01
 50
180.0000000000025864
 51
267.0449194132526145
  0
ARC
  5
2466D
  8
0
 10
5779.0699186662995999
 20
36.2825364670717931
 30
0.0
 40
45.3271153614543394
 50
267.7175369530735907
 51
269.5278814902778777
  0
ARC
  5
2466E
  8
0
 10
5777.265121057847864
 20
-8.9986257339570983
 30
0.0
 40
0.01
 50
180.0000000000025864
 51
267.7175369529172144
  0
ARC
  5
2466F
  8
0
 10
5778.1656079593567483
 20
31.3722157349409194
 30
0.0
 40
40.4155211204896716
 50
268.7229871212044259
 51
269.7924007072518862
  0
ARC
  5
24670
  8
0
 10
5777.265121057847864
 20
-9.0232699083651582
 30
0.0
 40
0.01
 50
179.9999999999972999
 51
268.7229871211521868
  0
LINE
  5
24671
  8
0
 10
5787.3040050578483715
 20
-11.0448540039286698
 30
0.0
 11
5790.0140050578484079
 21
-11.0448540039286698
 31
0.0
  0
LINE
  5
24672
  8
0
 10
5787.2840050578479349
 20
-11.5748540039286603
 30
0.0
 11
5790.0340050578470255
 21
-11.5748540039286603
 31
0.0
  0
LINE
  5
24673
  8
0
 10
5789.3860050578477967
 20
-8.0605215639286651
 30
0.0
 11
5792.050889057846689
 21
-8.0605215639286651
 31
0.0
  0
LINE
  5
24674
  8
0
 10
5789.3860050578477967
 20
-9.043040093528667
 30
0.0
 11
5792.050889057846689
 21
-9.043040093528667
 31
0.0
  0
ARC
  5
24675
  8
0
 10
5789.3860050578477967
 20
-9.0310400935286665
 30
0.0
 40
0.012
 50
180.0
 51
270.0
  0
LINE
  5
24676
  8
0
 10
5788.1820050578480732
 20
-9.6668540039286697
 30
0.0
 11
5789.1360050578477967
 21
-9.6668540039286697
 31
0.0
  0
ARC
  5
24677
  8
0
 10
5788.1820050578480732
 20
-9.6528540039286668
 30
0.0
 40
0.014
 50
180.0
 51
270.0
  0
LINE
  5
24678
  8
0
 10
5788.1880050578465671
 20
-9.6748540039286688
 30
0.0
 11
5789.1300050578483933
 21
-9.6748540039286688
 31
0.0
  0
LINE
  5
24679
  8
0
 10
5792.0628890578491337
 20
-8.0725215639286674
 30
0.0
 11
5792.0628890578491337
 21
-9.0310400935286665
 31
0.0
  0
ARC
  5
2467A
  8
0
 10
5792.050889057846689
 20
-8.0725215639286674
 30
0.0
 40
0.012
 50
0.0
 51
90.0
  0
ARC
  5
2467B
  8
0
 10
5792.050889057846689
 20
-9.0310400935286665
 30
0.0
 40
0.012
 50
270.0
 51
0.0
  0
LINE
  5
2467C
  8
0
 10
5789.1500050578479204
 20
-9.2670400935286672
 30
0.0
 11
5789.1500050578479204
 21
-9.6528540039286668
 31
0.0
  0
ARC
  5
2467D
  8
0
 10
5789.374005057847171
 20
-9.2670400935286672
 30
0.0
 40
0.224
 50
93.3722866834308434
 51
180.0
  0
LINE
  5
2467E
  8
0
 10
5789.1500050578479204
 20
-9.6948540039286684
 30
0.0
 11
5789.1500050578479204
 21
-11.0248540039286702
 31
0.0
  0
LINE
  5
2467F
  8
0
 10
5788.1680050578479495
 20
-9.2665215639286682
 30
0.0
 11
5788.1680050578479495
 21
-9.6528540039286668
 31
0.0
  0
ARC
  5
24680
  8
0
 10
5789.374005057847171
 20
-9.2665215639286682
 30
0.0
 40
1.2059999999999991
 50
90.6729524799684441
 51
180.0
  0
LINE
  5
24681
  8
0
 10
5788.1680050578479495
 20
-9.6948540039286684
 30
0.0
 11
5788.1680050578479495
 21
-11.0248540039286702
 31
0.0
  0
LINE
  5
24682
  8
0
 10
5790.0340050578470255
 20
-11.0648540039286605
 30
0.0
 11
5790.0340050578470255
 21
-11.5748540039286603
 31
0.0
  0
ARC
  5
24683
  8
0
 10
5790.0140050578484079
 20
-11.0648540039286694
 30
0.0
 40
0.02
 50
359.9999999999993747
 51
90.0
  0
ARC
  5
24684
  8
0
 10
5789.1700050578474475
 20
-11.0248540039286702
 30
0.0
 40
0.02
 50
180.0
 51
270.0
  0
ARC
  5
24685
  8
0
 10
5788.1480050578466034
 20
-11.0248540039286702
 30
0.0
 40
0.02
 50
270.0
 51
0.0
  0
LINE
  5
24686
  8
0
 10
5787.2840050578479349
 20
-11.0648540039286605
 30
0.0
 11
5787.2840050578479349
 21
-11.5748540039286603
 31
0.0
  0
ARC
  5
24687
  8
0
 10
5787.3040050578483715
 20
-11.0648540039286694
 30
0.0
 40
0.02
 50
90.0
 51
180.0000000000005969
  0
ARC
  5
24688
  8
0
 10
5788.1880050578465671
 20
-9.6948540039286684
 30
0.0
 40
0.02
 50
90.0
 51
180.0
  0
ARC
  5
24689
  8
0
 10
5789.1300050578483933
 20
-9.6948540039286684
 30
0.0
 40
0.02
 50
359.9999999999988063
 51
90.0
  0
ARC
  5
2468A
  8
0
 10
5789.1360050578477967
 20
-9.6528540039286668
 30
0.0
 40
0.014
 50
270.0
 51
359.999999999998181
  0
LINE
  5
2468B
  8
0
 10
5789.0090050578473893
 20
-9.6668540039286697
 30
0.0
 11
5789.0090050578473893
 21
-9.6748540039286688
 31
0.0
  0
LINE
  5
2468C
  8
0
 10
5788.3090050578466617
 20
-9.6668540039286697
 30
0.0
 11
5788.3090050578466617
 21
-9.6748540039286688
 31
0.0
  0
LINE
  5
2468D
  8
0
 10
5789.374005057847171
 20
-8.0725215639286674
 30
0.0
 11
5789.374005057847171
 21
-9.0310400935286665
 31
0.0
  0
ARC
  5
2468E
  8
0
 10
5789.3860050578477967
 20
-8.0725215639286674
 30
0.0
 40
0.012
 50
90.0
 51
180.0
  0
ARC
  5
2468F
  8
0
 10
5789.3600050578470473
 20
-8.0746037815292304
 30
0.0
 40
0.014
 50
0.000000000007328
 51
90.6729524799684441
  0
ARC
  5
24690
  8
0
 10
5789.3600050578470473
 20
-9.0294522150499859
 30
0.0
 40
0.014
 50
273.3722866834307865
 51
359.9999999999964189
  0
ARC
  5
24691
  8
0
 10
5790.1419383651164026
 20
-12.1102529998604407
 30
0.0
 40
4.0429040300050421
 50
90.169304922544157
 51
100.8324348724332964
  0
ARC
  5
24692
  8
0
 10
5789.3840050578473893
 20
-8.1492112155611736
 30
0.0
 40
0.01
 50
100.8324348724332964
 51
180.0
  0
ARC
  5
24693
  8
0
 10
5790.0659760705257213
 20
-13.0267039179317603
 30
0.0
 40
4.9676789655620937
 50
91.4064566010638373
 51
97.9065932168960558
  0
ARC
  5
24694
  8
0
 10
5789.3840050578473893
 20
-8.1161544310166462
 30
0.0
 40
0.01
 50
97.9065932168961268
 51
180.0
  0
ARC
  5
24695
  8
0
 10
5789.7278871199823698
 20
-11.84037162171545
 30
0.0
 40
3.7798811563119998
 50
90.2324174609080529
 51
95.2336975185399126
  0
ARC
  5
24696
  8
0
 10
5789.3840050578473893
 20
-8.0862073924816702
 30
0.0
 40
0.01
 50
95.2336975185399126
 51
180.0
  0
ARC
  5
24697
  8
0
 10
5789.1138223699363152
 20
-0.5224983327619235
 30
0.0
 40
7.5495986858796229
 50
272.0482073116457968
 51
273.1732203666202849
  0
ARC
  5
24698
  8
0
 10
5789.3840050578473893
 20
-8.0772672641525691
 30
0.0
 40
0.01
 50
92.0482073115937141
 51
180.0
  0
ARC
  5
24699
  8
0
 10
5790.5417186311269688
 20
-13.4276343659172195
 30
0.0
 40
5.3766001430769581
 50
94.725724955267637
 51
102.4581060094302956
  0
ARC
  5
2469A
  8
0
 10
5789.3840050578473893
 20
-8.1873961673312579
 30
0.0
 40
0.01
 50
102.4581060094301961
 51
180.0
  0
ARC
  5
2469B
  8
0
 10
5790.6025478137062237
 20
-12.7570117003771806
 30
0.0
 40
4.6951838808000002
 50
94.6801285982770224
 51
105.0094748792831041
  0
ARC
  5
2469C
  8
0
 10
5789.3840050578473893
 20
-8.2123545181152409
 30
0.0
 40
0.01
 50
180.0
 51
285.0094748792828909
  0
ARC
  5
2469D
  8
0
 10
5791.4094918901619167
 20
-15.5703431498771199
 30
0.0
 40
7.5711902750183313
 50
98.9706490523547728
 51
105.5381154624078022
  0
ARC
  5
2469E
  8
0
 10
5789.3840050578473893
 20
-8.2854957618288267
 30
0.0
 40
0.01
 50
105.5381154624079016
 51
179.9999999999972999
  0
ARC
  5
2469F
  8
0
 10
5791.2721025518803799
 20
-14.0986802988649291
 30
0.0
 40
6.0690390167129351
 50
99.9822319051559276
 51
108.0948771360781961
  0
ARC
  5
246A0
  8
0
 10
5789.3840050578473893
 20
-8.3202892408150682
 30
0.0
 40
0.01
 50
180.0000000000023874
 51
288.0948771360779119
  0
ARC
  5
246A1
  8
0
 10
5791.5411462444089921
 20
-15.4123395192697892
 30
0.0
 40
7.3717773619011924
 50
100.3546906802035039
 51
106.9912211061128033
  0
ARC
  5
246A2
  8
0
 10
5789.3840050578473893
 20
-8.3527801192849296
 30
0.0
 40
0.01
 50
180.0
 51
286.9912211061130165
  0
ARC
  5
246A3
  8
0
 10
5793.2395465169138333
 20
-20.6042135678309002
 30
0.0
 40
12.8056260544552494
 50
103.5591754915092935
 51
107.536730841361603
  0
ARC
  5
246A4
  8
0
 10
5789.3840050578473893
 20
-8.4032772847878618
 30
0.0
 40
0.01
 50
107.5367308413623988
 51
180.0
  0
ARC
  5
246A5
  8
0
 10
5792.5775587471207473
 20
-34.0992966816960035
 30
0.0
 40
26.0214568254180811
 50
91.1557752361971154
 51
95.2025624334280565
  0
ARC
  5
246A6
  8
0
 10
5792.0528890578480059
 20
-8.0931318760629765
 30
0.0
 40
0.01
 50
0.0
 51
91.155775236197087
  0
ARC
  5
246A7
  8
0
 10
5790.2189147826093176
 20
-8.1949981034821064
 30
0.0
 40
0.01
 50
95.2025624334280565
 51
104.2990269290995968
  0
ARC
  5
246A8
  8
0
 10
5792.3777129942318425
 20
-16.6649018922934182
 30
0.0
 40
8.7506910430599731
 50
104.2990269290995968
 51
109.9817324196367991
  0
ARC
  5
246A9
  8
0
 10
5789.3840050578473893
 20
-8.431590265518885
 30
0.0
 40
0.01
 50
180.0000000000023874
 51
289.9817324196367281
  0
ARC
  5
246AA
  8
0
 10
5792.8140360081979452
 20
-43.989922074309483
 30
0.0
 40
35.9270803711498417
 50
91.2142905893162066
 51
94.1102969358499166
  0
ARC
  5
246AB
  8
0
 10
5792.0528890578480059
 20
-8.0809076391065844
 30
0.0
 40
0.01
 50
0.0
 51
91.2142905893162066
  0
ARC
  5
246AC
  8
0
 10
5790.2396182609927564
 20
-8.1652233923873254
 30
0.0
 40
0.01
 50
94.1102969357978338
 51
103.559175491509194
  0
ARC
  5
246AD
  8
0
 10
5792.2618028476526888
 20
-46.5419332587757495
 30
0.0
 40
38.4744162833175594
 50
90.3111950848887943
 51
92.3500552369888936
  0
ARC
  5
246AE
  8
0
 10
5792.0528890578480059
 20
-8.0780843218223168
 30
0.0
 40
0.01
 50
0.0
 51
90.3111950848887943
  0
ARC
  5
246AF
  8
0
 10
5792.4414238398503585
 20
-50.9187464982509894
 30
0.0
 40
42.8549137247143079
 50
92.3500552369888936
 51
92.9695788108520844
  0
ARC
  5
246B0
  8
0
 10
5790.2218119520948676
 20
-8.1313657050083741
 30
0.0
 40
0.01
 50
92.9695788109041956
 51
99.982231905155956
  0
ARC
  5
246B1
  8
0
 10
5791.8557511938133757
 20
-49.5187814639058672
 30
0.0
 40
41.459019246023999
 50
90.3467756937056237
 51
92.247210207278826
  0
ARC
  5
246B2
  8
0
 10
5790.2304869778117791
 20
-8.1016387246311474
 30
0.0
 40
0.01
 50
92.247210207278826
 51
98.9706490523548865
  0
ARC
  5
246B3
  8
0
 10
5791.091227043145409
 20
-46.053666428251482
 30
0.0
 40
37.9862057044506116
 50
90.0531716154789166
 51
91.3141523586662203
  0
ARC
  5
246B4
  8
0
 10
5790.2202703149014269
 20
-8.0874494178055372
 30
0.0
 40
0.01
 50
91.3141523586662203
 51
94.6801285982770224
  0
ARC
  5
246B5
  8
0
 10
5790.3730012019677815
 20
-12.2201244498134791
 30
0.0
 40
4.1598619106201991
 50
90.6393976651873743
 51
93.779967369324865
  0
ARC
  5
246B6
  8
0
 10
5792.6973209705010959
 20
-18.30130940347604
 30
0.0
 40
10.36523189649035
 50
103.8002331046963036
 51
108.6235363244455954
  0
ARC
  5
246B7
  8
0
 10
5789.3840050578473893
 20
-8.4693526008395281
 30
0.0
 40
0.01
 50
180.0
 51
288.6235363244463201
  0
ARC
  5
246B8
  8
0
 10
5790.2272107886428785
 20
-8.2449987818031545
 30
0.0
 40
0.01
 50
94.1462966346817467
 51
103.8002331046960052
  0
ARC
  5
246B9
  8
0
 10
5794.931986106173099
 20
-23.7589239986049314
 30
0.0
 40
16.205222237337459
 50
106.8395729130533027
 51
110.0077026898353978
  0
ARC
  5
246BA
  8
0
 10
5789.3840050578473893
 20
-8.5223450356725934
 30
0.0
 40
0.01
 50
180.0
 51
290.0077026898346162
  0
ARC
  5
246BB
  8
0
 10
5790.2403447710130422
 20
-8.2581586981762012
 30
0.0
 40
0.01
 50
95.7031533454703691
 51
106.8395729130539991
  0
ARC
  5
246BC
  8
0
 10
5800.0161205186468578
 20
-143.2772593030881012
 30
0.0
 40
135.3966098814439931
 50
93.371995538446356
 51
94.146296634629465
  0
ARC
  5
246BD
  8
0
 10
5792.0528890578480059
 20
-8.1250448192251881
 30
0.0
 40
0.01
 50
0.0
 51
93.3719955384983962
  0
ARC
  5
246BE
  8
0
 10
5793.5841955893583872
 20
-41.7405776185254425
 30
0.0
 40
33.6589779198878603
 50
94.4403847895823532
 51
95.7031533454705965
  0
ARC
  5
246BF
  8
0
 10
5795.1539531245607577
 20
-58.2633628236431917
 30
0.0
 40
50.2199315208421169
 50
93.5409535900636087
 51
95.6387539596966434
  0
ARC
  5
246C0
  8
0
 10
5792.0528890578480059
 20
-8.1492867074282032
 30
0.0
 40
0.01
 50
0.0
 51
93.5409535900115259
  0
ARC
  5
246C1
  8
0
 10
5795.9480431386791679
 20
-26.1814015701292284
 30
0.0
 40
18.7897272776589794
 50
107.7572089422256028
 51
110.4357026362205971
  0
ARC
  5
246C2
  8
0
 10
5789.3840050578473893
 20
-8.5648426045490567
 30
0.0
 40
0.01
 50
180.0
 51
290.4357026362214924
  0
ARC
  5
246C3
  8
0
 10
5790.2205244125616446
 20
-8.2963886860062495
 30
0.0
 40
0.01
 50
95.6387539596967855
 51
107.7572089422259012
  0
ARC
  5
246C4
  8
0
 10
5781.4411283289337007
 20
108.3671254205240047
 30
0.0
 40
117.0398346765690007
 50
274.3061706690626806
 51
275.2015886993889922
  0
ARC
  5
246C5
  8
0
 10
5792.0528890578480059
 20
-8.2006845959827146
 30
0.0
 40
0.01
 50
0.0
 51
95.2015886990225084
  0
ARC
  5
246C6
  8
0
 10
5800.0483034354592746
 20
-40.7498021947369367
 30
0.0
 40
33.8626119520794475
 50
106.8599005145410956
 51
108.3508791929211981
  0
ARC
  5
246C7
  8
0
 10
5789.3840050578473893
 20
-8.5997387333772881
 30
0.0
 40
0.01
 50
180.0
 51
288.350879192920786
  0
ARC
  5
246C8
  8
0
 10
5790.2299464635752884
 20
-8.3522837349730814
 30
0.0
 40
0.01
 50
94.3061706689579751
 51
106.8599005145414935
  0
ARC
  5
246C9
  8
0
 10
5733.9836317616000088
 20
149.2382471638308914
 30
0.0
 40
167.3409609069854014
 50
289.3344994150548928
 51
289.6433726020486006
  0
ARC
  5
246CA
  8
0
 10
5789.3840050578473893
 20
-8.6555434572430201
 30
0.0
 40
0.01
 50
180.0
 51
289.3344994152776053
  0
ARC
  5
246CB
  8
0
 10
5790.2411016115711391
 20
-8.3734313456342662
 30
0.0
 40
0.01
 50
96.0981302222043468
 51
109.643372601719193
  0
ARC
  5
246CC
  8
0
 10
5798.35293664099936
 20
-84.3012324980523715
 30
0.0
 40
76.3698903573453123
 50
95.1869563216022954
 51
96.098130222204432
  0
ARC
  5
246CD
  8
0
 10
5798.4127577991521321
 20
-81.9081181178433155
 30
0.0
 40
73.9555407025904543
 50
94.9339607183460146
 51
96.3604509409633039
  0
ARC
  5
246CE
  8
0
 10
5792.0528890578480059
 20
-8.2365831847916322
 30
0.0
 40
0.01
 50
0.0
 51
94.9339607183980831
  0
ARC
  5
246CF
  8
0
 10
5752.1489780516822066
 20
96.4976259198240314
 30
0.0
 40
111.5995947999801956
 50
289.4921864714100934
 51
289.9449121797720181
  0
ARC
  5
246D0
  8
0
 10
5789.3840050578473893
 20
-8.6964348986172482
 30
0.0
 40
0.01
 50
180.0000000000023874
 51
289.4921864716873756
  0
ARC
  5
246D1
  8
0
 10
5790.2208529437120887
 20
-8.4177399405750801
 30
0.0
 40
0.01
 50
96.3604509410156851
 51
109.9449121795457955
  0
ARC
  5
246D2
  8
0
 10
5794.7735085196291038
 20
-45.2133515566185409
 30
0.0
 40
37.0375923995075169
 50
94.2113521875762814
 51
97.0499496055571029
  0
ARC
  5
246D3
  8
0
 10
5792.0528890578480059
 20
-8.2657896296898912
 30
0.0
 40
0.01
 50
274.2113521875762103
 51
359.9999999999973284
  0
ARC
  5
246D4
  8
0
 10
5801.2748021107026943
 20
-43.0909219254243396
 30
0.0
 40
36.3544171096956106
 50
107.6933070353076971
 51
109.0861760458844998
  0
ARC
  5
246D5
  8
0
 10
5789.3840050578473893
 20
-8.7255356017447632
 30
0.0
 40
0.01
 50
180.0
 51
289.0861760458852814
  0
ARC
  5
246D6
  8
0
 10
5790.2289423733673175
 20
-8.4657051361153286
 30
0.0
 40
0.01
 50
97.0499496055569608
 51
107.6933070353077966
  0
ARC
  5
246D7
  8
0
 10
5794.1334386419239308
 20
-36.1619071052216725
 30
0.0
 40
27.94132527274515
 50
94.2718066895431264
 51
98.0119460390799162
  0
ARC
  5
246D8
  8
0
 10
5792.0528890578480059
 20
-8.3081776436201125
 30
0.0
 40
0.01
 50
359.9999999999973284
 51
94.2718066895430553
  0
ARC
  5
246D9
  8
0
 10
5783.0616569396379418
 20
10.5692910167103093
 30
0.0
 40
20.3687813181304485
 50
288.0921677089327773
 51
290.625898213135315
  0
ARC
  5
246DA
  8
0
 10
5789.3840050578473893
 20
-8.7829153441062786
 30
0.0
 40
0.01
 50
180.0
 51
288.0921677089831974
  0
ARC
  5
246DB
  8
0
 10
5790.2403826318823121
 20
-8.5032186620838122
 30
0.0
 40
0.01
 50
98.0119460390801009
 51
110.6258982130765958
  0
ARC
  5
246DC
  8
0
 10
5802.8865030426359226
 20
-115.0972321670085989
 30
0.0
 40
107.3075483671210009
 50
95.7938286637133842
 51
96.7791523643858369
  0
ARC
  5
246DD
  8
0
 10
5792.0528890578480059
 20
-8.3279060683676178
 30
0.0
 40
0.01
 50
275.7938286637137253
 51
0.0
  0
ARC
  5
246DE
  8
0
 10
5785.2683636105302867
 20
4.4952446968482462
 30
0.0
 40
13.9435415293427507
 50
287.1801184159600098
 51
290.788806881391622
  0
ARC
  5
246DF
  8
0
 10
5789.3840050578473893
 20
-8.8165949591509651
 30
0.0
 40
0.01
 50
180.0
 51
287.1801184160148068
  0
ARC
  5
246E0
  8
0
 10
5790.2208150043807109
 20
-8.5498519452863597
 30
0.0
 40
0.01
 50
96.7791523643853964
 51
110.7888068813920057
  0
ARC
  5
246E1
  8
0
 10
5810.8256641997149927
 20
-201.087675808897103
 30
0.0
 40
193.6193552622692096
 50
95.5636863942181662
 51
96.1070343748260711
  0
ARC
  5
246E2
  8
0
 10
5792.0528890578480059
 20
-8.3704992709586108
 30
0.0
 40
0.01
 50
275.5636863941656998
 51
0.0
  0
ARC
  5
246E3
  8
0
 10
5778.8196468991282018
 20
26.1871696609560907
 30
0.0
 40
36.5783903172291218
 50
286.7917032602200038
 51
288.1684055625469796
  0
ARC
  5
246E4
  8
0
 10
5789.3840050578473893
 20
-8.8219935265224976
 30
0.0
 40
0.01
 50
180.0
 51
286.7917032601678216
  0
ARC
  5
246E5
  8
0
 10
5790.2283106012118878
 20
-8.5770748805071602
 30
0.0
 40
0.01
 50
96.1070343748784666
 51
108.1684055624361065
  0
ARC
  5
246E6
  8
0
 10
5794.8864709656018022
 20
-41.3933410381865627
 30
0.0
 40
33.094152157368292
 50
94.9132718152719832
 51
98.0731922703717345
  0
ARC
  5
246E7
  8
0
 10
5792.0528890578480059
 20
-8.4307571354652246
 30
0.0
 40
0.01
 50
0.0
 51
94.9132718153240234
  0
ARC
  5
246E8
  8
0
 10
5787.093529413728902
 20
-0.2398771546199825
 30
0.0
 40
8.9574064931217681
 50
284.8324476895577959
 51
290.5424167809641176
  0
ARC
  5
246E9
  8
0
 10
5789.3840050578473893
 20
-8.8891432666583867
 30
0.0
 40
0.01
 50
180.0
 51
284.8324476896099782
  0
ARC
  5
246EA
  8
0
 10
5790.2401987669591108
 20
-8.6370702091068914
 30
0.0
 40
0.01
 50
98.0731922704234904
 51
110.5424167809646008
  0
ARC
  5
246EB
  8
0
 10
5861.861545245286834
 20
-632.9678634360670912
 30
0.0
 40
628.3922277016532689
 50
96.3781028851152684
 51
96.546422628859375
  0
ARC
  5
246EC
  8
0
 10
5792.0528890578480059
 20
-8.4551643644594421
 30
0.0
 40
0.01
 50
276.378102884853206
 51
0.0
  0
ARC
  5
246ED
  8
0
 10
5787.5657491468109583
 20
-1.445639082648877
 30
0.0
 40
7.6988272466519554
 50
283.6788954486813168
 51
290.1463758357584197
  0
ARC
  5
246EE
  8
0
 10
5789.3840050578473893
 20
-8.9163826782246005
 30
0.0
 40
0.01
 50
180.0
 51
283.6788954487336127
  0
ARC
  5
246EF
  8
0
 10
5790.2208210772396342
 20
-8.6828077668077235
 30
0.0
 40
0.01
 50
96.5464226289119836
 51
110.1463758357042053
  0
ARC
  5
246F0
  8
0
 10
5795.9415297968198502
 20
-56.8285806028859213
 30
0.0
 40
48.4853516452780582
 50
94.5992481750169532
 51
96.7748432367903746
  0
ARC
  5
246F1
  8
0
 10
5792.0528890578480059
 20
-8.4893873493532084
 30
0.0
 40
0.01
 50
274.5992481749648277
 51
0.0000000000026462
  0
ARC
  5
246F2
  8
0
 10
5787.8922389791077876
 20
-2.2278196171051761
 30
0.0
 40
6.8612677369705342
 50
283.3073937524810049
 51
289.8282974740052964
  0
ARC
  5
246F3
  8
0
 10
5790.2229906200000187
 20
-8.6917129563870716
 30
0.0
 40
0.01
 50
96.7748432367906872
 51
109.8282974740024969
  0
ARC
  5
246F4
  8
0
 10
5758.9339493944098649
 20
306.2355585474185773
 30
0.0
 40
316.4998199176104094
 50
275.67541932248281
 51
276.0063078916738846
  0
ARC
  5
246F5
  8
0
 10
5792.0528890578480059
 20
-8.5367431880546221
 30
0.0
 40
0.01
 50
0.0
 51
96.0063078902067133
  0
ARC
  5
246F6
  8
0
 10
5787.9299965607197009
 20
-1.470345666585178
 30
0.0
 40
7.5997472775618027
 50
281.0447341600911955
 51
287.6280588366191182
  0
ARC
  5
246F7
  8
0
 10
5789.3840050578473893
 20
-8.9195149509776162
 30
0.0
 40
0.01
 50
180.0
 51
281.0447341600917071
  0
ARC
  5
246F8
  8
0
 10
5790.2345069346201853
 20
-8.7227580628119128
 30
0.0
 40
0.01
 50
95.6754193225349638
 51
107.6280588366186066
  0
ARC
  5
246F9
  8
0
 10
5766.8395574076030243
 20
210.2435547633714066
 30
0.0
 40
220.2451502374831023
 50
276.0990743591523255
 51
276.5732461548573724
  0
ARC
  5
246FA
  8
0
 10
5792.0528890578480059
 20
-8.5637100000066582
 30
0.0
 40
0.01
 50
0.0
 51
96.5732461548577987
  0
ARC
  5
246FB
  8
0
 10
5788.3463821889108658
 20
-3.275726041119678
 30
0.0
 40
5.7969971043449453
 50
280.3291332432390845
 51
289.0445924992365008
  0
ARC
  5
246FC
  8
0
 10
5789.3840050578473893
 20
-8.9689390414873138
 30
0.0
 40
0.01
 50
180.0
 51
280.3291332432394256
  0
ARC
  5
246FD
  8
0
 10
5790.2412282212280843
 20
-8.7648766023342617
 30
0.0
 40
0.01
 50
96.099074358942417
 51
109.0445924992376945
  0
ARC
  5
246FE
  8
0
 10
5770.2053089515293323
 20
185.1476184447971889
 30
0.0
 40
194.974457426897601
 50
275.8918107598888128
 51
276.4340386916811099
  0
ARC
  5
246FF
  8
0
 10
5792.0528890578480059
 20
-8.5888595433775876
 30
0.0
 40
0.01
 50
276.4340386922581274
 51
0.0
  0
ARC
  5
24700
  8
0
 10
5788.5547257974285458
 20
-3.7355743536096782
 30
0.0
 40
5.3278447516165039
 50
278.9714759347447739
 51
288.1843322917109731
  0
ARC
  5
24701
  8
0
 10
5789.3840050578473893
 20
-8.9883611102308851
 30
0.0
 40
0.01
 50
180.0
 51
278.9714759347965014
  0
ARC
  5
24702
  8
0
 10
5790.2205344137701104
 20
-8.8068333931467038
 30
0.0
 40
0.01
 50
95.8918107596793163
 51
108.1843322916598993
  0
ARC
  5
24703
  8
0
 10
5783.7948697998517673
 20
65.4384348855490714
 30
0.0
 40
74.5187703534410133
 50
274.9486483125508016
 51
276.3633278512576794
  0
ARC
  5
24704
  8
0
 10
5792.0528890578480059
 20
-8.6112914982557012
 30
0.0
 40
0.01
 50
276.3633278512576226
 51
0.0
  0
ARC
  5
24705
  8
0
 10
5788.7156295942832003
 20
-4.0285448944125051
 30
0.0
 40
5.0061170620849929
 50
282.5339558586139219
 51
287.499158920132686
  0
ARC
  5
24706
  8
0
 10
5790.2239348590628651
 20
-8.8125229053128606
 30
0.0
 40
0.01
 50
94.9486483124985199
 51
107.4991589201319044
  0
ARC
  5
24707
  8
0
 10
5779.8018264368547534
 20
111.6871845852079019
 30
0.0
 40
120.9575249107130048
 50
274.9472550841592238
 51
275.8126318059244113
  0
ARC
  5
24708
  8
0
 10
5792.0528890578480059
 20
-8.6583743178131485
 30
0.0
 40
0.01
 50
0.0
 51
95.8126318059249087
  0
ARC
  5
24709
  8
0
 10
5788.3445138588922418
 20
-2.0085598246029899
 30
0.0
 40
7.0679532073047211
 50
278.4692972635041883
 51
285.4822444276446163
  0
ARC
  5
2470A
  8
0
 10
5789.3840050578473893
 20
-8.9895455375089988
 30
0.0
 40
0.01
 50
180.0
 51
278.4692972635040746
  0
ARC
  5
2470B
  8
0
 10
5790.2339008529379498
 20
-8.8296769172444982
 30
0.0
 40
0.01
 50
94.9472550840022933
 51
105.4822444276443036
  0
ARC
  5
2470C
  8
0
 10
5781.7702326748731139
 20
84.7739503315200551
 30
0.0
 40
94.0113006273899856
 50
275.1611998435898272
 51
276.2787222309046911
  0
ARC
  5
2470D
  8
0
 10
5792.0528890578480059
 20
-8.6833765582198836
 30
0.0
 40
0.01
 50
0.0
 51
96.2787222309046058
  0
ARC
  5
2470E
  8
0
 10
5788.9684469969952261
 20
-4.6167119585791383
 30
0.0
 40
4.422234186814503
 50
275.4043062591572948
 51
286.5127545097723782
  0
ARC
  5
2470F
  8
0
 10
5789.3840050578473893
 20
-9.0093332736204488
 30
0.0
 40
0.01
 50
180.0
 51
275.4043062591572948
  0
ARC
  5
24710
  8
0
 10
5790.2282155072298337
 20
-8.8661452369574505
 30
0.0
 40
0.01
 50
95.1611998434331667
 51
106.5127545097716961
  0
ARC
  5
24711
  8
0
 10
5785.344334514379625
 20
55.2684764162186468
 30
0.0
 40
64.3559963368309127
 50
274.344691420019501
 51
275.9843912940875157
  0
ARC
  5
24712
  8
0
 10
5792.0528890578480059
 20
-8.7268557613454671
 30
0.0
 40
0.01
 50
275.9843912941394137
 51
0.0
  0
ARC
  5
24713
  8
0
 10
5789.1500082662778368
 20
-4.9271951701840591
 30
0.0
 40
4.116620150662575
 50
273.2665047203091149
 51
285.034821476845309
  0
ARC
  5
24714
  8
0
 10
5789.3840050578473893
 20
-9.0271432873390722
 30
0.0
 40
0.01
 50
180.0
 51
273.2665047203091717
  0
ARC
  5
24715
  8
0
 10
5790.2204784504256168
 20
-8.9125543074140374
 30
0.0
 40
0.01
 50
94.3446914198106299
 51
105.0348214768455932
  0
ARC
  5
24716
  8
0
 10
5785.6577782546746676
 20
60.5385820702734634
 30
0.0
 40
69.5958254708115334
 50
273.7750113328841053
 51
275.2715461536200792
  0
ARC
  5
24717
  8
0
 10
5792.0528890578480059
 20
-8.7728419324709321
 30
0.0
 40
0.01
 50
0.0
 51
95.2715461535676269
  0
ARC
  5
24718
  8
0
 10
5786.8859267968728091
 20
6.7468853998194831
 30
0.0
 40
16.0083088337038895
 50
280.8171105719713978
 51
282.0885682039381095
  0
ARC
  5
24719
  8
0
 10
5790.240536600280393
 20
-8.9162180908302773
 30
0.0
 40
0.01
 50
93.7750113326228956
 51
102.0885682039374984
  0
ARC
  5
2471A
  8
0
 10
5786.0813277701254265
 20
52.2642949678654318
 30
0.0
 40
61.3511312715433377
 50
273.8773781682360209
 51
275.5847673345484736
  0
ARC
  5
2471B
  8
0
 10
5792.0528890578480059
 20
-8.8055739259724888
 30
0.0
 40
0.01
 50
0.0
 51
95.5847673345487152
  0
ARC
  5
2471C
  8
0
 10
5789.3897726677696483
 20
-5.0751055560859291
 30
0.0
 40
3.9613222677384532
 50
270.0990310314426779
 51
282.2242124612052976
  0
ARC
  5
2471D
  8
0
 10
5790.2306517911856645
 20
-8.9563840637479935
 30
0.0
 40
0.01
 50
93.8773781680794031
 51
102.2242124612050986
  0
ARC
  5
2471E
  8
0
 10
5783.781636678844734
 20
93.6206660066454646
 30
0.0
 40
102.8050435614013054
 50
273.589692262038227
 51
274.6152101153081162
  0
ARC
  5
2471F
  8
0
 10
5792.0528890578480059
 20
-8.8410700945608127
 30
0.0
 40
0.01
 50
274.6152101156737899
 51
0.0
  0
ARC
  5
24720
  8
0
 10
5789.5332358403948092
 20
-5.1487945081244666
 30
0.0
 40
3.894551130697768
 50
270.7177109362344254
 51
280.1152341196519728
  0
ARC
  5
24721
  8
0
 10
5790.2189862403038205
 20
-8.9926553174225212
 30
0.0
 40
0.01
 50
93.5896922621427763
 51
100.1152341196519018
  0
ARC
  5
24722
  8
0
 10
5788.4184614033883918
 20
38.0196930923034202
 30
0.0
 40
47.0724118433606975
 50
272.2174401041024794
 51
274.4291164889013999
  0
ARC
  5
24723
  8
0
 10
5792.0528890578480059
 20
-8.9021732829655562
 30
0.0
 40
0.01
 50
274.4291164891105268
 51
0.0
  0
ARC
  5
24724
  8
0
 10
5789.7961262501039528
 20
-5.2196703576184262
 30
0.0
 40
3.823596242136905
 50
270.6236541746243915
 51
276.6515151643474724
  0
ARC
  5
24725
  8
0
 10
5790.2401726786356448
 20
-9.0274627517799573
 30
0.0
 40
0.01
 50
92.2174401041546048
 51
96.6515151643474013
  0
ARC
  5
24726
  8
0
 10
5789.0030771659212405
 20
36.123690977254391
 30
0.0
 40
45.1707350764446289
 50
271.5523995524426937
 51
273.8722674530879999
  0
ARC
  5
24727
  8
0
 10
5792.0528890578480059
 20
-8.9339458900812119
 30
0.0
 40
0.01
 50
273.8722674531924213
 51
0.0
  0
ARC
  5
24728
  8
0
 10
5789.8356380344857826
 20
-3.7020908519961599
 30
0.0
 40
5.3427023566920733
 50
271.4678248602019153
 51
274.193729544922121
  0
ARC
  5
24729
  8
0
 10
5790.227076075473633
 20
-9.0404612755809097
 30
0.0
 40
0.01
 50
91.5523995523905967
 51
94.19372954492205
  0
ARC
  5
2472A
  8
0
 10
5789.8964399579526798
 20
32.7951982390068082
 30
0.0
 40
41.8397312912245383
 50
270.4840256464515278
 51
272.9550805867473855
  0
ARC
  5
2472B
  8
0
 10
5792.0528890578480059
 20
-8.9789103352717419
 30
0.0
 40
0.01
 50
272.9550805867473855
 51
359.9999999999973284
  0
ARC
  5
2472C
  8
0
 10
5790.24809144939627
 20
36.2825364670717931
 30
0.0
 40
45.3271153614543394
 50
270.4721185097220086
 51
272.2824630469264093
  0
ARC
  5
2472D
  8
0
 10
5792.0528890578480059
 20
-8.9986257339570983
 30
0.0
 40
0.01
 50
272.2824630470827856
 51
359.9999999999973284
  0
ARC
  5
2472E
  8
0
 10
5791.1524021563391216
 20
31.3722157349409194
 30
0.0
 40
40.4155211204896716
 50
270.2075992927480002
 51
271.2770128787955741
  0
ARC
  5
2472F
  8
0
 10
5792.0528890578480059
 20
-9.0232699083651582
 30
0.0
 40
0.01
 50
271.2770128788476995
 51
0.0000000000026462
  0
ENDSEC
  0
EOF
