  0
SECTION
  2
HEADER
  9
$ACADVER
  1
AC1009
  9
$INSBASE
 10
5134.831140640416379
 20
-0.9275175569940579
 30
0.0
  9
$EXTMIN
 10
5130.9743114798538954
 20
-4.0520054730940593
 30
0.0
  9
$EXTMAX
 10
5134.8423368082749221
 20
2.1969703591059391
 30
0.0
  9
$LIMMIN
 10
0.0
 20
0.0
  9
$LIMMAX
 10
11.6929133858000007
 20
8.2677165353999982
  9
$ORTHOMODE
 70
     0
  9
$REGENMODE
 70
     1
  9
$FILLMODE
 70
     1
  9
$QTEXTMODE
 70
     0
  9
$MIRRTEXT
 70
     0
  9
$DRAGMODE
 70
     2
  9
$LTSCALE
 40
0.6431102362
  9
$OSMODE
 70
  4095
  9
$ATTMODE
 70
     1
  9
$TEXTSIZE
 40
0.2
  9
$TRACEWID
 40
0.05
  9
$TEXTSTYLE
  7
STANDARD
  9
$CLAYER
  8
0
  9
$CELTYPE
  6
BYLAYER
  9
$CECOLOR
 62
   256
  9
$DIMSCALE
 40
1.0
  9
$DIMASZ
 40
0.1875
  9
$DIMEXO
 40
0.0625
  9
$DIMDLI
 40
0.4443307087
  9
$DIMRND
 40
0.0
  9
$DIMDLE
 40
0.0
  9
$DIMEXE
 40
0.125
  9
$DIMTP
 40
0.01
  9
$DIMTM
 40
0.01
  9
$DIMTXT
 40
2.0
  9
$DIMCEN
 40
0.1052362205
  9
$DIMTSZ
 40
0.0
  9
$DIMTOL
 70
     1
  9
$DIMLIM
 70
     0
  9
$DIMTIH
 70
     1
  9
$DIMTOH
 70
     1
  9
$DIMSE1
 70
     0
  9
$DIMSE2
 70
     0
  9
$DIMTAD
 70
     0
  9
$DIMZIN
 70
     0
  9
$DIMBLK
  1

  9
$DIMASO
 70
     1
  9
$DIMSHO
 70
     1
  9
$DIMPOST
  1
\X
  9
$DIMAPOST
  1

  9
$DIMALT
 70
     1
  9
$DIMALTD
 70
     2
  9
$DIMALTF
 40
25.3999999999999986
  9
$DIMLFAC
 40
1.0
  9
$DIMTOFL
 70
     0
  9
$DIMTVP
 40
0.0
  9
$DIMTIX
 70
     0
  9
$DIMSOXD
 70
     0
  9
$DIMSAH
 70
     0
  9
$DIMBLK1
  1

  9
$DIMBLK2
  1

  9
$DIMSTYLE
  2
STANDARD
  9
$DIMCLRD
 70
     0
  9
$DIMCLRE
 70
     0
  9
$DIMCLRT
 70
     0
  9
$DIMTFAC
 40
1.0
  9
$DIMGAP
 40
0.09
  9
$LUNITS
 70
     2
  9
$LUPREC
 70
     4
  9
$SKETCHINC
 40
0.1
  9
$FILLETRAD
 40
0.0
  9
$AUNITS
 70
     0
  9
$AUPREC
 70
     0
  9
$MENU
  1
.
  9
$ELEVATION
 40
0.0
  9
$PELEVATION
 40
0.0
  9
$THICKNESS
 40
0.0
  9
$LIMCHECK
 70
     0
  9
$BLIPMODE
 70
     0
  9
$CHAMFERA
 40
0.0
  9
$CHAMFERB
 40
0.0
  9
$SKPOLY
 70
     0
  9
$TDCREATE
 40
2458060.468368056230247
  9
$TDUPDATE
 40
2460089.7309953700751066
  9
$TDINDWG
 40
0.6042084491
  9
$TDUSRTIMER
 40
0.6042084491
  9
$USRTIMER
 70
     1
  9
$ANGBASE
 50
0.0
  9
$ANGDIR
 70
     0
  9
$PDMODE
 70
     0
  9
$PDSIZE
 40
0.3125
  9
$PLINEWID
 40
0.0
  9
$COORDS
 70
     1
  9
$SPLFRAME
 70
     0
  9
$SPLINETYPE
 70
     6
  9
$SPLINESEGS
 70
     8
  9
$ATTDIA
 70
     1
  9
$ATTREQ
 70
     1
  9
$HANDLING
 70
     1
  9
$HANDSEED
  5
21999
  9
$SURFTAB1
 70
     6
  9
$SURFTAB2
 70
     6
  9
$SURFTYPE
 70
     6
  9
$SURFU
 70
     6
  9
$SURFV
 70
     6
  9
$UCSNAME
  2

  9
$UCSORG
 10
0.0
 20
0.0
 30
0.0
  9
$UCSXDIR
 10
1.0
 20
0.0
 30
0.0
  9
$UCSYDIR
 10
0.0
 20
1.0
 30
0.0
  9
$PUCSNAME
  2

  9
$PUCSORG
 10
0.0
 20
0.0
 30
0.0
  9
$PUCSXDIR
 10
1.0
 20
0.0
 30
0.0
  9
$PUCSYDIR
 10
0.0
 20
1.0
 30
0.0
  9
$USERI1
 70
     0
  9
$USERI2
 70
     0
  9
$USERI3
 70
     0
  9
$USERI4
 70
     0
  9
$USERI5
 70
     0
  9
$USERR1
 40
0.0
  9
$USERR2
 40
0.0
  9
$USERR3
 40
0.0
  9
$USERR4
 40
0.0
  9
$USERR5
 40
0.0
  9
$WORLDVIEW
 70
     1
  9
$SHADEDGE
 70
     3
  9
$SHADEDIF
 70
    70
  9
$TILEMODE
 70
     1
  9
$MAXACTVP
 70
    64
  9
$PLIMCHECK
 70
     0
  9
$PEXTMIN
 10
1.0000000000000000E+20
 20
1.0000000000000000E+20
 30
1.0000000000000000E+20
  9
$PEXTMAX
 10
-1.0000000000000000E+20
 20
-1.0000000000000000E+20
 30
-1.0000000000000000E+20
  9
$PLIMMIN
 10
0.0
 20
0.0
  9
$PLIMMAX
 10
12.0
 20
9.0
  9
$UNITMODE
 70
     0
  9
$VISRETAIN
 70
     1
  9
$PLINEGEN
 70
     0
  9
$PSLTSCALE
 70
     1
  0
ENDSEC
  0
SECTION
  2
TABLES
  0
TABLE
  2
VPORT
 70
     1
  0
VPORT
  2
*ACTIVE
 70
     0
 10
0.0
 20
0.0
 11
1.0
 21
1.0
 12
1340.550413987813954
 22
-121.1081739900995018
 13
0.0
 23
0.0
 14
1.0
 24
1.0
 15
0.0
 25
0.0
 16
0.0
 26
0.0
 36
5.1040778033513332
 17
3792.35791015625
 27
120.1806564331053977
 37
0.0
 40
6.3009784050060773
 41
2.6486111111111108
 42
50.0
 43
0.0
 44
0.0
 50
0.0
 51
0.0
 71
     0
 72
   100
 73
     1
 74
     1
 75
     0
 76
     0
 77
     0
 78
     0
  0
ENDTAB
  0
TABLE
  2
LTYPE
 70
     2
  0
LTYPE
  2
CONTINUOUS
 70
     0
  3
Solid line
 72
    65
 73
     0
 40
0.0
  0
LTYPE
  2
PHANTOM2
 70
     0
  3
___ _ _ ___ _ _ ___ _ _ ___ _ _
 72
    65
 73
     6
 40
1.25
 49
0.625
 49
-0.125
 49
0.125
 49
-0.125
 49
0.125
 49
-0.125
  0
ENDTAB
  0
TABLE
  2
LAYER
 70
     2
  0
LAYER
  2
0
 70
     0
 62
   255
  6
CONTINUOUS
  0
LAYER
  2
DEFPOINTS
 70
     0
 62
     7
  6
CONTINUOUS
  0
ENDTAB
  0
TABLE
  2
STYLE
 70
     1
  0
STYLE
  2
STANDARD
 70
     0
 40
0.0
 41
0.8
 50
0.0
 71
     0
 42
0.2
  3
txt
  4

  0
ENDTAB
  0
TABLE
  2
VIEW
 70
     0
  0
ENDTAB
  0
TABLE
  2
UCS
 70
     0
  0
ENDTAB
  0
TABLE
  2
APPID
 70
     9
  0
APPID
  2
ACAD
 70
     0
  0
APPID
  2
ACAD_MLEADERVER
 70
     0
  0
APPID
  2
ACAD_EXEMPT_FROM_CAD_STANDARDS
 70
     0
  0
APPID
  2
ACAD_NAV_VCDISPLAY
 70
     0
  0
APPID
  2
ACAECLAYERSTANDARD
 70
     0
  0
APPID
  2
ACCMTRANSPARENCY
 70
     0
  0
APPID
  2
ACAD_DSTYLE_DIMJAG
 70
     0
  0
APPID
  2
ACAD_DSTYLE_DIMTALN
 70
     0
  0
APPID
  2
ACDBATTR
 70
     0
  0
ENDTAB
  0
TABLE
  2
DIMSTYLE
 70
     1
  0
DIMSTYLE
  2
STANDARD
 70
     0
  3

  4

  5

  6

  7

 40
1.0
 41
0.1875
 42
0.0625
 43
0.38
 44
0.125
 45
0.0
 46
0.0
 47
0.01
 48
0.01
140
0.15625
141
0.09
142
0.0
143
25.3999999999999986
144
1.0
145
0.0
146
1.0
147
0.09
 71
     1
 72
     0
 73
     1
 74
     1
 75
     0
 76
     0
 77
     0
 78
     4
170
     0
171
     2
172
     0
173
     0
174
     0
175
     0
176
     0
177
     0
178
     0
  0
ENDTAB
  0
ENDSEC
  0
SECTION
  2
BLOCKS
  0
BLOCK
  8
0
  2
$MODEL_SPACE
 70
     0
 10
0.0
 20
0.0
 30
0.0
  3
$MODEL_SPACE
  1

  0
ENDBLK
  5
21
  8
0
  0
BLOCK
 67
     1
  8
0
  2
$PAPER_SPACE
 70
     0
 10
0.0
 20
0.0
 30
0.0
  3
$PAPER_SPACE
  1

  0
ENDBLK
  5
1D
 67
     1
  8
0
  0
BLOCK
  8
0
  2
_FILLED
 70
     0
 10
0.0
 20
0.0
 30
0.0
  3
_FILLED
  1

  0
SOLID
  5
1CCA0
  8
0
  6
BYBLOCK
 62
     0
 10
0.0
 20
0.0
 30
0.0
 11
-1.0
 21
0.1666666667
 31
0.0
 12
-1.0
 22
-0.1666666667
 32
0.0
 13
-1.0
 23
-0.1666666667
 33
0.0
  0
ENDBLK
  5
1CCA1
  8
0
  6
BYBLOCK
 62
     0
  0
BLOCK
  8
0
  2
A$C54BF7565
 70
     0
 10
0.0
 20
0.0
 30
0.0
  3
A$C54BF7565
  1

  0
LINE
  5
1EDB5
  8
0
 10
4.213411105075707
 20
0.392500014379415
 30
0.0
 11
4.2134111050757026
 21
29.1282889381617487
 31
0.0
  0
LINE
  5
1EDB6
  8
0
 10
4.6059111050757053
 20
29.5207889381617505
 30
0.0
 11
70.7849254185449297
 21
29.5207889381617505
 31
0.0
  0
ARC
  5
1EDB7
  8
0
 10
4.6059111050757009
 20
29.1282889381617487
 30
0.0
 40
0.3925
 50
89.9999999999993889
 51
180.0
  0
LINE
  5
1EDB8
  8
0
 10
5.89937377115979
 20
28.8903825271539816
 30
0.0
 11
69.4914627524608335
 21
28.8903825271539816
 31
0.0
  0
LINE
  5
1EDB9
  8
0
 10
4.8893737711618419
 20
1.6404064253871229
 30
0.0
 11
4.8893737711597574
 21
27.8803825271538983
 31
0.0
  0
ARC
  5
1EDBA
  8
0
 10
5.8993737711597944
 20
27.8803825271539587
 30
0.0
 40
1.01
 50
90.0000000000001847
 51
180.0000000000036096
  0
LINE
  5
1EDBB
  8
0
 10
10.9121358131603206
 20
28.1376674354441683
 30
0.0
 11
64.4787007104603163
 21
28.1376674354441683
 31
0.0
  0
LINE
  5
1EDBC
  8
0
 10
8.9771358131603112
 20
26.2026674354441695
 30
0.0
 11
8.9771358131603094
 21
3.3181215170969902
 31
0.0
  0
ARC
  5
1EDBD
  8
0
 10
10.9121358131603099
 20
26.2026674354441802
 30
0.0
 40
1.9350000000000001
 50
89.999999999999801
 51
180.000000000000199
  0
LINE
  5
1EDBE
  8
0
 10
5.1851959221613591
 20
28.5945603761523515
 30
0.0
 11
9.5438841915643415
 21
27.5709190570401397
 31
0.0
  0
CIRCLE
  5
1EDBF
  8
0
 10
17.9746459467603117
 20
14.7603944762705801
 30
0.0
 40
2.6574803149999968
  0
CIRCLE
  5
1EDC0
  8
0
 10
17.9746459467603117
 20
14.7603944762705801
 30
0.0
 40
1.318897637799999
  0
LINE
  5
1EDC1
  8
0
 10
19.4313388601603094
 20
16.6895283345705785
 30
0.0
 11
16.5179530334603086
 21
16.6895283345705785
 31
0.0
  0
LINE
  5
1EDC2
  8
0
 10
16.5179530334603086
 20
12.8312606180704591
 30
0.0
 11
16.5179530334603086
 21
16.6895283345705785
 31
0.0
  0
LINE
  5
1EDC3
  8
0
 10
19.4313388601603094
 20
12.8312606180707007
 30
0.0
 11
19.4313388601603094
 21
16.6895283345705785
 31
0.0
  0
LINE
  5
1EDC4
  8
0
 10
16.5179530334603086
 20
12.8312606180704591
 30
0.0
 11
19.4313388601603094
 21
12.8312606180707007
 31
0.0
  0
LINE
  5
1EDC5
  8
0
 10
71.1774254185449422
 20
0.392500014379415
 30
0.0
 11
71.177425418544928
 21
29.1282889381617487
 31
0.0
  0
ARC
  5
1EDC6
  8
0
 10
70.7849254185449297
 20
29.1282889381617487
 30
0.0
 40
0.3925
 50
0.0
 51
90.0000000000003979
  0
LINE
  5
1EDC7
  8
0
 10
70.5014627524587922
 20
1.6404064253871229
 30
0.0
 11
70.5014627524608812
 21
27.8803825271538983
 31
0.0
  0
ARC
  5
1EDC8
  8
0
 10
69.4914627524608477
 20
27.8803825271539587
 30
0.0
 40
1.01
 50
359.9999999999964189
 51
89.999999999999801
  0
LINE
  5
1EDC9
  8
0
 10
66.4137007104603185
 20
26.2026674354441695
 30
0.0
 11
66.4137007104603185
 21
3.3181215170969902
 31
0.0
  0
ARC
  5
1EDCA
  8
0
 10
64.4787007104603163
 20
26.2026674354441802
 30
0.0
 40
1.9350000000000001
 50
359.9999999999997726
 51
90.0
  0
LINE
  5
1EDCB
  8
0
 10
70.2056406014592795
 20
28.5945603761523515
 30
0.0
 11
65.8469523320562757
 21
27.5709190570401397
 31
0.0
  0
LINE
  5
1EDCC
  8
0
 10
6.0587804917603156
 20
16.9648612744813292
 30
0.0
 11
6.0587804917603156
 21
12.5707899059285495
 31
0.0
  0
LINE
  5
1EDCD
  8
0
 10
6.1845708572603106
 20
16.9745707898439697
 30
0.0
 11
6.1845708572603106
 21
12.5516456001736803
 31
0.0
  0
ARC
  5
1EDCE
  8
0
 10
6.6768621544985933
 20
16.9224693827637793
 30
0.0
 40
0.6195337071513586
 50
164.1442345569018073
 51
176.0764429610183868
  0
ARC
  5
1EDCF
  8
0
 10
6.2840565643031701
 20
17.0322553910392891
 30
0.0
 40
0.2116849357968146
 50
148.9114272159978043
 51
163.6808251279447859
  0
ARC
  5
1EDD0
  8
0
 10
6.1492013395549563
 20
17.1135685847582408
 30
0.0
 40
0.0542118678941835
 50
122.0236997237583978
 51
148.9114272159970938
  0
ARC
  5
1EDD1
  8
0
 10
6.1294117326997544
 20
17.1440896121663009
 30
0.0
 40
0.0178513052483979
 50
68.3637245332240724
 51
120.1174353847827945
  0
ARC
  5
1EDD2
  8
0
 10
6.1093204837146011
 20
17.1172519626224791
 30
0.0
 40
0.0509679580751473
 50
18.2421840615057
 51
58.4438507226990467
  0
ARC
  5
1EDD3
  8
0
 10
5.8217205392181093
 20
17.0102690391100708
 30
0.0
 40
0.3577903413166022
 50
5.3853596804652684
 51
20.0965078311244412
  0
ARC
  5
1EDD4
  8
0
 10
3.097786928403635
 20
16.7137066941642907
 30
0.0
 40
3.0977871295269188
 50
4.8305879622378782
 51
6.1178368155844636
  0
ARC
  5
1EDD5
  8
0
 10
6.6288147452080004
 20
12.5871305066994204
 30
0.0
 40
0.5702684151671137
 50
181.6419910366743125
 51
196.0954335816371099
  0
ARC
  5
1EDD6
  8
0
 10
6.2840565643031701
 20
12.4885112934841995
 30
0.0
 40
0.2116849357968146
 50
196.3191748720554131
 51
211.0885727840025083
  0
ARC
  5
1EDD7
  8
0
 10
6.1492013395549563
 20
12.4071980997652496
 30
0.0
 40
0.0542118678941835
 50
211.0885727840025936
 51
237.9763002762416022
  0
ARC
  5
1EDD8
  8
0
 10
6.1294117326997544
 20
12.3766770723571895
 30
0.0
 40
0.0178513052483979
 50
239.8825646152172055
 51
291.636275466775885
  0
ARC
  5
1EDD9
  8
0
 10
6.1093204837146011
 20
12.4035147219010096
 30
0.0
 40
0.0509679580751473
 50
301.5561492773010173
 51
341.7578159384942751
  0
ARC
  5
1EDDA
  8
0
 10
5.8217205392181093
 20
12.5104976454134196
 30
0.0
 40
0.3577903413166022
 50
339.9034921688755162
 51
354.6146403195347148
  0
ARC
  5
1EDDB
  8
0
 10
4.494339004003983
 20
12.6641567549704206
 30
0.0
 40
1.6939723957951669
 50
353.6539827235096141
 51
356.1916950896656999
  0
LINE
  5
1EDDC
  8
0
 10
4.6059111050757053
 20
0.0000000143794168
 30
0.0
 11
70.7849254185449297
 21
0.0000000143794168
 31
0.0
  0
ARC
  5
1EDDD
  8
0
 10
4.6059111050757009
 20
0.392500014379415
 30
0.0
 40
0.3925
 50
180.0
 51
270.0000000000003979
  0
LINE
  5
1EDDE
  8
0
 10
5.89937377115979
 20
0.6304064253871929
 30
0.0
 11
69.4914627524608335
 21
0.6304064253871929
 31
0.0
  0
ARC
  5
1EDDF
  8
0
 10
5.8993737711597944
 20
1.640406425387205
 30
0.0
 40
1.01
 50
179.9999999999967031
 51
269.9999999999997726
  0
LINE
  5
1EDE0
  8
0
 10
10.9121358131603206
 20
1.383121517096995
 30
0.0
 11
64.4787007104603163
 21
1.383121517096995
 31
0.0
  0
ARC
  5
1EDE1
  8
0
 10
10.9121358131603099
 20
3.3181215170969902
 30
0.0
 40
1.9350000000000001
 50
180.0
 51
270.0
  0
LINE
  5
1EDE2
  8
0
 10
5.1851959221613591
 20
0.9262285763888158
 30
0.0
 11
9.5438841915643415
 21
1.9498698955010241
 31
0.0
  0
ARC
  5
1EDE3
  8
0
 10
70.7849254185449297
 20
0.392500014379415
 30
0.0
 40
0.3925
 50
269.9999999999993747
 51
0.0
  0
ARC
  5
1EDE4
  8
0
 10
69.4914627524608477
 20
1.640406425387205
 30
0.0
 40
1.01
 50
270.0000000000002274
 51
0.0000000000032569
  0
ARC
  5
1EDE5
  8
0
 10
64.4787007104603163
 20
3.3181215170969902
 30
0.0
 40
1.9350000000000001
 50
269.9999999999997726
 51
0.0
  0
LINE
  5
1EDE6
  8
0
 10
70.2056406014592795
 20
0.9262285763888158
 30
0.0
 11
65.8469523320562757
 21
1.9498698955010241
 31
0.0
  0
LINE
  5
1EDE7
  8
0
 10
37.6954182618103175
 20
14.7603944762705801
 30
0.0
 11
52.5300195105287386
 21
42.8960013024525324
 31
0.0
  0
ENDBLK
  5
1EDEB
  8
0
  0
ENDSEC
  0
SECTION
  2
ENTITIES
  0
ATTDEF
  5
3930
  8
DEFPOINTS
 10
5134.8316701416060823
 20
-0.924295573239064
 30
0.0
 40
0.001
  1
P40880-SN
  3

  2
MODELNUMBER
 70
     0
1001
ACDBATTR
1070
     0
1070
     1
  0
ATTDEF
  5
3931
  8
DEFPOINTS
 10
5134.8316701416060823
 20
-0.9259622399057292
 30
0.0
 40
0.001
  1
ONE
  3

  2
TRADENAME
 70
     0
1001
ACDBATTR
1070
     0
1070
     1
  0
ATTDEF
  5
3932
  8
DEFPOINTS
 10
5134.8316701416060823
 20
-0.9276289065723943
 30
0.0
 40
0.001
  1
VALVE TRIM
  3

  2
PRODUCT
 70
     0
1001
ACDBATTR
1070
     0
1070
     1
  0
LINE
  5
20F85
  8
0
 10
5133.8411406404156878
 20
2.1969703591059391
 30
0.0
 11
5134.831140640416379
 21
2.1969703591059391
 31
0.0
  0
LINE
  5
20F86
  8
0
 10
5134.831140640416379
 20
2.1969703591059391
 30
0.0
 11
5134.831140640416379
 21
-4.0520054730940593
 31
0.0
  0
LINE
  5
20F87
  8
0
 10
5133.7711406404159789
 20
2.1269703591059388
 30
0.0
 11
5133.7711406404159789
 21
-3.9820054730940551
 31
0.0
  0
ARC
  5
20F88
  8
0
 10
5133.8411406404156878
 20
2.1269703591059388
 30
0.0
 40
0.07
 50
90.0
 51
179.999999999997101
  0
LINE
  5
20F89
  8
0
 10
5133.741140640417143
 20
0.07197035910594
 30
0.0
 11
5133.7611406404157606
 21
0.07197035910594
 31
0.0
  0
LINE
  5
20F8A
  8
0
 10
5133.7111406404173977
 20
0.0419703591059388
 30
0.0
 11
5133.7111406404173977
 21
-1.897005473094054
 31
0.0
  0
ARC
  5
20F8B
  8
0
 10
5133.741140640417143
 20
0.0419703591059388
 30
0.0
 40
0.03
 50
90.0
 51
179.9999999999949125
  0
ARC
  5
20F8C
  8
0
 10
5133.7611406404157606
 20
0.0619703591059455
 30
0.0
 40
0.01
 50
359.9999999999797069
 51
90.0000000000521254
  0
LINE
  5
20F8D
  8
0
 10
5132.9311406404158333
 20
-0.141029640894061
 30
0.0
 11
5133.7111406404173977
 21
-0.141029640894061
 31
0.0
  0
LINE
  5
20F8E
  8
0
 10
5132.921140640417434
 20
-0.151029640894059
 30
0.0
 11
5132.921140640417434
 21
-1.7040054730940559
 31
0.0
  0
ARC
  5
20F8F
  8
0
 10
5132.9311406404158333
 20
-0.151029640894059
 30
0.0
 40
0.01
 50
89.9999999999478888
 51
180.0
  0
LINE
  5
20F90
  8
0
 10
5131.874553512251623
 20
-0.5260296408940591
 30
0.0
 11
5132.4061406404171066
 21
-0.5260296408940591
 31
0.0
  0
LINE
  5
20F91
  8
0
 10
5132.4311406404167428
 20
-0.5260296408940591
 30
0.0
 11
5132.9061406404171066
 21
-0.5260296408940591
 31
0.0
  0
LINE
  5
20F92
  8
0
 10
5132.421140640417434
 20
-0.5360296408940571
 30
0.0
 11
5132.421140640417434
 21
-1.3190054730940579
 31
0.0
  0
ARC
  5
20F93
  8
0
 10
5132.9061406404171066
 20
-0.5110296408940584
 30
0.0
 40
0.015
 50
270.0
 51
0.0
  0
ARC
  5
20F94
  8
0
 10
5132.4311406404167428
 20
-0.5360296408940571
 30
0.0
 40
0.01
 50
90.0
 51
180.0000000000100897
  0
ARC
  5
20F95
  8
0
 10
5132.4061406404171066
 20
-0.5410296408940596
 30
0.0
 40
0.015
 50
0.0000000000034604
 51
90.0
  0
LINE
  5
20F96
  8
0
 10
5133.8411406404156878
 20
-4.0520054730940593
 30
0.0
 11
5134.831140640416379
 21
-4.0520054730940593
 31
0.0
  0
ARC
  5
20F97
  8
0
 10
5133.8411406404156878
 20
-3.9820054730940551
 30
0.0
 40
0.07
 50
180.0000000000028137
 51
270.0
  0
LINE
  5
20F98
  8
0
 10
5133.741140640417143
 20
-1.9270054730940589
 30
0.0
 11
5133.7611406404157606
 21
-1.9270054730940589
 31
0.0
  0
ARC
  5
20F99
  8
0
 10
5133.741140640417143
 20
-1.897005473094054
 30
0.0
 40
0.03
 50
180.0000000000050875
 51
270.0
  0
ARC
  5
20F9A
  8
0
 10
5133.7611406404157606
 20
-1.9170054730940611
 30
0.0
 40
0.01
 50
269.9999999999478746
 51
0.0000000000203555
  0
LINE
  5
20F9B
  8
0
 10
5132.9311406404158333
 20
-1.7140054730940579
 30
0.0
 11
5133.7111406404173977
 21
-1.7140054730940579
 31
0.0
  0
ARC
  5
20F9C
  8
0
 10
5132.9311406404158333
 20
-1.7040054730940559
 30
0.0
 40
0.01
 50
180.0
 51
270.0000000000521254
  0
LINE
  5
20F9D
  8
0
 10
5131.9454133890249068
 20
-1.3290054730940559
 30
0.0
 11
5132.4061406404171066
 21
-1.3290054730940559
 31
0.0
  0
LINE
  5
20F9E
  8
0
 10
5132.4311406404167428
 20
-1.3290054730940559
 30
0.0
 11
5132.9061406404171066
 21
-1.3290054730940559
 31
0.0
  0
ARC
  5
20F9F
  8
0
 10
5132.9061406404171066
 20
-1.3440054730940569
 30
0.0
 40
0.015
 50
0.0
 51
90.0
  0
ARC
  5
20FA0
  8
0
 10
5132.4311406404167428
 20
-1.3190054730940579
 30
0.0
 40
0.01
 50
179.9999999999897966
 51
270.0
  0
ARC
  5
20FA1
  8
0
 10
5132.4061406404171066
 20
-1.314005473094056
 30
0.0
 40
0.015
 50
270.0
 51
359.9999999999964757
  0
ARC
  5
20FA2
  8
0
 10
5130.9882337502021983
 20
-1.500078124494457
 30
0.0
 40
0.0139582444617251
 50
184.1144387696886042
 51
271.779035733468902
  0
ARC
  5
20FA3
  8
0
 10
5131.7625524944733115
 20
-1.499868819052846
 30
0.0
 40
0.0141641071187868
 50
268.7659366430203818
 51
352.7415751097784096
  0
LINE
  5
20FA4
  8
0
 10
5131.766603095854407
 20
-1.5140296408940761
 30
0.0
 11
5130.9843114798541137
 21
-1.514029640894101
 31
0.0
  0
LINE
  5
20FA5
  8
0
 10
5131.766603095854407
 20
-3.7140296408940432
 30
0.0
 11
5130.9843114798541137
 21
-3.7140296408940721
 31
0.0
  0
ARC
  5
20FA6
  8
0
 10
5130.9843114798541137
 20
-3.704029640894074
 30
0.0
 40
0.01
 50
180.0
 51
270.0
  0
ARC
  5
20FA7
  8
0
 10
5131.766603095854407
 20
-3.7040296408940452
 30
0.0
 40
0.01
 50
270.0
 51
0.0
  0
LINE
  5
20FA8
  8
0
 10
5130.9743114798548049
 20
-1.5240296408940739
 30
0.0
 11
5130.9743114798548049
 21
-3.704029640894074
 31
0.0
  0
ARC
  5
20FA9
  8
0
 10
5130.9843114798541137
 20
-1.5240296408940739
 30
0.0
 40
0.01
 50
90.0
 51
180.0
  0
LINE
  5
20FAA
  8
0
 10
5131.7766030958537158
 20
-1.5240296408940739
 30
0.0
 11
5131.7766030958537158
 21
-3.7040296408940452
 31
0.0
  0
ARC
  5
20FAB
  8
0
 10
5131.766603095854407
 20
-1.5240296408940739
 30
0.0
 40
0.01
 50
0.0
 51
90.0
  0
ARC
  5
20FAC
  8
0
 10
5135.1392864993240437
 20
-1.9296896061958819
 30
0.0
 40
4.1683688655337319
 50
174.4017406230784957
 51
177.687774963054494
  0
ARC
  5
20FAD
  8
0
 10
5131.0007515394154325
 20
-1.5240296408940739
 30
0.0
 40
0.01
 50
90.0
 51
174.4017406230796041
  0
ARC
  5
20FAE
  8
0
 10
5134.144064330054789
 20
-1.9525678436941081
 30
0.0
 40
3.1707428044003829
 50
172.2077543229812875
 51
178.5682210477284002
  0
ARC
  5
20FAF
  8
0
 10
5131.012507195926446
 20
-1.524029640894077
 30
0.0
 40
0.01
 50
90.0
 51
172.2077543229775074
  0
ARC
  5
20FB0
  8
0
 10
5134.9226297229106422
 20
-2.240610390450342
 30
0.0
 40
3.9530035386008469
 50
169.5291797730546932
 51
177.2101206066045904
  0
ARC
  5
20FB1
  8
0
 10
5131.0452866977484518
 20
-1.5240296408940739
 30
0.0
 40
0.01
 50
90.0
 51
169.5291797730563985
  0
ARC
  5
20FB2
  8
0
 10
5134.7801259634652524
 20
-2.3673232236426669
 30
0.0
 40
3.8075709298349518
 50
167.2382207666929901
 51
178.2596052903984116
  0
ARC
  5
20FB3
  8
0
 10
5131.0568607650657214
 20
-1.5240296408940739
 30
0.0
 40
0.01
 50
347.2382207666944964
 51
90.0
  0
ARC
  5
20FB4
  8
0
 10
5135.0735150078489823
 20
-2.5796404240826258
 30
0.0
 40
4.1067513191855509
 50
165.0681344105541939
 51
174.7918307713790966
  0
ARC
  5
20FB5
  8
0
 10
5131.1420621137913258
 20
-2.2212849860998172
 30
0.0
 40
0.159
 50
174.7918307713790966
 51
178.464258386079905
  0
ARC
  5
20FB6
  8
0
 10
5131.11509900575129
 20
-1.524029640894077
 30
0.0
 40
0.01
 50
90.0
 51
165.0681344105580877
  0
ARC
  5
20FB7
  8
0
 10
5135.0254336106418123
 20
-2.703297330901751
 30
0.0
 40
4.0549277323491726
 50
163.1355834351433884
 51
172.8687775565882134
  0
ARC
  5
20FB8
  8
0
 10
5131.1353224059939748
 20
-1.524029640894077
 30
0.0
 40
0.01
 50
343.1355834351439853
 51
90.0
  0
ARC
  5
20FB9
  8
0
 10
5131.1596430771933228
 20
-2.2196482358107441
 30
0.0
 40
0.159
 50
172.8687775565884124
 51
177.9450975563349004
  0
ARC
  5
20FBA
  8
0
 10
5139.7232012523991216
 20
-3.7991301425945991
 30
0.0
 40
8.8459171538472212
 50
165.1136987120488016
 51
169.6293725667177057
  0
ARC
  5
20FBB
  8
0
 10
5131.1645105614734348
 20
-1.524029640894077
 30
0.0
 40
0.01
 50
345.1136987120503932
 51
90.0
  0
ARC
  5
20FBC
  8
0
 10
5131.1781945818829627
 20
-2.2353556580127361
 30
0.0
 40
0.159
 50
169.6293725667173931
 51
177.1540089237199993
  0
ARC
  5
20FBD
  8
0
 10
5139.4210122689601121
 20
-3.8373134327161429
 30
0.0
 40
8.5560996296121097
 50
164.2950872930022967
 51
168.9717898133417862
  0
ARC
  5
20FBE
  8
0
 10
5131.1939510088413954
 20
-1.524029640894077
 30
0.0
 40
0.01
 50
90.0
 51
164.2950872930109085
  0
ARC
  5
20FBF
  8
0
 10
5136.8722368935550548
 20
-3.4668719487836759
 30
0.0
 40
5.967062777008648
 50
161.0314154931245128
 51
167.6707922353596985
  0
ARC
  5
20FC0
  8
0
 10
5131.2197468929489332
 20
-1.524029640894077
 30
0.0
 40
0.01
 50
341.031415493128975
 51
90.0
  0
ARC
  5
20FC1
  8
0
 10
5131.1981263358929937
 20
-2.2266854301133421
 30
0.0
 40
0.159
 50
167.6707922353598974
 51
176.3061946195886094
  0
ARC
  5
20FC2
  8
0
 10
5137.7802976208658947
 20
-3.6289539465290508
 30
0.0
 40
6.8467532956804718
 50
162.1223396070990077
 51
167.9447700110214043
  0
ARC
  5
20FC3
  8
0
 10
5131.2546283505644169
 20
-1.524029640894081
 30
0.0
 40
0.01
 50
342.1223396070950002
 51
90.0
  0
ARC
  5
20FC4
  8
0
 10
5131.2400311485871498
 20
-2.2321867449288209
 30
0.0
 40
0.159
 50
167.9447700110218022
 51
175.5583100148448068
  0
ARC
  5
20FC5
  8
0
 10
5138.9173475096704351
 20
-3.9638531426902821
 30
0.0
 40
8.0237909624013817
 50
162.2747358691439956
 51
167.4011065012039126
  0
ARC
  5
20FC6
  8
0
 10
5131.2839926201640992
 20
-1.524029640894081
 30
0.0
 40
0.01
 50
90.0
 51
162.2747358691360091
  0
ARC
  5
20FC7
  8
0
 10
5131.2419330489437925
 20
-2.2483503772137712
 30
0.0
 40
0.159
 50
167.4011065012041968
 51
175.3973145552353969
  0
ARC
  5
20FC8
  8
0
 10
5140.6145166821415842
 20
-4.9587860853092556
 30
0.0
 40
9.8930638976236196
 50
159.7059804349684953
 51
163.7465446196198968
  0
ARC
  5
20FC9
  8
0
 10
5131.3261840692366604
 20
-1.5240296408940841
 30
0.0
 40
0.01
 50
339.7059804349613046
 51
90.0
  0
ARC
  5
20FCA
  8
0
 10
5131.2694943423621226
 20
-2.2343489999605231
 30
0.0
 40
0.159
 50
163.7465446196202947
 51
174.9053605432548864
  0
ARC
  5
20FCB
  8
0
 10
5144.8192909737626906
 20
-6.0108165066500412
 30
0.0
 40
14.1770274071043705
 50
161.5631147036596929
 51
164.3976906646441023
  0
ARC
  5
20FCC
  8
0
 10
5131.3604466596616476
 20
-1.5240296408940841
 30
0.0
 40
0.01
 50
341.5631147036577886
 51
90.0
  0
ARC
  5
20FCD
  8
0
 10
5131.3178036665522086
 20
-2.2405469036171359
 30
0.0
 40
0.159
 50
164.3976906646446992
 51
174.7120964786998059
  0
ARC
  5
20FCE
  8
0
 10
5159.5990251052262465
 20
-11.9449897501243907
 30
0.0
 40
30.018831961528349
 50
159.6941251456682949
 51
161.0325633362172084
  0
ARC
  5
20FCF
  8
0
 10
5131.4363842600296266
 20
-1.5240296408940841
 30
0.0
 40
0.01
 50
339.694125145648286
 51
90.0
  0
ARC
  5
20FD0
  8
0
 10
5131.3604788399452445
 20
-2.2396268205738181
 30
0.0
 40
0.159
 50
161.0325633362193116
 51
173.9807592184724001
  0
ARC
  5
20FD1
  8
0
 10
5113.2261430089793066
 20
4.198346066228666
 30
0.0
 40
19.1270756228693095
 50
340.4797805971820139
 51
342.5824411188679051
  0
ARC
  5
20FD2
  8
0
 10
5131.4666747072888029
 20
-1.5240296408940841
 30
0.0
 40
0.01
 50
342.5824411188048089
 51
90.0
  0
ARC
  5
20FD3
  8
0
 10
5131.4037250824749208
 20
-2.2458934461083042
 30
0.0
 40
0.159
 50
160.479780597185993
 51
174.4958280391468861
  0
ARC
  5
20FD4
  8
0
 10
5111.160618089405034
 20
4.8843444505006204
 30
0.0
 40
21.3107690359777493
 50
340.5970239994215945
 51
342.5081847960324808
  0
ARC
  5
20FD5
  8
0
 10
5131.4955125762280659
 20
-1.5240296408940841
 30
0.0
 40
0.01
 50
90.0
 51
162.5081847960919106
  0
ARC
  5
20FD6
  8
0
 10
5131.411020264432409
 20
-2.2481301697039662
 30
0.0
 40
0.159
 50
160.5970239994232998
 51
174.7018639151621073
  0
ARC
  5
20FD7
  8
0
 10
5090.9208878915442256
 20
12.4746708036405103
 30
0.0
 40
42.9432698669328303
 50
340.012333561030573
 51
340.9703644245968235
  0
ARC
  5
20FD8
  8
0
 10
5131.5078568265489594
 20
-1.5240296408940881
 30
0.0
 40
0.01
 50
340.9703644245871033
 51
90.0
  0
ARC
  5
20FD9
  8
0
 10
5131.4269452340568023
 20
-2.2584546708438071
 30
0.0
 40
0.159
 50
160.0123335610304025
 51
173.6016029287748097
  0
ARC
  5
20FDA
  8
0
 10
5072.337246506855081
 20
19.0954886305974583
 30
0.0
 40
62.7005761691371717
 50
340.1566538385789045
 51
340.7974075910620968
  0
ARC
  5
20FDB
  8
0
 10
5131.5398123859631596
 20
-1.5240296408940841
 30
0.0
 40
0.01
 50
340.7974075910257739
 51
90.0
  0
ARC
  5
20FDC
  8
0
 10
5131.4644871421824064
 20
-2.242171293014116
 30
0.0
 40
0.159
 50
160.1566538386024945
 51
173.3233329117431083
  0
ARC
  5
20FDD
  8
0
 10
5182.4944761860670042
 20
-18.4347871565527015
 30
0.0
 40
53.6618326553195217
 50
161.6345405393990973
 51
162.3871690869210909
  0
ARC
  5
20FDE
  8
0
 10
5131.5563578381415937
 20
-1.5240296408940841
 30
0.0
 40
0.01
 50
341.6345405394216073
 51
90.0
  0
ARC
  5
20FDF
  8
0
 10
5131.4996995264173165
 20
-2.245721229960544
 30
0.0
 40
0.159
 50
162.3871690869202098
 51
173.9914266696463017
  0
ARC
  5
20FE0
  8
0
 10
5241.7855126946978999
 20
-37.6662415108639905
 30
0.0
 40
115.985095395021105
 50
161.8420464164564976
 51
162.1946867257360054
  0
ARC
  5
20FE1
  8
0
 10
5131.5858608212429317
 20
-1.524029640894077
 30
0.0
 40
0.01
 50
90.0
 51
161.8420464164840098
  0
ARC
  5
20FE2
  8
0
 10
5131.507366779842414
 20
-2.2485212561917001
 30
0.0
 40
0.159
 50
162.1946867257431961
 51
173.9522737876025928
  0
ARC
  5
20FE3
  8
0
 10
5122.902392288381634
 20
1.022919063204071
 30
0.0
 40
9.0770045164868343
 50
339.1801353542965103
 51
343.6858944781544096
  0
ARC
  5
20FE4
  8
0
 10
5131.6043244416850939
 20
-1.524029640894081
 30
0.0
 40
0.01
 50
343.6858944781209857
 51
90.0
  0
ARC
  5
20FE5
  8
0
 10
5131.5353088313277112
 20
-2.2598437048129578
 30
0.0
 40
0.159
 50
159.1801353542969935
 51
173.3221459358811103
  0
ARC
  5
20FE6
  8
0
 10
5123.1771143315227164
 20
0.8750251831477022
 30
0.0
 40
8.7978399206131517
 50
339.6302212148935951
 51
344.1573100362011814
  0
ARC
  5
20FE7
  8
0
 10
5131.6311468853737097
 20
-1.524029640894081
 30
0.0
 40
0.01
 50
344.1573100361700881
 51
90.0
  0
ARC
  5
20FE8
  8
0
 10
5131.5738446880523043
 20
-2.2426503425031288
 30
0.0
 40
0.159
 50
159.6302212148931119
 51
173.3043233127494034
  0
ARC
  5
20FE9
  8
0
 10
5114.4425271078462174
 20
3.1847153106301742
 30
0.0
 40
17.8355636792113792
 50
342.439032335100876
 51
344.6831406163345832
  0
ARC
  5
20FEA
  8
0
 10
5131.6349219806706969
 20
-1.524029640894077
 30
0.0
 40
0.01
 50
344.6831406163007046
 51
90.0
  0
ARC
  5
20FEB
  8
0
 10
5131.5984799490615842
 20
-2.244612835208315
 30
0.0
 40
0.159
 50
162.4390323351003076
 51
175.251924239785609
  0
ARC
  5
20FEC
  8
0
 10
5125.3637475733175961
 20
-0.2043579154872468
 30
0.0
 40
6.4091390104364683
 50
341.8747448843811867
 51
346.4592027196767958
  0
ARC
  5
20FED
  8
0
 10
5131.6059669730811947
 20
-2.247675567160424
 30
0.0
 40
0.159
 50
161.8747448843820109
 51
175.1535445038053069
  0
ARC
  5
20FEE
  8
0
 10
5250.1893172814952777
 20
-36.9720006872136295
 30
0.0
 40
123.6828455334745058
 50
163.3466476074279967
 51
163.6775499271574859
  0
ARC
  5
20FEF
  8
0
 10
5131.6846279866531404
 20
-1.5240296408940841
 30
0.0
 40
0.01
 50
343.3466476073896843
 51
90.0
  0
ARC
  5
20FF0
  8
0
 10
5131.6440700404536983
 20
-2.2565175141711151
 30
0.0
 40
0.159
 50
163.6775499271647902
 51
173.5739208530285964
  0
ARC
  5
20FF1
  8
0
 10
5126.18684454274171
 20
-0.3609837043348421
 30
0.0
 40
5.6471920648368457
 50
341.116482132091221
 51
348.0934213557105181
  0
ARC
  5
20FF2
  8
0
 10
5131.7027541255129108
 20
-1.524029640894077
 30
0.0
 40
0.01
 50
348.0934213556952841
 51
90.0
  0
ARC
  5
20FF3
  8
0
 10
5131.6805386424412063
 20
-2.2401301682156252
 30
0.0
 40
0.159
 50
161.1164821320913916
 51
173.7920990662387908
  0
ARC
  5
20FF4
  8
0
 10
5121.2025970973299991
 20
0.7292448635826894
 30
0.0
 40
10.7507665560798795
 50
344.1790807502944176
 51
347.8901226507334741
  0
ARC
  5
20FF5
  8
0
 10
5131.7043502947590241
 20
-1.524029640894077
 30
0.0
 40
0.01
 50
347.8901226507180127
 51
90.0
  0
ARC
  5
20FF6
  8
0
 10
5131.6990855194271717
 20
-2.2451016382482432
 30
0.0
 40
0.159
 50
164.179080750294986
 51
174.1899726093622007
  0
ARC
  5
20FF7
  8
0
 10
5127.591520691759797
 20
-0.9385452594377348
 30
0.0
 40
4.1973822072029581
 50
342.4213614046965972
 51
351.9625058561309743
  0
ARC
  5
20FF8
  8
0
 10
5131.7377693321914194
 20
-1.524029640894077
 30
0.0
 40
0.01
 50
351.9625058561205151
 51
90.0
  0
ARC
  5
20FF9
  8
0
 10
5131.7444743703872518
 20
-2.2542358303569818
 30
0.0
 40
0.159
 50
162.421361404696313
 51
174.2498355377842927
  0
ARC
  5
20FFA
  8
0
 10
5128.2293660556733812
 20
-1.1540879844633769
 30
0.0
 40
3.5493324971781481
 50
343.0424436591831068
 51
354.0003146514360992
  0
ARC
  5
20FFB
  8
0
 10
5131.7493117507674469
 20
-1.524029640894077
 30
0.0
 40
0.01
 50
354.0003146514288233
 51
90.0
  0
ARC
  5
20FFC
  8
0
 10
5131.7764642502388597
 20
-2.2356721502722929
 30
0.0
 40
0.159
 50
163.042443659183391
 51
174.6370442162177028
  0
ARC
  5
20FFD
  8
0
 10
5128.3092321363419614
 20
-1.370442823437297
 30
0.0
 40
3.468997137456999
 50
346.0059342198279069
 51
357.550676886481881
  0
ARC
  5
20FFE
  8
0
 10
5131.8295531389030657
 20
-2.2477701673259141
 30
0.0
 40
0.159
 50
166.0059342198285037
 51
175.3609578457406997
  0
ARC
  5
20FFF
  8
0
 10
5128.6483898274072999
 20
-1.501076926103653
 30
0.0
 40
3.1285396861402979
 50
347.2245350651455738
 51
359.1723296120158011
  0
ARC
  5
21000
  8
0
 10
5131.8545436277781846
 20
-2.2280535394203831
 30
0.0
 40
0.159
 50
167.2245350651458011
 51
175.8492816755016008
  0
ARC
  5
21001
  8
0
 10
5128.5073756760202741
 20
-1.6887758172911089
 30
0.0
 40
3.2707036075596871
 50
350.7698802500217994
 51
358.2785113408427833
  0
ARC
  5
21002
  8
0
 10
5131.8926717588337851
 20
-2.2389005916889562
 30
0.0
 40
0.159
 50
170.7698802500221973
 51
175.9948838953548034
  0
ARC
  5
21003
  8
0
 10
5168.4335511125882476
 20
-14.76793761733515
 30
0.0
 40
39.3188179299133225
 50
160.3106948306347874
 51
161.3653910468605091
  0
ARC
  5
21004
  8
0
 10
5131.4229841274873252
 20
-1.5240296408940841
 30
0.0
 40
0.01
 50
90.0
 51
160.3106948306140964
  0
ARC
  5
21005
  8
0
 10
5131.3266642038433929
 20
-2.2551328060395832
 30
0.0
 40
0.159
 50
161.365391046857809
 51
174.3576737785635942
  0
ARC
  5
21006
  8
0
 10
5128.6874869180492169
 20
-1.794674605747367
 30
0.0
 40
3.089929067325043
 50
352.622405428499917
 51
358.6857177007271957
  0
ARC
  5
21007
  8
0
 10
5131.9095195697627787
 20
-2.2118624241139271
 30
0.0
 40
0.159
 50
172.6224054285005138
 51
177.6754719986165014
  0
ARC
  5
21008
  8
0
 10
5128.7008491163924191
 20
-2.006164924923822
 30
0.0
 40
3.076628109099012
 50
356.0398368557180788
 51
358.6341646961166134
  0
ARC
  5
21009
  8
0
 10
5131.9287515476898989
 20
-2.2296266764863719
 30
0.0
 40
0.159
 50
176.0398368557189031
 51
178.6746136221075005
  0
ARC
  5
2100A
  8
0
 10
5155.9187336586428501
 20
-2.8855517235355199
 30
0.0
 40
24.9445744968710912
 50
178.464258386079706
 51
179.7997716664052064
  0
ARC
  5
2100B
  8
0
 10
5168.9486216532623075
 20
-3.5755243003461099
 30
0.0
 40
37.972295303702829
 50
177.9450975563356963
 51
179.3072836290014891
  0
ARC
  5
2100C
  8
0
 10
5189.8232921551389154
 20
-5.150768071947045
 30
0.0
 40
58.8765195228833207
 50
177.1540089237182087
 51
178.247506658221198
  0
ARC
  5
2100D
  8
0
 10
5162.6275852029757516
 20
-4.2557251340789497
 30
0.0
 40
31.6538866770130909
 50
176.3061946195894052
 51
179.0010258461113892
  0
ARC
  5
2100E
  8
0
 10
5130.9885081603306389
 20
-3.704029640894074
 30
0.0
 40
0.01
 50
179.0010258461122135
 51
270.0
  0
ARC
  5
2100F
  8
0
 10
5168.7917660692846766
 20
-5.1491222663918981
 30
0.0
 40
37.8238550825676825
 50
175.5583100148460005
 51
177.8098536818588116
  0
ARC
  5
21010
  8
0
 10
5131.0055338740912703
 20
-3.704029640894074
 30
0.0
 40
0.01
 50
177.8098536818864943
 51
270.0
  0
ARC
  5
21011
  8
0
 10
5166.1297128379455899
 20
-5.0570002666294052
 30
0.0
 40
35.1596527483010703
 50
175.3973145552371875
 51
177.7940418842329962
  0
ARC
  5
21012
  8
0
 10
5131.0061088256579751
 20
-3.704029640894074
 30
0.0
 40
0.01
 50
177.7940418842406132
 51
270.0
  0
ARC
  5
21013
  8
0
 10
5166.1902819352617371
 20
-5.34765310939241
 30
0.0
 40
35.2182936121970585
 50
174.9053605432561085
 51
177.3242972980432057
  0
ARC
  5
21014
  8
0
 10
5131.0203737611345787
 20
-3.704029640894074
 30
0.0
 40
0.01
 50
177.3242972980615093
 51
270.0
  0
ARC
  5
21015
  8
0
 10
5177.9979705700297927
 20
-6.560995166739537
 30
0.0
 40
47.0386784900547497
 50
174.7120964786996069
 51
176.5171694428460114
  0
ARC
  5
21016
  8
0
 10
5131.0561518099411842
 20
-3.704029640894074
 30
0.0
 40
0.01
 50
176.5171694427889122
 51
270.0
  0
ARC
  5
21017
  8
0
 10
5184.5878347254247274
 20
-7.5171631159602974
 30
0.0
 40
53.6794750381709491
 50
174.357673778560212
 51
175.6964025772900015
  0
ARC
  5
21018
  8
0
 10
5181.0273393812649374
 20
-7.4766879377391362
 30
0.0
 40
50.1012050491942773
 50
173.9807592184749865
 51
175.6806333811402112
  0
ARC
  5
21019
  8
0
 10
5131.0784067334516294
 20
-3.704029640894074
 30
0.0
 40
0.01
 50
175.6806333810897911
 51
270.0
  0
ARC
  5
2101A
  8
0
 10
5212.8195256005519695
 20
-10.0913266394054606
 30
0.0
 40
81.9519299878043626
 50
174.4958280391489893
 51
175.5293122610017917
  0
ARC
  5
2101B
  8
0
 10
5131.1269168334238202
 20
-3.704029640894074
 30
0.0
 40
0.01
 50
175.5293122609272984
 51
270.0
  0
ARC
  5
2101C
  8
0
 10
-12460.9643545927992818
 20
1629.1699623179129048
 30
0.0
 40
17667.698717402490729
 50
354.6970713734891092
 51
354.7018639120973944
  0
ARC
  5
2101D
  8
0
 10
5131.1062211358039349
 20
-3.704029640894059
 30
0.0
 40
0.01
 50
270.0
 51
354.6970713431794024
  0
ARC
  5
2101E
  8
0
 10
5198.1733368850291299
 20
-9.7433712549090572
 30
0.0
 40
67.3237584280272046
 50
173.6016029287723939
 51
174.8525425926420951
  0
ARC
  5
2101F
  8
0
 10
5131.1310485397170851
 20
-3.704029640894074
 30
0.0
 40
0.01
 50
174.8525425926252979
 51
270.0
  0
ARC
  5
21020
  8
0
 10
5194.035233043993685
 20
-9.5667131429861652
 30
0.0
 40
63.1569932697939507
 50
173.323332911738305
 51
174.6728822731938067
  0
ARC
  5
21021
  8
0
 10
5131.1609799576172009
 20
-3.7040296408940701
 30
0.0
 40
0.01
 50
174.6728822732681863
 51
270.0
  0
ARC
  5
21022
  8
0
 10
5227.3331145729043783
 20
-12.3327174963864703
 30
0.0
 40
96.5218088691440244
 50
173.99142666964201
 51
174.8705923346113025
  0
ARC
  5
21023
  8
0
 10
5131.2078057459011688
 20
-3.7040296408940661
 30
0.0
 40
0.01
 50
174.870592334500202
 51
270.0
  0
ARC
  5
21024
  8
0
 10
5227.0503817657172476
 20
-12.3709683940992594
 30
0.0
 40
96.2367375287899307
 50
173.9522737875992959
 51
174.8324875101415898
  0
ARC
  5
21025
  8
0
 10
5131.2147454497680883
 20
-3.7040296408940701
 30
0.0
 40
0.01
 50
174.8324875102098872
 51
270.0
  0
ARC
  5
21026
  8
0
 10
5259.4749695186237659
 20
-17.2391683221842804
 30
0.0
 40
128.972574373095398
 50
173.3221459358832988
 51
173.9754833986540064
  0
ARC
  5
21027
  8
0
 10
5131.2246455041622539
 20
-3.7040296408940701
 30
0.0
 40
0.01
 50
173.9754833986393123
 51
270.0
  0
ARC
  5
21028
  8
0
 10
5289.0200018263149104
 20
-20.7262788761208796
 30
0.0
 40
158.6864011689328038
 50
173.3043233127438896
 51
173.8424376264586897
  0
ARC
  5
21029
  8
0
 10
5131.2391703703233361
 20
-3.7040296408940661
 30
0.0
 40
0.01
 50
270.0
 51
353.8424376262798887
  0
ARC
  5
2102A
  8
0
 10
5092.6832233380382604
 20
0.9876796672349676
 30
0.0
 40
38.8902626296980003
 50
353.0727675068906137
 51
355.2519242397769972
  0
ARC
  5
2102B
  8
0
 10
5131.2995190747788001
 20
-3.7040296408940629
 30
0.0
 40
0.01
 50
173.0727675070085922
 51
270.0
  0
ARC
  5
2102C
  8
0
 10
5089.0753139806338368
 20
1.3584525906642351
 30
0.0
 40
42.5242590631809279
 50
353.1643783828462801
 51
355.1535445038039143
  0
ARC
  5
2102D
  8
0
 10
5131.3072268867399544
 20
-3.7040296408940629
 30
0.0
 40
0.01
 50
173.1643783829424876
 51
270.0
  0
ARC
  5
2102E
  8
0
 10
4390.5818161000715918
 20
81.2085011058658637
 30
0.0
 40
745.5887278198324566
 50
353.4606807377413134
 51
353.5739208529034272
  0
ARC
  5
2102F
  8
0
 10
5131.3296308445578688
 20
-3.704029640894074
 30
0.0
 40
0.01
 50
173.4606807395817896
 51
270.0
  0
ARC
  5
21030
  8
0
 10
4902.9156856937979683
 20
22.6436045519444598
 30
0.0
 40
229.9552285871027948
 50
353.421046159697994
 51
353.792099066222022
  0
ARC
  5
21031
  8
0
 10
5131.3665743582068899
 20
-3.704029640894059
 30
0.0
 40
0.01
 50
173.421046160348709
 51
270.0
  0
ARC
  5
21032
  8
0
 10
5025.3623872434973237
 20
8.5749887206620627
 30
0.0
 40
106.7267696590213006
 50
353.3928132455295099
 51
354.1899726093527079
  0
ARC
  5
21033
  8
0
 10
5131.3703805012382873
 20
-3.704029640894059
 30
0.0
 40
0.01
 50
270.0
 51
353.3928132456363187
  0
ARC
  5
21034
  8
0
 10
5014.1373772917067981
 20
9.5885171406881398
 30
0.0
 40
118.0428615809720014
 50
353.5348843492291167
 51
354.2498355377795747
  0
ARC
  5
21035
  8
0
 10
5131.4394929056879846
 20
-3.7040296408940558
 30
0.0
 40
0.01
 50
173.5348843491404125
 51
270.0
  0
ARC
  5
21036
  8
0
 10
5046.1728238131008766
 20
5.8004166961733574
 30
0.0
 40
85.8210091884085386
 50
353.6408591814562214
 51
354.6370442162026961
  0
ARC
  5
21037
  8
0
 10
5131.455851419764258
 20
-3.7040296408940518
 30
0.0
 40
0.01
 50
270.0
 51
353.6408591815259115
  0
ARC
  5
21038
  8
0
 10
5067.4951238389421633
 20
2.9725797143207009
 30
0.0
 40
64.3868817140048719
 50
354.047076536480688
 51
355.3609578457342195
  0
ARC
  5
21039
  8
0
 10
5131.5248496445155979
 20
-3.7040296408940518
 30
0.0
 40
0.01
 50
270.0
 51
354.0470765364685235
  0
ARC
  5
2103A
  8
0
 10
5075.3445258421916151
 20
1.8729178974715059
 30
0.0
 40
56.4996275588594798
 50
354.3342357255958746
 51
355.8492816754966839
  0
ARC
  5
2103B
  8
0
 10
5131.5581867965638594
 20
-3.7040296408940518
 30
0.0
 40
0.01
 50
270.0
 51
354.3342357254426815
  0
ARC
  5
2103C
  8
0
 10
5054.4766117253857374
 20
3.1815042268004339
 30
0.0
 40
77.4465870379085572
 50
354.89861614109941
 51
355.9948838953363861
  0
ARC
  5
2103D
  8
0
 10
5131.6064660973252103
 20
-3.7040296408940492
 30
0.0
 40
0.01
 50
270.0
 51
354.8986161408432736
  0
ARC
  5
2103E
  8
0
 10
5098.1040879762631448
 20
-0.8396005226894516
 30
0.0
 40
33.674272202802193
 50
355.118908747771286
 51
357.6754719986176951
  0
ARC
  5
2103F
  8
0
 10
5131.6462743804186175
 20
-3.7040296408940492
 30
0.0
 40
0.01
 50
270.0
 51
355.1189087477014255
  0
ARC
  5
21040
  8
0
 10
5097.7396911497489782
 20
-1.438612057511264
 30
0.0
 40
34.0392098218822667
 50
356.1828401151875028
 51
358.6746136220997982
  0
ARC
  5
21041
  8
0
 10
5131.6934097130306327
 20
-3.7040296408940492
 30
0.0
 40
0.01
 50
270.0
 51
356.1828401150780223
  0
ARC
  5
21042
  8
0
 10
5092.4982376082807605
 20
-1.456305246226278
 30
0.0
 40
39.2895704139542019
 50
356.7195285117077219
 51
358.6315976364232938
  0
ARC
  5
21043
  8
0
 10
5131.7134436762144105
 20
-3.7040296408940452
 30
0.0
 40
0.01
 50
270.0
 51
356.7195285117140884
  0
ARC
  5
21044
  8
0
 10
5186.0350870453767129
 20
-4.2833294918590603
 30
0.0
 40
54.2841920518341965
 50
178.2365908418348965
 51
179.3886626714482873
  0
ARC
  5
21045
  8
0
 10
5131.7439855438960876
 20
-3.7040296408940452
 30
0.0
 40
0.01
 50
270.0
 51
359.3886626715045054
  0
ARC
  5
21046
  8
0
 10
5071.4498996416550654
 20
-2.2306753237342001
 30
0.0
 40
60.3332564955686479
 50
358.6004505661824737
 51
359.1555292091009051
  0
ARC
  5
21047
  8
0
 10
5131.7551606168490252
 20
-3.7040296408940452
 30
0.0
 40
0.01
 50
270.0
 51
358.6004505662058932
  0
ARC
  5
21048
  8
0
 10
5131.9668997078133543
 20
-1.5144025826529519
 30
0.0
 40
0.9926776374209968
 50
95.337793931597858
 51
179.230996155781412
  0
ARC
  5
21049
  8
0
 10
5131.9653958326607608
 20
-1.517396235869561
 30
0.0
 40
0.1894475588463509
 50
96.0546746449605138
 51
175.2348130805351047
  0
ENDSEC
  0
EOF
