  0
SECTION
  2
HEADER
  9
$ACADVER
  1
AC1009
  9
$INSBASE
 10
5123.6871867979189119
 20
-25.2277783407259903
 30
0.0
  9
$EXTMIN
 10
5120.562698881819415
 20
-29.0846073407259915
 30
0.0
  9
$EXTMAX
 10
5126.8121867979198214
 20
-25.2228572262695003
 30
0.0
  9
$LIMMIN
 10
0.0
 20
0.0
  9
$LIMMAX
 10
11.6929133858000007
 20
8.2677165353999982
  9
$ORTHOMODE
 70
     0
  9
$REGENMODE
 70
     1
  9
$FILLMODE
 70
     1
  9
$QTEXTMODE
 70
     0
  9
$MIRRTEXT
 70
     0
  9
$DRAGMODE
 70
     2
  9
$LTSCALE
 40
0.6431102362
  9
$OSMODE
 70
  4095
  9
$ATTMODE
 70
     1
  9
$TEXTSIZE
 40
0.2
  9
$TRACEWID
 40
0.05
  9
$TEXTSTYLE
  7
STANDARD
  9
$CLAYER
  8
0
  9
$CELTYPE
  6
BYLAYER
  9
$CECOLOR
 62
   256
  9
$DIMSCALE
 40
1.0
  9
$DIMASZ
 40
0.1875
  9
$DIMEXO
 40
0.0625
  9
$DIMDLI
 40
0.4443307087
  9
$DIMRND
 40
0.0
  9
$DIMDLE
 40
0.0
  9
$DIMEXE
 40
0.125
  9
$DIMTP
 40
0.01
  9
$DIMTM
 40
0.01
  9
$DIMTXT
 40
2.0
  9
$DIMCEN
 40
0.1052362205
  9
$DIMTSZ
 40
0.0
  9
$DIMTOL
 70
     1
  9
$DIMLIM
 70
     0
  9
$DIMTIH
 70
     1
  9
$DIMTOH
 70
     1
  9
$DIMSE1
 70
     0
  9
$DIMSE2
 70
     0
  9
$DIMTAD
 70
     0
  9
$DIMZIN
 70
     0
  9
$DIMBLK
  1

  9
$DIMASO
 70
     1
  9
$DIMSHO
 70
     1
  9
$DIMPOST
  1
\X
  9
$DIMAPOST
  1

  9
$DIMALT
 70
     1
  9
$DIMALTD
 70
     2
  9
$DIMALTF
 40
25.3999999999999986
  9
$DIMLFAC
 40
1.0
  9
$DIMTOFL
 70
     0
  9
$DIMTVP
 40
0.0
  9
$DIMTIX
 70
     0
  9
$DIMSOXD
 70
     0
  9
$DIMSAH
 70
     0
  9
$DIMBLK1
  1

  9
$DIMBLK2
  1

  9
$DIMSTYLE
  2
STANDARD
  9
$DIMCLRD
 70
     0
  9
$DIMCLRE
 70
     0
  9
$DIMCLRT
 70
     0
  9
$DIMTFAC
 40
1.0
  9
$DIMGAP
 40
0.09
  9
$LUNITS
 70
     2
  9
$LUPREC
 70
     4
  9
$SKETCHINC
 40
0.1
  9
$FILLETRAD
 40
0.0
  9
$AUNITS
 70
     0
  9
$AUPREC
 70
     0
  9
$MENU
  1
.
  9
$ELEVATION
 40
0.0
  9
$PELEVATION
 40
0.0
  9
$THICKNESS
 40
0.0
  9
$LIMCHECK
 70
     0
  9
$BLIPMODE
 70
     0
  9
$CHAMFERA
 40
0.0
  9
$CHAMFERB
 40
0.0
  9
$SKPOLY
 70
     0
  9
$TDCREATE
 40
2458060.468368056230247
  9
$TDUPDATE
 40
2460089.7291435180231929
  9
$TDINDWG
 40
0.6011065972
  9
$TDUSRTIMER
 40
0.6011065972
  9
$USRTIMER
 70
     1
  9
$ANGBASE
 50
0.0
  9
$ANGDIR
 70
     0
  9
$PDMODE
 70
     0
  9
$PDSIZE
 40
0.3125
  9
$PLINEWID
 40
0.0
  9
$COORDS
 70
     1
  9
$SPLFRAME
 70
     0
  9
$SPLINETYPE
 70
     6
  9
$SPLINESEGS
 70
     8
  9
$ATTDIA
 70
     1
  9
$ATTREQ
 70
     1
  9
$HANDLING
 70
     1
  9
$HANDSEED
  5
2183F
  9
$SURFTAB1
 70
     6
  9
$SURFTAB2
 70
     6
  9
$SURFTYPE
 70
     6
  9
$SURFU
 70
     6
  9
$SURFV
 70
     6
  9
$UCSNAME
  2

  9
$UCSORG
 10
0.0
 20
0.0
 30
0.0
  9
$UCSXDIR
 10
1.0
 20
0.0
 30
0.0
  9
$UCSYDIR
 10
0.0
 20
1.0
 30
0.0
  9
$PUCSNAME
  2

  9
$PUCSORG
 10
0.0
 20
0.0
 30
0.0
  9
$PUCSXDIR
 10
1.0
 20
0.0
 30
0.0
  9
$PUCSYDIR
 10
0.0
 20
1.0
 30
0.0
  9
$USERI1
 70
     0
  9
$USERI2
 70
     0
  9
$USERI3
 70
     0
  9
$USERI4
 70
     0
  9
$USERI5
 70
     0
  9
$USERR1
 40
0.0
  9
$USERR2
 40
0.0
  9
$USERR3
 40
0.0
  9
$USERR4
 40
0.0
  9
$USERR5
 40
0.0
  9
$WORLDVIEW
 70
     1
  9
$SHADEDGE
 70
     3
  9
$SHADEDIF
 70
    70
  9
$TILEMODE
 70
     1
  9
$MAXACTVP
 70
    64
  9
$PLIMCHECK
 70
     0
  9
$PEXTMIN
 10
1.0000000000000000E+20
 20
1.0000000000000000E+20
 30
1.0000000000000000E+20
  9
$PEXTMAX
 10
-1.0000000000000000E+20
 20
-1.0000000000000000E+20
 30
-1.0000000000000000E+20
  9
$PLIMMIN
 10
0.0
 20
0.0
  9
$PLIMMAX
 10
12.0
 20
9.0
  9
$UNITMODE
 70
     0
  9
$VISRETAIN
 70
     1
  9
$PLINEGEN
 70
     0
  9
$PSLTSCALE
 70
     1
  0
ENDSEC
  0
SECTION
  2
TABLES
  0
TABLE
  2
VPORT
 70
     1
  0
VPORT
  2
*ACTIVE
 70
     0
 10
0.0
 20
0.0
 11
1.0
 21
1.0
 12
1331.3295326836200729
 22
-147.3343887166032005
 13
0.0
 23
0.0
 14
1.0
 24
1.0
 15
0.0
 25
0.0
 16
0.0
 26
0.0
 36
5.1040778033513332
 17
3792.35791015625
 27
120.1806564331053977
 37
0.0
 40
3.8938867312203622
 41
2.6486111111111108
 42
50.0
 43
0.0
 44
0.0
 50
0.0
 51
0.0
 71
     0
 72
   100
 73
     1
 74
     1
 75
     0
 76
     0
 77
     0
 78
     0
  0
ENDTAB
  0
TABLE
  2
LTYPE
 70
     2
  0
LTYPE
  2
CONTINUOUS
 70
     0
  3
Solid line
 72
    65
 73
     0
 40
0.0
  0
LTYPE
  2
PHANTOM2
 70
     0
  3
___ _ _ ___ _ _ ___ _ _ ___ _ _
 72
    65
 73
     6
 40
1.25
 49
0.625
 49
-0.125
 49
0.125
 49
-0.125
 49
0.125
 49
-0.125
  0
ENDTAB
  0
TABLE
  2
LAYER
 70
     2
  0
LAYER
  2
0
 70
     0
 62
   255
  6
CONTINUOUS
  0
LAYER
  2
DEFPOINTS
 70
     0
 62
     7
  6
CONTINUOUS
  0
ENDTAB
  0
TABLE
  2
STYLE
 70
     1
  0
STYLE
  2
STANDARD
 70
     0
 40
0.0
 41
0.8
 50
0.0
 71
     0
 42
0.2
  3
txt
  4

  0
ENDTAB
  0
TABLE
  2
VIEW
 70
     0
  0
ENDTAB
  0
TABLE
  2
UCS
 70
     0
  0
ENDTAB
  0
TABLE
  2
APPID
 70
     9
  0
APPID
  2
ACAD
 70
     0
  0
APPID
  2
ACAD_MLEADERVER
 70
     0
  0
APPID
  2
ACAD_EXEMPT_FROM_CAD_STANDARDS
 70
     0
  0
APPID
  2
ACAD_NAV_VCDISPLAY
 70
     0
  0
APPID
  2
ACAECLAYERSTANDARD
 70
     0
  0
APPID
  2
ACCMTRANSPARENCY
 70
     0
  0
APPID
  2
ACAD_DSTYLE_DIMJAG
 70
     0
  0
APPID
  2
ACAD_DSTYLE_DIMTALN
 70
     0
  0
APPID
  2
ACDBATTR
 70
     0
  0
ENDTAB
  0
TABLE
  2
DIMSTYLE
 70
     1
  0
DIMSTYLE
  2
STANDARD
 70
     0
  3

  4

  5

  6

  7

 40
1.0
 41
0.1875
 42
0.0625
 43
0.38
 44
0.125
 45
0.0
 46
0.0
 47
0.01
 48
0.01
140
0.15625
141
0.09
142
0.0
143
25.3999999999999986
144
1.0
145
0.0
146
1.0
147
0.09
 71
     1
 72
     0
 73
     1
 74
     1
 75
     0
 76
     0
 77
     0
 78
     4
170
     0
171
     2
172
     0
173
     0
174
     0
175
     0
176
     0
177
     0
178
     0
  0
ENDTAB
  0
ENDSEC
  0
SECTION
  2
BLOCKS
  0
BLOCK
  8
0
  2
$MODEL_SPACE
 70
     0
 10
0.0
 20
0.0
 30
0.0
  3
$MODEL_SPACE
  1

  0
ENDBLK
  5
21
  8
0
  0
BLOCK
 67
     1
  8
0
  2
$PAPER_SPACE
 70
     0
 10
0.0
 20
0.0
 30
0.0
  3
$PAPER_SPACE
  1

  0
ENDBLK
  5
1D
 67
     1
  8
0
  0
BLOCK
  8
0
  2
_FILLED
 70
     0
 10
0.0
 20
0.0
 30
0.0
  3
_FILLED
  1

  0
SOLID
  5
1CA7B
  8
0
  6
BYBLOCK
 62
     0
 10
0.0
 20
0.0
 30
0.0
 11
-1.0
 21
0.1666666667
 31
0.0
 12
-1.0
 22
-0.1666666667
 32
0.0
 13
-1.0
 23
-0.1666666667
 33
0.0
  0
ENDBLK
  5
1CA7C
  8
0
  6
BYBLOCK
 62
     0
  0
ENDSEC
  0
SECTION
  2
ENTITIES
  0
ATTDEF
  5
3930
  8
DEFPOINTS
 10
5123.6773422178212058
 20
-25.2238572262695016
 30
0.0
 40
0.001
  1
P40880-LV
  3

  2
MODELNUMBER
 70
     0
1001
ACDBATTR
1070
     0
1070
     1
  0
ATTDEF
  5
3931
  8
DEFPOINTS
 10
5123.6773422178212058
 20
-25.2255238929361703
 30
0.0
 40
0.001
  1
ONE
  3

  2
TRADENAME
 70
     0
1001
ACDBATTR
1070
     0
1070
     1
  0
ATTDEF
  5
3932
  8
DEFPOINTS
 10
5123.6773422178212058
 20
-25.2271905596028283
 30
0.0
 40
0.001
  1
VALVE TRIM
  3

  2
PRODUCT
 70
     0
1001
ACDBATTR
1070
     0
1070
     1
  0
LINE
  5
2141B
  8
0
 10
5122.687698881819415
 20
-26.3177783407259902
 30
0.0
 11
5122.687698881819415
 21
-26.2977783407259906
 31
0.0
  0
LINE
  5
2141C
  8
0
 10
5122.900698881819153
 20
-27.1277783407259889
 30
0.0
 11
5122.900698881819153
 21
-26.3477783407259913
 31
0.0
  0
LINE
  5
2141D
  8
0
 10
5120.562698881819415
 20
-25.2277783407259903
 30
0.0
 11
5126.8121867979198214
 21
-25.2277783407259903
 31
0.0
  0
LINE
  5
2141E
  8
0
 10
5120.6326988818191239
 20
-26.2877783407259891
 30
0.0
 11
5126.7416747140186999
 21
-26.2877783407259891
 31
0.0
  0
LINE
  5
2141F
  8
0
 10
5122.7176988818191603
 20
-26.3477783407259913
 30
0.0
 11
5124.656674714019573
 21
-26.3477783407259913
 31
0.0
  0
LINE
  5
21420
  8
0
 10
5122.9106988818202808
 20
-27.1377783407259905
 30
0.0
 11
5124.463674714019362
 21
-27.1377783407259905
 31
0.0
  0
LINE
  5
21421
  8
0
 10
5123.2956988818186801
 20
-27.6377783407259905
 30
0.0
 11
5124.0786747140200532
 21
-27.6377783407259905
 31
0.0
  0
ARC
  5
21422
  8
0
 10
5122.7176988818191603
 20
-26.3177783407259902
 30
0.0
 40
0.03
 50
180.0000000000067075
 51
270.0
  0
ARC
  5
21423
  8
0
 10
5122.6976988818187237
 20
-26.2977783407259906
 30
0.0
 40
0.01
 50
90.0
 51
179.9999999999693898
  0
ARC
  5
21424
  8
0
 10
5122.9106988818202808
 20
-27.1277783407259783
 30
0.0
 40
0.01
 50
180.0000000000202931
 51
270.0
  0
ARC
  5
21425
  8
0
 10
5123.2698094089837468
 20
-27.1536894382117993
 30
0.0
 40
0.0159155724248739
 50
3.281728924527497
 51
88.6412791561950968
  0
ARC
  5
21426
  8
0
 10
5123.6871867979189119
 20
-28.6826073407259905
 30
0.0
 40
0.4020000000000011
 50
182.8922862782206948
 51
357.107713721775383
  0
LINE
  5
21427
  8
0
 10
5124.6866747140202278
 20
-26.3177783407259902
 30
0.0
 11
5124.6866747140202278
 21
-26.2977783407259906
 31
0.0
  0
LINE
  5
21428
  8
0
 10
5124.4736747140186708
 20
-27.1277783407259889
 30
0.0
 11
5124.4736747140186708
 21
-26.3477783407259913
 31
0.0
  0
ARC
  5
21429
  8
0
 10
5124.656674714019573
 20
-26.3177783407259902
 30
0.0
 40
0.03
 50
270.0
 51
359.9999999999932925
  0
ARC
  5
2142A
  8
0
 10
5124.6766747140191001
 20
-26.2977783407259906
 30
0.0
 40
0.01
 50
0.0000000000305333
 51
90.0
  0
ARC
  5
2142B
  8
0
 10
5124.463674714019362
 20
-27.1277783407259783
 30
0.0
 40
0.01
 50
270.0
 51
359.9999999999797069
  0
ARC
  5
2142C
  8
0
 10
5124.1045641868549865
 20
-27.1536894382117993
 30
0.0
 40
0.0159155724248746
 50
91.3587208438049032
 51
176.7182710754665891
  0
LINE
  5
2142E
  8
0
 10
5124.0886747140202715
 20
-27.1527783407260088
 30
0.0
 11
5124.0886747140202715
 21
-27.6280225178158112
 31
0.0
  0
LINE
  5
2142F
  8
0
 10
5124.0886747140202715
 20
-27.6527783407259911
 30
0.0
 11
5124.0886747140202715
 21
-28.7028916505658813
 31
0.0
  0
ARC
  5
21430
  8
0
 10
5124.0736747140181251
 20
-27.6527783407259911
 30
0.0
 40
0.015
 50
0.0
 51
90.0
  0
LINE
  5
21431
  8
0
 10
5123.2856988818193713
 20
-27.1527783407259591
 30
0.0
 11
5123.2856988818193713
 21
-27.6277783407259889
 31
0.0
  0
LINE
  5
21432
  8
0
 10
5123.2856988818193713
 20
-27.6527783407259911
 30
0.0
 11
5123.2856988818193713
 21
-28.7028916505658493
 31
0.0
  0
ARC
  5
21433
  8
0
 10
5123.3006988818196987
 20
-27.6527783407259911
 30
0.0
 40
0.015
 50
90.0
 51
180.0
  0
ARC
  5
21434
  8
0
 10
5123.2956988818186801
 20
-27.6277783407259889
 30
0.0
 40
0.01
 50
180.0000000000100897
 51
270.0
  0
ARC
  5
21435
  8
0
 10
5124.078796802564284
 20
-27.6279004292708201
 30
0.0
 40
0.0098786659184743
 50
269.2918743796220724
 51
0.7081256203412502
  0
LINE
  5
21436
  8
0
 10
5120.562698881819415
 20
-25.2277783407259903
 30
0.0
 11
5120.562698881819415
 21
-26.2177783407259888
 31
0.0
  0
LINE
  5
21437
  8
0
 10
5126.8116747140193183
 20
-25.2277783407259903
 30
0.0
 11
5126.8116747140193183
 21
-26.2177783407259888
 31
0.0
  0
ARC
  5
21438
  8
0
 10
5126.7416747140186999
 20
-26.2177783407259888
 30
0.0
 40
0.07
 50
270.0
 51
359.9999999999968736
  0
ARC
  5
21439
  8
0
 10
5120.6326988818191239
 20
-26.2177783407259888
 30
0.0
 40
0.07
 50
180.0
 51
270.0
  0
ENDSEC
  0
EOF
