  0
SECTION
  2
HEADER
  9
$ACADVER
  1
AC1009
  9
$INSBASE
 10
5499.7938911546361851
 20
-22.1681622113376591
 30
0.0
  9
$EXTMIN
 10
5496.6694032385357787
 20
-25.2926501274376605
 30
0.0
  9
$EXTMAX
 10
5502.918379070735682
 20
-19.0436742952376505
 30
0.0
  9
$LIMMIN
 10
0.0
 20
0.0
  9
$LIMMAX
 10
11.6929133858000007
 20
8.2677165353999982
  9
$ORTHOMODE
 70
     0
  9
$REGENMODE
 70
     1
  9
$FILLMODE
 70
     1
  9
$QTEXTMODE
 70
     0
  9
$MIRRTEXT
 70
     0
  9
$DRAGMODE
 70
     2
  9
$LTSCALE
 40
0.6431102362
  9
$OSMODE
 70
  4095
  9
$ATTMODE
 70
     1
  9
$TEXTSIZE
 40
0.2
  9
$TRACEWID
 40
0.05
  9
$TEXTSTYLE
  7
STANDARD
  9
$CLAYER
  8
0
  9
$CELTYPE
  6
BYLAYER
  9
$CECOLOR
 62
   256
  9
$DIMSCALE
 40
1.0
  9
$DIMASZ
 40
0.1875
  9
$DIMEXO
 40
0.0625
  9
$DIMDLI
 40
0.4443307087
  9
$DIMRND
 40
0.0
  9
$DIMDLE
 40
0.0
  9
$DIMEXE
 40
0.125
  9
$DIMTP
 40
0.01
  9
$DIMTM
 40
0.01
  9
$DIMTXT
 40
2.0
  9
$DIMCEN
 40
0.1052362205
  9
$DIMTSZ
 40
0.0
  9
$DIMTOL
 70
     1
  9
$DIMLIM
 70
     0
  9
$DIMTIH
 70
     1
  9
$DIMTOH
 70
     1
  9
$DIMSE1
 70
     0
  9
$DIMSE2
 70
     0
  9
$DIMTAD
 70
     0
  9
$DIMZIN
 70
     0
  9
$DIMBLK
  1

  9
$DIMASO
 70
     1
  9
$DIMSHO
 70
     1
  9
$DIMPOST
  1
\X
  9
$DIMAPOST
  1

  9
$DIMALT
 70
     1
  9
$DIMALTD
 70
     2
  9
$DIMALTF
 40
25.3999999999999986
  9
$DIMLFAC
 40
1.0
  9
$DIMTOFL
 70
     0
  9
$DIMTVP
 40
0.0
  9
$DIMTIX
 70
     0
  9
$DIMSOXD
 70
     0
  9
$DIMSAH
 70
     0
  9
$DIMBLK1
  1

  9
$DIMBLK2
  1

  9
$DIMSTYLE
  2
STANDARD
  9
$DIMCLRD
 70
     0
  9
$DIMCLRE
 70
     0
  9
$DIMCLRT
 70
     0
  9
$DIMTFAC
 40
1.0
  9
$DIMGAP
 40
0.09
  9
$LUNITS
 70
     2
  9
$LUPREC
 70
     4
  9
$SKETCHINC
 40
0.1
  9
$FILLETRAD
 40
0.0
  9
$AUNITS
 70
     0
  9
$AUPREC
 70
     0
  9
$MENU
  1
.
  9
$ELEVATION
 40
0.0
  9
$PELEVATION
 40
0.0
  9
$THICKNESS
 40
0.0
  9
$LIMCHECK
 70
     0
  9
$BLIPMODE
 70
     0
  9
$CHAMFERA
 40
0.0
  9
$CHAMFERB
 40
0.0
  9
$SKPOLY
 70
     0
  9
$TDCREATE
 40
2458060.468368056230247
  9
$TDUPDATE
 40
2460089.6952777779661119
  9
$TDINDWG
 40
0.5981320602
  9
$TDUSRTIMER
 40
0.5981320602
  9
$USRTIMER
 70
     1
  9
$ANGBASE
 50
0.0
  9
$ANGDIR
 70
     0
  9
$PDMODE
 70
     0
  9
$PDSIZE
 40
0.3125
  9
$PLINEWID
 40
0.0
  9
$COORDS
 70
     1
  9
$SPLFRAME
 70
     0
  9
$SPLINETYPE
 70
     6
  9
$SPLINESEGS
 70
     8
  9
$ATTDIA
 70
     1
  9
$ATTREQ
 70
     1
  9
$HANDLING
 70
     1
  9
$HANDSEED
  5
254E1
  9
$SURFTAB1
 70
     6
  9
$SURFTAB2
 70
     6
  9
$SURFTYPE
 70
     6
  9
$SURFU
 70
     6
  9
$SURFV
 70
     6
  9
$UCSNAME
  2

  9
$UCSORG
 10
0.0
 20
0.0
 30
0.0
  9
$UCSXDIR
 10
1.0
 20
0.0
 30
0.0
  9
$UCSYDIR
 10
0.0
 20
1.0
 30
0.0
  9
$PUCSNAME
  2

  9
$PUCSORG
 10
0.0
 20
0.0
 30
0.0
  9
$PUCSXDIR
 10
1.0
 20
0.0
 30
0.0
  9
$PUCSYDIR
 10
0.0
 20
1.0
 30
0.0
  9
$USERI1
 70
     0
  9
$USERI2
 70
     0
  9
$USERI3
 70
     0
  9
$USERI4
 70
     0
  9
$USERI5
 70
     0
  9
$USERR1
 40
0.0
  9
$USERR2
 40
0.0
  9
$USERR3
 40
0.0
  9
$USERR4
 40
0.0
  9
$USERR5
 40
0.0
  9
$WORLDVIEW
 70
     1
  9
$SHADEDGE
 70
     3
  9
$SHADEDIF
 70
    70
  9
$TILEMODE
 70
     1
  9
$MAXACTVP
 70
    64
  9
$PLIMCHECK
 70
     0
  9
$PEXTMIN
 10
1.0000000000000000E+20
 20
1.0000000000000000E+20
 30
1.0000000000000000E+20
  9
$PEXTMAX
 10
-1.0000000000000000E+20
 20
-1.0000000000000000E+20
 30
-1.0000000000000000E+20
  9
$PLIMMIN
 10
0.0
 20
0.0
  9
$PLIMMAX
 10
12.0
 20
9.0
  9
$UNITMODE
 70
     0
  9
$VISRETAIN
 70
     1
  9
$PLINEGEN
 70
     0
  9
$PSLTSCALE
 70
     1
  0
ENDSEC
  0
SECTION
  2
TABLES
  0
TABLE
  2
VPORT
 70
     1
  0
VPORT
  2
*ACTIVE
 70
     0
 10
0.0
 20
0.0
 11
1.0
 21
1.0
 12
1707.4359809983859577
 22
-142.3488186444430994
 13
0.0
 23
0.0
 14
1.0
 24
1.0
 15
0.0
 25
0.0
 16
0.0
 26
0.0
 36
5.1040778033513332
 17
3792.35791015625
 27
120.1806564331053977
 37
0.0
 40
6.3009784050061048
 41
2.6486111111111108
 42
50.0
 43
0.0
 44
0.0
 50
0.0
 51
0.0
 71
     0
 72
   100
 73
     1
 74
     1
 75
     0
 76
     0
 77
     0
 78
     0
  0
ENDTAB
  0
TABLE
  2
LTYPE
 70
     2
  0
LTYPE
  2
CONTINUOUS
 70
     0
  3
Solid line
 72
    65
 73
     0
 40
0.0
  0
LTYPE
  2
PHANTOM2
 70
     0
  3
___ _ _ ___ _ _ ___ _ _ ___ _ _
 72
    65
 73
     6
 40
1.25
 49
0.625
 49
-0.125
 49
0.125
 49
-0.125
 49
0.125
 49
-0.125
  0
ENDTAB
  0
TABLE
  2
LAYER
 70
     2
  0
LAYER
  2
0
 70
     0
 62
   255
  6
CONTINUOUS
  0
LAYER
  2
DEFPOINTS
 70
     0
 62
     7
  6
CONTINUOUS
  0
ENDTAB
  0
TABLE
  2
STYLE
 70
     1
  0
STYLE
  2
STANDARD
 70
     0
 40
0.0
 41
0.8
 50
0.0
 71
     0
 42
0.2
  3
txt
  4

  0
ENDTAB
  0
TABLE
  2
VIEW
 70
     0
  0
ENDTAB
  0
TABLE
  2
UCS
 70
     0
  0
ENDTAB
  0
TABLE
  2
APPID
 70
     9
  0
APPID
  2
ACAD
 70
     0
  0
APPID
  2
ACAD_MLEADERVER
 70
     0
  0
APPID
  2
ACAD_EXEMPT_FROM_CAD_STANDARDS
 70
     0
  0
APPID
  2
ACAD_NAV_VCDISPLAY
 70
     0
  0
APPID
  2
ACAECLAYERSTANDARD
 70
     0
  0
APPID
  2
ACCMTRANSPARENCY
 70
     0
  0
APPID
  2
ACAD_DSTYLE_DIMJAG
 70
     0
  0
APPID
  2
ACAD_DSTYLE_DIMTALN
 70
     0
  0
APPID
  2
ACDBATTR
 70
     0
  0
ENDTAB
  0
TABLE
  2
DIMSTYLE
 70
     1
  0
DIMSTYLE
  2
STANDARD
 70
     0
  3

  4

  5

  6

  7

 40
1.0
 41
0.1875
 42
0.0625
 43
0.38
 44
0.125
 45
0.0
 46
0.0
 47
0.01
 48
0.01
140
0.15625
141
0.09
142
0.0
143
25.3999999999999986
144
1.0
145
0.0
146
1.0
147
0.09
 71
     1
 72
     0
 73
     1
 74
     1
 75
     0
 76
     0
 77
     0
 78
     4
170
     0
171
     2
172
     0
173
     0
174
     0
175
     0
176
     0
177
     0
178
     0
  0
ENDTAB
  0
ENDSEC
  0
SECTION
  2
BLOCKS
  0
BLOCK
  8
0
  2
$MODEL_SPACE
 70
     0
 10
0.0
 20
0.0
 30
0.0
  3
$MODEL_SPACE
  1

  0
ENDBLK
  5
21
  8
0
  0
BLOCK
 67
     1
  8
0
  2
$PAPER_SPACE
 70
     0
 10
0.0
 20
0.0
 30
0.0
  3
$PAPER_SPACE
  1

  0
ENDBLK
  5
1D
 67
     1
  8
0
  0
BLOCK
  8
0
  2
_FILLED
 70
     0
 10
0.0
 20
0.0
 30
0.0
  3
_FILLED
  1

  0
SOLID
  5
1D213
  8
0
  6
BYBLOCK
 62
     0
 10
0.0
 20
0.0
 30
0.0
 11
-1.0
 21
0.1666666667
 31
0.0
 12
-1.0
 22
-0.1666666667
 32
0.0
 13
-1.0
 23
-0.1666666667
 33
0.0
  0
ENDBLK
  5
1D214
  8
0
  6
BYBLOCK
 62
     0
  0
ENDSEC
  0
SECTION
  2
ENTITIES
  0
ATTDEF
  5
3930
  8
DEFPOINTS
 10
5499.7939703445654231
 20
-22.1704330256056004
 30
0.0
 40
0.001
  1
P40880-BL
  3

  2
MODELNUMBER
 70
     0
1001
ACDBATTR
1070
     0
1070
     1
  0
ATTDEF
  5
3931
  8
DEFPOINTS
 10
5499.7939703445654231
 20
-22.1720996922722691
 30
0.0
 40
0.001
  1
ONE
  3

  2
TRADENAME
 70
     0
1001
ACDBATTR
1070
     0
1070
     1
  0
ATTDEF
  5
3932
  8
DEFPOINTS
 10
5499.7939703445654231
 20
-22.1737663589389307
 30
0.0
 40
0.001
  1
VALVE TRIM
  3

  2
PRODUCT
 70
     0
1001
ACDBATTR
1070
     0
1070
     1
  0
ARC
  5
251A7
  8
0
 10
5499.7938911546361851
 20
-22.1681622113376591
 30
0.0
 40
0.9994879160999997
 50
293.6840974255796937
 51
246.3159025744203916
  0
ARC
  5
251A8
  8
0
 10
5499.7938911546361851
 20
-22.1681622113376591
 30
0.0
 40
0.7864879160999996
 50
300.6959401520675783
 51
239.304059847932308
  0
LINE
  5
251A9
  8
0
 10
5500.1853790707364169
 20
-24.9546742952376484
 30
0.0
 11
5499.4024032385359533
 21
-24.9546742952376484
 31
0.0
  0
ARC
  5
251AA
  8
0
 10
5499.4071009512699675
 20
-22.7396742952376982
 30
0.0
 40
0.015
 50
191.5221620693118041
 51
270.0
  0
ARC
  5
251AB
  8
0
 10
5500.1806813116636476
 20
-22.7396742952376698
 30
0.0
 40
0.015
 50
270.0
 51
348.4787240865827016
  0
LINE
  5
251AC
  8
0
 10
5500.1853790707364169
 20
-22.754674295237681
 30
0.0
 11
5499.4024032385359533
 21
-22.7546742952376988
 31
0.0
  0
ARC
  5
251AD
  8
0
 10
5503.5577203661068779
 20
-23.1703342605394802
 30
0.0
 40
4.1683688655337319
 50
174.4017406230784957
 51
177.8074238862863865
  0
ARC
  5
251AE
  8
0
 10
5499.4191854061964477
 20
-22.7646742952376684
 30
0.0
 40
0.01
 50
90.0
 51
174.4017406230796894
  0
ARC
  5
251AF
  8
0
 10
5502.5624981968367138
 20
-23.193212498037699
 30
0.0
 40
3.1707428044003829
 50
172.2077543229812875
 51
178.8417549797759136
  0
ARC
  5
251B0
  8
0
 10
5499.4309410627083707
 20
-22.7646742952376684
 30
0.0
 40
0.01
 50
90.0
 51
172.2077543229773084
  0
ARC
  5
251B1
  8
0
 10
5503.3410635896925669
 20
-23.4812550447939401
 30
0.0
 40
3.9530035386008469
 50
169.5291797730548922
 51
177.3139252970682094
  0
ARC
  5
251B2
  8
0
 10
5499.4637205645303766
 20
-22.7646742952376684
 30
0.0
 40
0.01
 50
90.0
 51
169.5291797730563985
  0
ARC
  5
251B3
  8
0
 10
5503.1985598302471772
 20
-23.6079678779862583
 30
0.0
 40
3.8075709298349518
 50
167.2382207666929901
 51
178.4382781111470138
  0
ARC
  5
251B4
  8
0
 10
5499.4752946318476461
 20
-22.7646742952376684
 30
0.0
 40
0.01
 50
347.2382207666943259
 51
90.0
  0
ARC
  5
251B5
  8
0
 10
5503.4919488746309071
 20
-23.820285078426231
 30
0.0
 40
4.1067513191855509
 50
165.0681344105541939
 51
174.7918307713792956
  0
ARC
  5
251B6
  8
0
 10
5499.5604959805732506
 20
-23.4619296404434117
 30
0.0
 40
0.159
 50
174.7918307713792956
 51
178.464258386079905
  0
ARC
  5
251B7
  8
0
 10
5499.5335328725332147
 20
-22.7646742952376684
 30
0.0
 40
0.01
 50
90.0
 51
165.0681344105580877
  0
ARC
  5
251B8
  8
0
 10
5503.4438674774228275
 20
-23.943941985245349
 30
0.0
 40
4.0549277323491726
 50
163.1355834351433884
 51
172.8687775565882134
  0
ARC
  5
251B9
  8
0
 10
5499.5537562727758996
 20
-22.7646742952376684
 30
0.0
 40
0.01
 50
343.1355834351442127
 51
90.0
  0
ARC
  5
251BA
  8
0
 10
5499.5780769439752476
 20
-23.4602928901543386
 30
0.0
 40
0.159
 50
172.8687775565882134
 51
177.9450975563350994
  0
ARC
  5
251BB
  8
0
 10
5508.1416351191810463
 20
-25.0397747969382003
 30
0.0
 40
8.8459171538472212
 50
165.1136987120488016
 51
169.6293725667177057
  0
ARC
  5
251BC
  8
0
 10
5499.58294442825445
 20
-22.7646742952376684
 30
0.0
 40
0.01
 50
345.1136987120503932
 51
90.0
  0
ARC
  5
251BD
  8
0
 10
5499.5966284486648874
 20
-23.4760003123563301
 30
0.0
 40
0.159
 50
169.6293725667173931
 51
177.1540089237199993
  0
ARC
  5
251BE
  8
0
 10
5507.8394461357420369
 20
-25.0779580870597414
 30
0.0
 40
8.5560996296121097
 50
164.2950872930022967
 51
168.9717898133417862
  0
ARC
  5
251BF
  8
0
 10
5499.6123848756224106
 20
-22.7646742952376684
 30
0.0
 40
0.01
 50
90.0
 51
164.2950872930109085
  0
ARC
  5
251C0
  8
0
 10
5505.2906707603378891
 20
-24.7075166031272708
 30
0.0
 40
5.967062777008648
 50
161.0314154931243138
 51
167.6707922353596985
  0
ARC
  5
251C1
  8
0
 10
5499.6381807597299485
 20
-22.7646742952376684
 30
0.0
 40
0.01
 50
341.031415493128975
 51
90.0
  0
ARC
  5
251C2
  8
0
 10
5499.6165602026740089
 20
-23.4673300844569397
 30
0.0
 40
0.159
 50
167.6707922353600964
 51
176.3061946195886094
  0
ARC
  5
251C3
  8
0
 10
5506.1987314876478194
 20
-24.8695986008726493
 30
0.0
 40
6.8467532956804718
 50
162.1223396070990077
 51
167.9447700110216033
  0
ARC
  5
251C4
  8
0
 10
5499.6730622173463416
 20
-22.764674295237679
 30
0.0
 40
0.01
 50
342.1223396070947729
 51
90.0
  0
ARC
  5
251C5
  8
0
 10
5499.6584650153690745
 20
-23.4728313992724189
 30
0.0
 40
0.159
 50
167.9447700110220012
 51
175.5583100148448068
  0
ARC
  5
251C6
  8
0
 10
5507.3357813764523598
 20
-25.2044977970338806
 30
0.0
 40
8.0237909624013817
 50
162.2747358691441946
 51
167.4011065012041115
  0
ARC
  5
251C7
  8
0
 10
5499.7024264869460239
 20
-22.764674295237679
 30
0.0
 40
0.01
 50
90.0
 51
162.2747358691360091
  0
ARC
  5
251C8
  8
0
 10
5499.6603669157257173
 20
-23.4889950315573692
 30
0.0
 40
0.159
 50
167.4011065012041115
 51
175.3973145552353969
  0
ARC
  5
251C9
  8
0
 10
5509.0329505489244184
 20
-26.1994307396528612
 30
0.0
 40
9.8930638976236196
 50
159.7059804349684953
 51
163.7465446196200958
  0
ARC
  5
251CA
  8
0
 10
5499.7446179360185852
 20
-22.764674295237679
 30
0.0
 40
0.01
 50
339.7059804349613046
 51
90.0
  0
ARC
  5
251CB
  8
0
 10
5499.6879282091440473
 20
-23.4749936543041215
 30
0.0
 40
0.159
 50
163.7465446196200958
 51
174.9053605432548864
  0
ARC
  5
251CC
  8
0
 10
5513.2377248405446153
 20
-27.2514611609936388
 30
0.0
 40
14.1770274071043705
 50
161.5631147036596929
 51
164.3976906646441023
  0
ARC
  5
251CD
  8
0
 10
5499.7788805264426628
 20
-22.764674295237679
 30
0.0
 40
0.01
 50
341.5631147036577886
 51
90.0
  0
ARC
  5
251CE
  8
0
 10
5499.7362375333341333
 20
-23.4811915579607309
 30
0.0
 40
0.159
 50
164.3976906646448981
 51
174.7120964787000048
  0
ARC
  5
251CF
  8
0
 10
5528.0174589720090808
 20
-33.1856344044679901
 30
0.0
 40
30.018831961528349
 50
159.6941251456682949
 51
161.0325633362170095
  0
ARC
  5
251D0
  8
0
 10
5499.8548181268115513
 20
-22.764674295237679
 30
0.0
 40
0.01
 50
339.6941251456481154
 51
90.0
  0
ARC
  5
251D1
  8
0
 10
5499.7789127067271693
 20
-23.4802714749174193
 30
0.0
 40
0.159
 50
161.0325633362193116
 51
173.9807592184722012
  0
ARC
  5
251D2
  8
0
 10
5481.6445768757603219
 20
-17.0422985881149316
 30
0.0
 40
19.1270756228693095
 50
340.4797805971821845
 51
342.5824411188679051
  0
ARC
  5
251D3
  8
0
 10
5499.8851085740689086
 20
-22.764674295237679
 30
0.0
 40
0.01
 50
342.5824411188049794
 51
90.0
  0
ARC
  5
251D4
  8
0
 10
5499.822158949255936
 20
-23.4865381004518987
 30
0.0
 40
0.159
 50
160.479780597185993
 51
174.4958280391468861
  0
ARC
  5
251D5
  8
0
 10
5479.5790519561860492
 20
-16.3563002038429701
 30
0.0
 40
21.3107690359777493
 50
340.5970239994215945
 51
342.5081847960324808
  0
ARC
  5
251D6
  8
0
 10
5499.9139464430099906
 20
-22.764674295237679
 30
0.0
 40
0.01
 50
90.0
 51
162.5081847960919106
  0
ARC
  5
251D7
  8
0
 10
5499.8294541312143338
 20
-23.4887748240475602
 30
0.0
 40
0.159
 50
160.5970239994231008
 51
174.7018639151623063
  0
ARC
  5
251D8
  8
0
 10
5459.3393217583261503
 20
-8.7659738507030909
 30
0.0
 40
42.9432698669328303
 50
340.0123335610306867
 51
340.9703644245968803
  0
ARC
  5
251D9
  8
0
 10
5499.9262906933308841
 20
-22.7646742952376897
 30
0.0
 40
0.01
 50
340.9703644245872738
 51
90.0
  0
ARC
  5
251DA
  8
0
 10
5499.8453791008396365
 20
-23.4990993251874087
 30
0.0
 40
0.159
 50
160.0123335610304025
 51
173.6016029287746107
  0
ARC
  5
251DB
  8
0
 10
5440.7556803736370057
 20
-2.1451560237461318
 30
0.0
 40
62.7005761691371717
 50
340.1566538385786771
 51
340.7974075910619263
  0
ARC
  5
251DC
  8
0
 10
5499.9582462527441749
 20
-22.764674295237679
 30
0.0
 40
0.01
 50
340.7974075910257739
 51
90.0
  0
ARC
  5
251DD
  8
0
 10
5499.8829210089643311
 20
-23.4828159473577109
 30
0.0
 40
0.159
 50
160.1566538386024945
 51
173.3233329117431083
  0
ARC
  5
251DE
  8
0
 10
5550.9129100528489289
 20
-39.6754318108962991
 30
0.0
 40
53.6618326553195217
 50
161.6345405393990973
 51
162.3871690869210909
  0
ARC
  5
251DF
  8
0
 10
5499.9747917049226089
 20
-22.764674295237679
 30
0.0
 40
0.01
 50
341.6345405394216073
 51
90.0
  0
ARC
  5
251E0
  8
0
 10
5499.9181333931983318
 20
-23.4863658843041385
 30
0.0
 40
0.159
 50
162.3871690869204087
 51
173.9914266696461027
  0
ARC
  5
251E1
  8
0
 10
5610.2039465614798246
 20
-58.906886165207581
 30
0.0
 40
115.985095395021105
 50
161.8420464164566965
 51
162.1946867257360054
  0
ARC
  5
251E2
  8
0
 10
5500.0042946880248564
 20
-22.7646742952376684
 30
0.0
 40
0.01
 50
90.0
 51
161.8420464164840951
  0
ARC
  5
251E3
  8
0
 10
5499.9258006466234292
 20
-23.4891659105352986
 30
0.0
 40
0.159
 50
162.1946867257429972
 51
173.9522737876025928
  0
ARC
  5
251E4
  8
0
 10
5491.3208261551626492
 20
-20.2177255911395299
 30
0.0
 40
9.0770045164868343
 50
339.1801353542966808
 51
343.6858944781544096
  0
ARC
  5
251E5
  8
0
 10
5500.0227583084670187
 20
-22.764674295237679
 30
0.0
 40
0.01
 50
343.6858944781209857
 51
90.0
  0
ARC
  5
251E6
  8
0
 10
5499.953742698109636
 20
-23.5004883591565488
 30
0.0
 40
0.159
 50
159.1801353542969935
 51
173.3221459358809113
  0
ARC
  5
251E7
  8
0
 10
5491.5955481983046411
 20
-20.3656194711958989
 30
0.0
 40
8.7978399206131517
 50
339.6302212148934245
 51
344.1573100362011814
  0
ARC
  5
251E8
  8
0
 10
5500.0495807521556344
 20
-22.764674295237679
 30
0.0
 40
0.01
 50
344.1573100361699176
 51
90.0
  0
ARC
  5
251E9
  8
0
 10
5499.992278554834229
 20
-23.4832949968467304
 30
0.0
 40
0.159
 50
159.6302212148929129
 51
173.3043233127490907
  0
ARC
  5
251EA
  8
0
 10
5482.8609609746281421
 20
-18.0559293437134194
 30
0.0
 40
17.8355636792113792
 50
342.4390323351009897
 51
344.6831406163345832
  0
ARC
  5
251EB
  8
0
 10
5500.0533558474526217
 20
-22.7646742952376684
 30
0.0
 40
0.01
 50
344.6831406163004772
 51
90.0
  0
ARC
  5
251EC
  8
0
 10
5500.0169138158425994
 20
-23.4852574895519091
 30
0.0
 40
0.159
 50
162.4390323351003076
 51
175.2519242397858079
  0
ARC
  5
251ED
  8
0
 10
5493.7821814400986113
 20
-21.4450025698308409
 30
0.0
 40
6.4091390104364683
 50
341.8747448843815278
 51
346.4592027196770232
  0
ARC
  5
251EE
  8
0
 10
5500.0244008398631195
 20
-23.4883202215040185
 30
0.0
 40
0.159
 50
161.8747448843822099
 51
175.153544503805108
  0
ARC
  5
251EF
  8
0
 10
5618.6077511482781119
 20
-58.2126453415572271
 30
0.0
 40
123.6828455334745058
 50
163.3466476074279967
 51
163.6775499271574859
  0
ARC
  5
251F0
  8
0
 10
5500.1030618534350651
 20
-22.764674295237679
 30
0.0
 40
0.01
 50
343.3466476073896843
 51
90.0
  0
ARC
  5
251F1
  8
0
 10
5500.062503907235623
 20
-23.4971621685147092
 30
0.0
 40
0.159
 50
163.6775499271645913
 51
173.5739208530283975
  0
ARC
  5
251F2
  8
0
 10
5494.6052784095236348
 20
-21.6016283586784397
 30
0.0
 40
5.6471920648368457
 50
341.116482132091221
 51
348.0934213557106887
  0
ARC
  5
251F3
  8
0
 10
5500.1211879922948356
 20
-22.7646742952376684
 30
0.0
 40
0.01
 50
348.0934213556956252
 51
90.0
  0
ARC
  5
251F4
  8
0
 10
5500.0989725092222216
 20
-23.4807748225592192
 30
0.0
 40
0.159
 50
161.1164821320911926
 51
173.7920990662387908
  0
ARC
  5
251F5
  8
0
 10
5489.6210309641119238
 20
-20.5113997907609082
 30
0.0
 40
10.7507665560798795
 50
344.1790807502945881
 51
347.8901226507334741
  0
ARC
  5
251F6
  8
0
 10
5500.1227841615400393
 20
-22.7646742952376684
 30
0.0
 40
0.01
 50
347.8901226507180127
 51
90.0
  0
ARC
  5
251F7
  8
0
 10
5500.1175193862090964
 20
-23.4857462925918412
 30
0.0
 40
0.159
 50
164.179080750294986
 51
174.1899726093620018
  0
ARC
  5
251F8
  8
0
 10
5496.0099545585417218
 20
-22.1791899137813289
 30
0.0
 40
4.1973822072029581
 50
342.4213614046965972
 51
351.9625058561309743
  0
ARC
  5
251F9
  8
0
 10
5500.1562031989706156
 20
-22.7646742952376684
 30
0.0
 40
0.01
 50
351.9625058561205151
 51
90.0
  0
ARC
  5
251FA
  8
0
 10
5500.1629082371691766
 20
-23.4948804847005803
 30
0.0
 40
0.159
 50
162.4213614046961993
 51
174.2498355377844916
  0
ARC
  5
251FB
  8
0
 10
5496.6477999224543964
 20
-22.3947326388069783
 30
0.0
 40
3.5493324971781481
 50
343.0424436591829931
 51
354.0003146514358718
  0
ARC
  5
251FC
  8
0
 10
5500.1677456175493717
 20
-22.7646742952376684
 30
0.0
 40
0.01
 50
354.0003146514285959
 51
90.0
  0
ARC
  5
251FD
  8
0
 10
5500.1948981170207844
 20
-23.476316804615891
 30
0.0
 40
0.159
 50
163.042443659183391
 51
174.6370442162177028
  0
ARC
  5
251FE
  8
0
 10
5496.7276660031238862
 20
-22.6110874777808988
 30
0.0
 40
3.468997137456999
 50
346.0059342198276795
 51
357.5585887341619014
  0
ARC
  5
251FF
  8
0
 10
5500.2479870056849904
 20
-23.4884148216695117
 30
0.0
 40
0.159
 50
166.0059342198285037
 51
175.3609578457405007
  0
ARC
  5
25200
  8
0
 10
5497.0566384415806169
 20
-22.7399643840862318
 30
0.0
 40
3.1388614106389658
 50
347.2343661086873112
 51
359.4973645300179896
  0
ARC
  5
25201
  8
0
 10
5500.2729774945601093
 20
-23.4686981937639807
 30
0.0
 40
0.159
 50
167.2245350651456022
 51
175.8492816755017998
  0
ARC
  5
25202
  8
0
 10
5496.9258095428021988
 20
-22.9294204716347103
 30
0.0
 40
3.2707036075596871
 50
350.769880250021572
 51
358.4911316145447131
  0
ARC
  5
25203
  8
0
 10
5500.3111056256148004
 20
-23.4795452460325613
 30
0.0
 40
0.159
 50
170.7698802500223962
 51
175.9948838953546044
  0
ARC
  5
25204
  8
0
 10
5536.8519849793701724
 20
-36.0085822716787618
 30
0.0
 40
39.3188179299133225
 50
160.3106948306347874
 51
161.3653910468605091
  0
ARC
  5
25205
  8
0
 10
5499.8414179942692499
 20
-22.764674295237679
 30
0.0
 40
0.01
 50
90.0
 51
160.3106948306140964
  0
ARC
  5
25206
  8
0
 10
5499.7450980706262271
 20
-23.4957774603831808
 30
0.0
 40
0.159
 50
161.365391046857809
 51
174.3576737785635942
  0
ARC
  5
25207
  8
0
 10
5497.1059207848302322
 20
-23.0353192600909615
 30
0.0
 40
3.089929067325043
 50
352.6224054285000875
 51
358.9998191239341168
  0
ARC
  5
25208
  8
0
 10
5500.3279534365447034
 20
-23.4525070784575291
 30
0.0
 40
0.159
 50
172.6224054285005138
 51
177.6754719986167004
  0
ARC
  5
25209
  8
0
 10
5497.1192829831743438
 20
-23.2468095792674205
 30
0.0
 40
3.076628109099012
 50
356.0398368557179083
 51
358.9344569673770025
  0
ARC
  5
2520A
  8
0
 10
5500.3471854144718236
 20
-23.47027133082997
 30
0.0
 40
0.159
 50
176.0398368557187041
 51
178.6746136221076995
  0
ARC
  5
2520B
  8
0
 10
5525.3806612641719767
 20
-24.1480884057076501
 30
0.0
 40
25.9882808435935395
 50
178.4776673004203928
 51
179.9240745683804903
  0
ARC
  5
2520C
  8
0
 10
5537.3670555200442323
 20
-24.8161689546897115
 30
0.0
 40
37.972295303702829
 50
177.9450975563358952
 51
179.4923172080924871
  0
ARC
  5
2520D
  8
0
 10
5558.2417260219217496
 20
-26.3914127262906497
 30
0.0
 40
58.8765195228833207
 50
177.1540089237180098
 51
178.2584269094460012
  0
ARC
  5
2520E
  8
0
 10
5531.0460190697576763
 20
-25.4963697884225517
 30
0.0
 40
31.6538866770130909
 50
176.3061946195894052
 51
179.0010258461115882
  0
ARC
  5
2520F
  8
0
 10
5499.4069420271116542
 20
-24.9446742952376717
 30
0.0
 40
0.01
 50
179.0010258461124124
 51
270.0
  0
ARC
  5
25210
  8
0
 10
5537.2101999360666014
 20
-26.3897669207355001
 30
0.0
 40
37.8238550825676825
 50
175.5583100148460005
 51
177.8098536818588116
  0
ARC
  5
25211
  8
0
 10
5499.4239677408741045
 20
-24.9446742952376717
 30
0.0
 40
0.01
 50
177.8098536818864943
 51
270.0
  0
ARC
  5
25212
  8
0
 10
5534.5481467047284241
 20
-26.2976449209729992
 30
0.0
 40
35.1596527483010703
 50
175.3973145552373865
 51
177.7940418842329962
  0
ARC
  5
25213
  8
0
 10
5499.4245426924389903
 20
-24.9446742952376717
 30
0.0
 40
0.01
 50
177.7940418842403858
 51
270.0
  0
ARC
  5
25214
  8
0
 10
5534.6087158020427523
 20
-26.5882977637360085
 30
0.0
 40
35.2182936121970585
 50
174.9053605432561085
 51
177.3242972980432057
  0
ARC
  5
25215
  8
0
 10
5499.4388076279174129
 20
-24.9446742952376717
 30
0.0
 40
0.01
 50
177.3242972980615093
 51
270.0
  0
ARC
  5
25216
  8
0
 10
5546.4164044368117175
 20
-27.801639821083139
 30
0.0
 40
47.0386784900547497
 50
174.7120964786996069
 51
176.5171694428456988
  0
ARC
  5
25217
  8
0
 10
5499.4745856767231089
 20
-24.9446742952376717
 30
0.0
 40
0.01
 50
176.5171694427889122
 51
270.0
  0
ARC
  5
25218
  8
0
 10
5553.0062685922057426
 20
-28.7578077703038986
 30
0.0
 40
53.6794750381709491
 50
174.3576737785604109
 51
175.6964025772898026
  0
ARC
  5
25219
  8
0
 10
5549.4457732480468621
 20
-28.7173325920827303
 30
0.0
 40
50.1012050491942773
 50
173.9807592184749865
 51
175.6806333811402112
  0
ARC
  5
2521A
  8
0
 10
5499.4968406002335541
 20
-24.9446742952376717
 30
0.0
 40
0.01
 50
175.6806333810895921
 51
270.0
  0
ARC
  5
2521B
  8
0
 10
5581.2379594673329848
 20
-31.33197129374906
 30
0.0
 40
81.9519299878043626
 50
174.4958280391489893
 51
175.5293122610017917
  0
ARC
  5
2521C
  8
0
 10
5499.5453507002057449
 20
-24.9446742952376717
 30
0.0
 40
0.01
 50
175.5293122609274974
 51
270.0
  0
ARC
  5
2521D
  8
0
 10
-12092.5459207260191761
 20
1607.9293176635699183
 30
0.0
 40
17667.698717402490729
 50
354.6970713734891092
 51
354.7018639120972239
  0
ARC
  5
2521E
  8
0
 10
5499.5246550025858596
 20
-24.944674295237661
 30
0.0
 40
0.01
 50
270.0
 51
354.6970713431794024
  0
ARC
  5
2521F
  8
0
 10
5566.5917707518110547
 20
-30.9840159092526584
 30
0.0
 40
67.3237584280272046
 50
173.6016029287725928
 51
174.8525425926420951
  0
ARC
  5
25220
  8
0
 10
5499.5494824064981003
 20
-24.9446742952376717
 30
0.0
 40
0.01
 50
174.8525425926250989
 51
270.0
  0
ARC
  5
25221
  8
0
 10
5562.4536669107747002
 20
-30.8073577973297716
 30
0.0
 40
63.1569932697939507
 50
173.323332911738305
 51
174.6728822731936077
  0
ARC
  5
25222
  8
0
 10
5499.5794138243991256
 20
-24.9446742952376717
 30
0.0
 40
0.01
 50
174.6728822732681863
 51
270.0
  0
ARC
  5
25223
  8
0
 10
5595.751548439686303
 20
-33.5733621507300697
 30
0.0
 40
96.5218088691440244
 50
173.99142666964201
 51
174.8705923346115014
  0
ARC
  5
25224
  8
0
 10
5499.6262396126830936
 20
-24.944674295237661
 30
0.0
 40
0.01
 50
174.8705923345000031
 51
270.0
  0
ARC
  5
25225
  8
0
 10
5595.4688156324991724
 20
-33.6116130484428624
 30
0.0
 40
96.2367375287899307
 50
173.9522737875992959
 51
174.8324875101417888
  0
ARC
  5
25226
  8
0
 10
5499.633179316550013
 20
-24.9446742952376717
 30
0.0
 40
0.01
 50
174.8324875102098872
 51
270.0
  0
ARC
  5
25227
  8
0
 10
5627.8934033854056906
 20
-38.4798129765278816
 30
0.0
 40
128.972574373095398
 50
173.3221459358832988
 51
173.9754833986538074
  0
ARC
  5
25228
  8
0
 10
5499.6430793709441787
 20
-24.9446742952376717
 30
0.0
 40
0.01
 50
173.9754833986393123
 51
270.0
  0
ARC
  5
25229
  8
0
 10
5657.4384356930977447
 20
-41.9669235304644701
 30
0.0
 40
158.6864011689328038
 50
173.3043233127438896
 51
173.8424376264586897
  0
ARC
  5
2522A
  8
0
 10
5499.6576042371043513
 20
-24.944674295237661
 30
0.0
 40
0.01
 50
270.0
 51
353.8424376262798887
  0
ARC
  5
2522B
  8
0
 10
5461.1016572048201851
 20
-20.2529649871086299
 30
0.0
 40
38.8902626296980003
 50
353.0727675068903864
 51
355.2519242397768835
  0
ARC
  5
2522C
  8
0
 10
5499.7179529415616344
 20
-24.944674295237661
 30
0.0
 40
0.01
 50
173.0727675070083933
 51
270.0
  0
ARC
  5
2522D
  8
0
 10
5457.4937478474157615
 20
-19.8821920636793585
 30
0.0
 40
42.5242590631809279
 50
353.1643783828462801
 51
355.1535445038039143
  0
ARC
  5
2522E
  8
0
 10
5499.7256607535218791
 20
-24.944674295237661
 30
0.0
 40
0.01
 50
173.1643783829424876
 51
270.0
  0
ARC
  5
2522F
  8
0
 10
4759.000249966852607
 20
59.9678564515222803
 30
0.0
 40
745.5887278198324566
 50
353.4606807377413134
 51
353.5739208529034272
  0
ARC
  5
25230
  8
0
 10
5499.7480647113397936
 20
-24.9446742952376717
 30
0.0
 40
0.01
 50
173.4606807395817896
 51
270.0
  0
ARC
  5
25231
  8
0
 10
5271.334119560579893
 20
1.402959897600865
 30
0.0
 40
229.9552285871027948
 50
353.421046159697994
 51
353.7920990662217946
  0
ARC
  5
25232
  8
0
 10
5499.7850082249888146
 20
-24.944674295237661
 30
0.0
 40
0.01
 50
173.421046160348908
 51
270.0
  0
ARC
  5
25233
  8
0
 10
5393.7808211102783389
 20
-12.6656559336815295
 30
0.0
 40
106.7267696590213006
 50
353.3928132455292825
 51
354.1899726093527079
  0
ARC
  5
25234
  8
0
 10
5499.7888143680193025
 20
-24.944674295237661
 30
0.0
 40
0.01
 50
270.0
 51
353.3928132456360913
  0
ARC
  5
25235
  8
0
 10
5382.5558111584887229
 20
-11.6521275136554596
 30
0.0
 40
118.0428615809720014
 50
353.5348843492287756
 51
354.2498355377795747
  0
ARC
  5
25236
  8
0
 10
5499.8579267724699093
 20
-24.944674295237661
 30
0.0
 40
0.01
 50
173.5348843491402135
 51
270.0
  0
ARC
  5
25237
  8
0
 10
5414.5912576798828013
 20
-15.4402279581702402
 30
0.0
 40
85.8210091884085386
 50
353.6408591814561078
 51
354.6370442162026961
  0
ARC
  5
25238
  8
0
 10
5499.8742852865461828
 20
-24.9446742952376503
 30
0.0
 40
0.01
 50
270.0
 51
353.640859181526082
  0
ARC
  5
25239
  8
0
 10
5435.913557705724088
 20
-18.2680649400228887
 30
0.0
 40
64.3868817140048719
 50
354.047076536480688
 51
355.36095784573439
  0
ARC
  5
2523A
  8
0
 10
5499.9432835112984321
 20
-24.9446742952376503
 30
0.0
 40
0.01
 50
270.0
 51
354.0470765364685235
  0
ARC
  5
2523B
  8
0
 10
5443.7629597089744493
 20
-19.3677267568720914
 30
0.0
 40
56.4996275588594798
 50
354.3342357255958746
 51
355.8492816754965133
  0
ARC
  5
2523C
  8
0
 10
5499.9766206633448746
 20
-24.9446742952376503
 30
0.0
 40
0.01
 50
270.0
 51
354.3342357254426815
  0
ARC
  5
2523D
  8
0
 10
5422.8950455921676621
 20
-18.0591404275431593
 30
0.0
 40
77.4465870379085572
 50
354.89861614109941
 51
355.9948838953363861
  0
ARC
  5
2523E
  8
0
 10
5500.024899964107135
 20
-24.9446742952376503
 30
0.0
 40
0.01
 50
270.0
 51
354.8986161408432736
  0
ARC
  5
2523F
  8
0
 10
5466.5225218430450695
 20
-22.0802451770330492
 30
0.0
 40
33.674272202802193
 50
355.118908747771286
 51
357.6754719986179794
  0
ARC
  5
25240
  8
0
 10
5500.0647082472014517
 20
-24.9446742952376503
 30
0.0
 40
0.01
 50
270.0
 51
355.1189087477014255
  0
ARC
  5
25241
  8
0
 10
5466.1581250165309029
 20
-22.6792567118548583
 30
0.0
 40
34.0392098218822667
 50
356.1828401151875028
 51
358.6746136221000256
  0
ARC
  5
25242
  8
0
 10
5500.1118435798125574
 20
-24.9446742952376503
 30
0.0
 40
0.01
 50
270.0
 51
356.1828401150779086
  0
ARC
  5
25243
  8
0
 10
5460.9166714750626852
 20
-22.69694990056988
 30
0.0
 40
39.2895704139542019
 50
356.7195285117074945
 51
358.6526505357774113
  0
ARC
  5
25244
  8
0
 10
5500.1318775429963353
 20
-24.9446742952376397
 30
0.0
 40
0.01
 50
270.0
 51
356.7195285117139747
  0
ARC
  5
25245
  8
0
 10
5554.4535209121586377
 20
-25.5239741462026615
 30
0.0
 40
54.2841920518341965
 50
178.2248954875202003
 51
179.3886626714482873
  0
ARC
  5
25246
  8
0
 10
5500.1624194106780124
 20
-24.9446742952376397
 30
0.0
 40
0.01
 50
270.0
 51
359.3886626715045054
  0
ARC
  5
25247
  8
0
 10
5439.8683335084369901
 20
-23.4713199780778012
 30
0.0
 40
60.3332564955686479
 50
358.6004505661824737
 51
359.1778682813337014
  0
ARC
  5
25248
  8
0
 10
5500.17359448363095
 20
-24.9446742952376397
 30
0.0
 40
0.01
 50
270.0
 51
358.6004505662057227
  0
ARC
  5
25249
  8
0
 10
5499.7938911546361851
 20
-22.1681622113376591
 30
0.0
 40
0.4014879160999998
 50
0.0
 51
180.0
  0
LINE
  5
2524A
  8
0
 10
5499.3924032385366445
 20
-22.1681622113376591
 30
0.0
 11
5499.3924032385366445
 21
-22.7426704995690905
 31
0.0
  0
LINE
  5
2524B
  8
0
 10
5499.3924032385366445
 20
-22.7646742952377004
 30
0.0
 11
5499.3924032385366445
 21
-24.944674295237661
 31
0.0
  0
ARC
  5
2524C
  8
0
 10
5499.4024032385359533
 20
-22.7646742952377004
 30
0.0
 40
0.01
 50
90.0
 51
180.0
  0
LINE
  5
2524D
  8
0
 10
5500.1953790707366352
 20
-22.1681622113376591
 30
0.0
 11
5500.1953790707366352
 21
-22.7426702722489189
 31
0.0
  0
LINE
  5
2524E
  8
0
 10
5500.1953790707366352
 20
-22.7646742952376684
 30
0.0
 11
5500.1953790707366352
 21
-24.944674295237661
 31
0.0
  0
ARC
  5
2524F
  8
0
 10
5500.1853790707364169
 20
-22.7646742952376684
 30
0.0
 40
0.01
 50
0.0
 51
90.0
  0
ARC
  5
25250
  8
0
 10
5499.4024032385359533
 20
-24.944674295237661
 30
0.0
 40
0.01
 50
180.0000000000179057
 51
270.0
  0
ARC
  5
25251
  8
0
 10
5500.1853790707364169
 20
-24.944674295237661
 30
0.0
 40
0.01
 50
270.0
 51
359.9999999999873808
  0
LINE
  5
25252
  8
0
 10
5498.9608814988450831
 20
-22.114674295237819
 30
0.0
 11
5498.9907043768562289
 21
-22.114674295237819
 31
0.0
  0
ARC
  5
25253
  8
0
 10
5499.7938911546361851
 20
-22.1686742952376612
 30
0.0
 40
0.8049999999999997
 50
299.9168560031134234
 51
240.0831439968864061
  0
LINE
  5
25254
  8
0
 10
5498.9608814988450831
 20
-22.2216501274374885
 30
0.0
 11
5498.9907043768562289
 21
-22.2216501274374885
 31
0.0
  0
ARC
  5
25255
  8
0
 10
5498.9608814146213263
 20
-22.1681622113376591
 30
0.0
 40
0.0534879160999028
 50
89.9999097784183419
 51
270.0000902215816723
  0
LINE
  5
25256
  8
0
 10
5498.9188913044818037
 20
-22.1350293300970904
 30
0.0
 11
5498.9188913044818037
 21
-22.2012950925782313
 31
0.0
  0
LINE
  5
25257
  8
0
 10
5498.9226663051313153
 20
-22.1307381204940796
 30
0.0
 11
5498.9226663051313153
 21
-22.2055863021812385
 31
0.0
  0
LINE
  5
25258
  8
0
 10
5500.6269008104272871
 20
-22.114674295237819
 30
0.0
 11
5500.5970779324161413
 21
-22.114674295237819
 31
0.0
  0
LINE
  5
25259
  8
0
 10
5500.6269008104272871
 20
-22.2216501274374885
 30
0.0
 11
5500.5970779324161413
 21
-22.2216501274374885
 31
0.0
  0
ARC
  5
2525A
  8
0
 10
5500.6269008946528629
 20
-22.1681622113376591
 30
0.0
 40
0.0534879160999028
 50
269.9999097784183277
 51
90.0000902215816438
  0
LINE
  5
2525B
  8
0
 10
5500.668891004789657
 20
-22.1350293300970904
 30
0.0
 11
5500.668891004789657
 21
-22.2012950925782313
 31
0.0
  0
LINE
  5
2525C
  8
0
 10
5500.6651160041410549
 20
-22.1307381204940796
 30
0.0
 11
5500.6651160041410549
 21
-22.2055863021812385
 31
0.0
  0
CIRCLE
  5
2525E
  8
0
 10
5499.7938911546361851
 20
-22.1681622113376591
 30
0.0
 40
3.1244879161000001
  0
ENDSEC
  0
EOF
