  0
SECTION
  2
HEADER
  9
$ACADVER
  1
AC1009
  9
$INSBASE
 10
5186.151771549055411
 20
461.7081126263502142
 30
0.0
  9
$EXTMIN
 10
5184.276771549053592
 20
458.9221126263499855
 30
0.0
  9
$EXTMAX
 10
5188.026771549053592
 20
463.5831126263503279
 30
0.0
  9
$LIMMIN
 10
0.0
 20
0.0
  9
$LIMMAX
 10
11.6929133858000007
 20
8.2677165353999982
  9
$ORTHOMODE
 70
     0
  9
$REGENMODE
 70
     1
  9
$FILLMODE
 70
     1
  9
$QTEXTMODE
 70
     0
  9
$MIRRTEXT
 70
     0
  9
$DRAGMODE
 70
     2
  9
$LTSCALE
 40
0.6431102362
  9
$OSMODE
 70
  4095
  9
$ATTMODE
 70
     1
  9
$TEXTSIZE
 40
0.2
  9
$TRACEWID
 40
0.05
  9
$TEXTSTYLE
  7
STANDARD
  9
$CLAYER
  8
0
  9
$CELTYPE
  6
BYLAYER
  9
$CECOLOR
 62
   256
  9
$DIMSCALE
 40
1.0
  9
$DIMASZ
 40
0.1875
  9
$DIMEXO
 40
0.0625
  9
$DIMDLI
 40
0.4443307087
  9
$DIMRND
 40
0.0
  9
$DIMDLE
 40
0.0
  9
$DIMEXE
 40
0.125
  9
$DIMTP
 40
0.01
  9
$DIMTM
 40
0.01
  9
$DIMTXT
 40
2.0
  9
$DIMCEN
 40
0.1052362205
  9
$DIMTSZ
 40
0.0
  9
$DIMTOL
 70
     1
  9
$DIMLIM
 70
     0
  9
$DIMTIH
 70
     1
  9
$DIMTOH
 70
     1
  9
$DIMSE1
 70
     0
  9
$DIMSE2
 70
     0
  9
$DIMTAD
 70
     0
  9
$DIMZIN
 70
     0
  9
$DIMBLK
  1

  9
$DIMASO
 70
     1
  9
$DIMSHO
 70
     1
  9
$DIMPOST
  1
\X
  9
$DIMAPOST
  1

  9
$DIMALT
 70
     1
  9
$DIMALTD
 70
     2
  9
$DIMALTF
 40
25.3999999999999986
  9
$DIMLFAC
 40
1.0
  9
$DIMTOFL
 70
     0
  9
$DIMTVP
 40
0.0
  9
$DIMTIX
 70
     0
  9
$DIMSOXD
 70
     0
  9
$DIMSAH
 70
     0
  9
$DIMBLK1
  1

  9
$DIMBLK2
  1

  9
$DIMSTYLE
  2
STANDARD
  9
$DIMCLRD
 70
     0
  9
$DIMCLRE
 70
     0
  9
$DIMCLRT
 70
     0
  9
$DIMTFAC
 40
1.0
  9
$DIMGAP
 40
0.09
  9
$LUNITS
 70
     2
  9
$LUPREC
 70
     4
  9
$SKETCHINC
 40
0.1
  9
$FILLETRAD
 40
0.0
  9
$AUNITS
 70
     0
  9
$AUPREC
 70
     0
  9
$MENU
  1
.
  9
$ELEVATION
 40
0.0
  9
$PELEVATION
 40
0.0
  9
$THICKNESS
 40
0.0
  9
$LIMCHECK
 70
     0
  9
$BLIPMODE
 70
     0
  9
$CHAMFERA
 40
0.0
  9
$CHAMFERB
 40
0.0
  9
$SKPOLY
 70
     0
  9
$TDCREATE
 40
2458060.468368056230247
  9
$TDUPDATE
 40
2460088.5840509259141982
  9
$TDINDWG
 40
0.6439538194
  9
$TDUSRTIMER
 40
0.6439538194
  9
$USRTIMER
 70
     1
  9
$ANGBASE
 50
0.0
  9
$ANGDIR
 70
     0
  9
$PDMODE
 70
     0
  9
$PDSIZE
 40
0.3125
  9
$PLINEWID
 40
0.0
  9
$COORDS
 70
     1
  9
$SPLFRAME
 70
     0
  9
$SPLINETYPE
 70
     6
  9
$SPLINESEGS
 70
     8
  9
$ATTDIA
 70
     1
  9
$ATTREQ
 70
     1
  9
$HANDLING
 70
     1
  9
$HANDSEED
  5
18781
  9
$SURFTAB1
 70
     6
  9
$SURFTAB2
 70
     6
  9
$SURFTYPE
 70
     6
  9
$SURFU
 70
     6
  9
$SURFV
 70
     6
  9
$UCSNAME
  2

  9
$UCSORG
 10
0.0
 20
0.0
 30
0.0
  9
$UCSXDIR
 10
1.0
 20
0.0
 30
0.0
  9
$UCSYDIR
 10
0.0
 20
1.0
 30
0.0
  9
$PUCSNAME
  2

  9
$PUCSORG
 10
0.0
 20
0.0
 30
0.0
  9
$PUCSXDIR
 10
1.0
 20
0.0
 30
0.0
  9
$PUCSYDIR
 10
0.0
 20
1.0
 30
0.0
  9
$USERI1
 70
     0
  9
$USERI2
 70
     0
  9
$USERI3
 70
     0
  9
$USERI4
 70
     0
  9
$USERI5
 70
     0
  9
$USERR1
 40
0.0
  9
$USERR2
 40
0.0
  9
$USERR3
 40
0.0
  9
$USERR4
 40
0.0
  9
$USERR5
 40
0.0
  9
$WORLDVIEW
 70
     1
  9
$SHADEDGE
 70
     3
  9
$SHADEDIF
 70
    70
  9
$TILEMODE
 70
     1
  9
$MAXACTVP
 70
    64
  9
$PLIMCHECK
 70
     0
  9
$PEXTMIN
 10
1.0000000000000000E+20
 20
1.0000000000000000E+20
 30
1.0000000000000000E+20
  9
$PEXTMAX
 10
-1.0000000000000000E+20
 20
-1.0000000000000000E+20
 30
-1.0000000000000000E+20
  9
$PLIMMIN
 10
0.0
 20
0.0
  9
$PLIMMAX
 10
12.0
 20
9.0
  9
$UNITMODE
 70
     0
  9
$VISRETAIN
 70
     1
  9
$PLINEGEN
 70
     0
  9
$PSLTSCALE
 70
     1
  0
ENDSEC
  0
SECTION
  2
TABLES
  0
TABLE
  2
VPORT
 70
     1
  0
VPORT
  2
*ACTIVE
 70
     0
 10
0.0
 20
0.0
 11
1.0
 21
1.0
 12
1382.6077041662420015
 22
335.2573504296001943
 13
0.0
 23
0.0
 14
1.0
 24
1.0
 15
0.0
 25
0.0
 16
0.0
 26
0.0
 36
17.1152628219792007
 17
3803.5440673828129547
 27
125.9952621967499056
 37
0.0
 40
4.6968079385405872
 41
1.4307692307692299
 42
50.0
 43
0.0
 44
0.0
 50
0.0
 51
0.0
 71
     0
 72
   100
 73
     1
 74
     1
 75
     0
 76
     0
 77
     0
 78
     0
  0
ENDTAB
  0
TABLE
  2
LTYPE
 70
     2
  0
LTYPE
  2
CONTINUOUS
 70
     0
  3
Solid line
 72
    65
 73
     0
 40
0.0
  0
LTYPE
  2
PHANTOM2
 70
     0
  3
___ _ _ ___ _ _ ___ _ _ ___ _ _
 72
    65
 73
     6
 40
1.25
 49
0.625
 49
-0.125
 49
0.125
 49
-0.125
 49
0.125
 49
-0.125
  0
ENDTAB
  0
TABLE
  2
LAYER
 70
     2
  0
LAYER
  2
0
 70
     0
 62
   255
  6
CONTINUOUS
  0
LAYER
  2
DEFPOINTS
 70
     0
 62
     7
  6
CONTINUOUS
  0
ENDTAB
  0
TABLE
  2
STYLE
 70
     1
  0
STYLE
  2
STANDARD
 70
     0
 40
0.0
 41
0.8
 50
0.0
 71
     0
 42
0.2
  3
txt
  4

  0
ENDTAB
  0
TABLE
  2
VIEW
 70
     0
  0
ENDTAB
  0
TABLE
  2
UCS
 70
     0
  0
ENDTAB
  0
TABLE
  2
APPID
 70
    10
  0
APPID
  2
ACAD
 70
     0
  0
APPID
  2
ACAD_MLEADERVER
 70
     0
  0
APPID
  2
ACAD_EXEMPT_FROM_CAD_STANDARDS
 70
     0
  0
APPID
  2
ACAD_NAV_VCDISPLAY
 70
     0
  0
APPID
  2
ACAECLAYERSTANDARD
 70
     0
  0
APPID
  2
ACCMTRANSPARENCY
 70
     0
  0
APPID
  2
ACAD_DSTYLE_DIMJAG
 70
     0
  0
APPID
  2
ACAD_DSTYLE_DIMTALN
 70
     0
  0
APPID
  2
ACDBATTR
 70
     0
  0
APPID
  2
ACADANNOTATIVE
 70
     0
  0
ENDTAB
  0
TABLE
  2
DIMSTYLE
 70
     1
  0
DIMSTYLE
  2
STANDARD
 70
     0
  3

  4

  5

  6

  7

 40
1.0
 41
0.1875
 42
0.0625
 43
0.38
 44
0.125
 45
0.0
 46
0.0
 47
0.01
 48
0.01
140
0.15625
141
0.09
142
0.0
143
25.3999999999999986
144
1.0
145
0.0
146
1.0
147
0.09
 71
     1
 72
     0
 73
     1
 74
     1
 75
     0
 76
     0
 77
     0
 78
     4
170
     0
171
     2
172
     0
173
     0
174
     0
175
     0
176
     0
177
     0
178
     0
  0
ENDTAB
  0
ENDSEC
  0
SECTION
  2
BLOCKS
  0
BLOCK
  8
0
  2
$MODEL_SPACE
 70
     0
 10
0.0
 20
0.0
 30
0.0
  3
$MODEL_SPACE
  1

  0
ENDBLK
  5
21
  8
0
  0
BLOCK
 67
     1
  8
0
  2
$PAPER_SPACE
 70
     0
 10
0.0
 20
0.0
 30
0.0
  3
$PAPER_SPACE
  1

  0
ENDBLK
  5
1D
 67
     1
  8
0
  0
ENDSEC
  0
SECTION
  2
ENTITIES
  0
ATTDEF
  5
3930
  8
DEFPOINTS
 10
5186.1475102282056469
 20
461.7119371776973935
 30
0.0
 40
0.001
  1
P40878-LV
  3

  2
MODELNUMBER
 70
     0
1001
ACDBATTR
1070
     0
1070
     1
  0
ATTDEF
  5
3931
  8
DEFPOINTS
 10
5186.1475102282056469
 20
461.7102705110307284
 30
0.0
 40
0.001
  1
ONE
  3

  2
TRADENAME
 70
     0
1001
ACDBATTR
1070
     0
1070
     1
  0
ATTDEF
  5
3932
  8
DEFPOINTS
 10
5186.1475102282056469
 20
461.7086038443640064
 30
0.0
 40
0.001
  1
VALVE TRIM
  3

  2
PRODUCT
 70
     0
1001
ACDBATTR
1070
     0
1070
     1
  0
ARC
  5
18654
  8
0
 10
5186.151771549055411
 20
461.7081126263502142
 30
0.0
 40
0.9
 50
296.515099167508879
 51
243.4849008324910926
  0
ARC
  5
18655
  8
0
 10
5186.151771549055411
 20
461.7081126263502142
 30
0.0
 40
0.4020000000000002
 50
0.5733707211469486
 51
179.4266292788562964
  0
LINE
  5
18656
  8
0
 10
5185.7497916778684157
 20
461.1371126263501878
 30
0.0
 11
5185.7497916778684157
 21
461.7121354563868181
 31
0.0
  0
ARC
  5
18657
  8
0
 10
5185.7647916778678336
 20
461.1371126263501878
 30
0.0
 40
0.015
 50
179.9999999999967031
 51
270.0
  0
LINE
  5
18658
  8
0
 10
5186.5537514202405873
 20
461.1371126263501878
 30
0.0
 11
5186.5537514202405873
 21
461.7121354563868181
 31
0.0
  0
ARC
  5
18659
  8
0
 10
5186.5387514202402599
 20
461.1371126263501878
 30
0.0
 40
0.015
 50
270.0
 51
0.0000000000032569
  0
ARC
  5
1865B
  8
0
 10
5186.151771549055411
 20
461.7081126263502142
 30
0.0
 40
1.875
 50
282.3737678222792056
 51
257.6262321777207944
  0
LINE
  5
1865C
  8
0
 10
5185.7599812732041755
 20
458.9221126263502128
 30
0.0
 11
5186.5435618249048275
 21
458.9221126263502128
 31
0.0
  0
LINE
  5
1865D
  8
0
 10
5185.7499812732048667
 20
458.9321126263502038
 30
0.0
 11
5185.7499812732048667
 21
461.1121126263502106
 31
0.0
  0
ARC
  5
1865E
  8
0
 10
5185.7599812732041755
 20
461.1121126263502106
 30
0.0
 40
0.01
 50
90.0
 51
180.0
  0
ARC
  5
1865F
  8
0
 10
5185.7599812732041755
 20
458.9321126263503174
 30
0.0
 40
0.01
 50
180.0000000000065086
 51
270.0
  0
LINE
  5
18660
  8
0
 10
5186.5535618249041363
 20
458.9321126263502038
 30
0.0
 11
5186.5535618249041363
 21
461.1121126263502106
 31
0.0
  0
ARC
  5
18661
  8
0
 10
5186.5435618249048275
 20
458.9321126263503174
 30
0.0
 40
0.01
 50
270.0
 51
359.9999999999869829
  0
LINE
  5
18662
  8
0
 10
5185.7599812732041755
 20
461.1221126263503152
 30
0.0
 11
5186.5435618249048275
 21
461.1221126263503152
 31
0.0
  0
ARC
  5
18663
  8
0
 10
5186.5435618249048275
 20
461.1121126263502106
 30
0.0
 40
0.01
 50
0.0
 51
90.0
  0
LINE
  5
18664
  8
0
 10
5185.7558423818054507
 20
461.1121126150503073
 30
0.0
 11
5185.7499812732048667
 21
461.0322388371449733
 31
0.0
  0
LINE
  5
18665
  8
0
 10
5185.7758713285802514
 20
461.112812630438782
 30
0.0
 11
5185.7499812732048667
 21
460.8531553421319131
 31
0.0
  0
LINE
  5
18666
  8
0
 10
5185.7891927958044107
 20
461.1092615081502117
 30
0.0
 11
5185.7499812732048667
 21
460.7767751542589849
 31
0.0
  0
LINE
  5
18667
  8
0
 10
5185.8263953658051832
 20
461.1121126936849919
 30
0.0
 11
5185.7499812732048667
 21
460.6213847303069997
 31
0.0
  0
LINE
  5
18668
  8
0
 10
5185.8502266826044433
 20
461.1121126181502063
 30
0.0
 11
5185.7603579596907366
 21
460.5696243006537998
 31
0.0
  0
ARC
  5
18669
  8
0
 10
5186.2249101276765941
 20
461.1130865504537155
 30
0.0
 40
0.0242906486754109
 50
357.7016179241599048
 51
21.8134910456367592
  0
ARC
  5
1866A
  8
0
 10
5186.25221513262386
 20
461.1130868191085028
 30
0.0
 40
0.0242906486754109
 50
357.7016179241599048
 51
21.8134910456367592
  0
ARC
  5
1866B
  8
0
 10
5186.1908370956498402
 20
461.1122508245574068
 30
0.0
 40
0.0242906486754109
 50
357.7016179241599048
 51
23.9532872151698015
  0
LINE
  5
1866C
  8
0
 10
5185.8920881267049481
 20
461.1092509930502956
 30
0.0
 11
5185.7847858198529138
 21
460.5664334669036748
 31
0.0
  0
LINE
  5
1866D
  8
0
 10
5185.9331896411040361
 20
461.1121126117502058
 30
0.0
 11
5185.8391656752792187
 21
460.7168086948375958
 31
0.0
  0
LINE
  5
1866E
  8
0
 10
5185.9715769490157982
 20
461.1092509848671739
 30
0.0
 11
5185.8488093838786881
 21
460.5919645717700064
 31
0.0
  0
LINE
  5
1866F
  8
0
 10
5185.9930308801349383
 20
461.1135762941347025
 30
0.0
 11
5185.8704184670277755
 21
460.6830153725207992
 31
0.0
  0
LINE
  5
18670
  8
0
 10
5186.042203887004689
 20
461.1090838167502852
 30
0.0
 11
5185.8348888473201441
 21
460.4427277950363191
 31
0.0
  0
LINE
  5
18671
  8
0
 10
5186.0644145432052028
 20
461.1092509930502956
 30
0.0
 11
5185.8758716672045921
 21
460.4342633690503135
 31
0.0
  0
LINE
  5
18672
  8
0
 10
5186.1040647892041306
 20
461.1013577441502775
 30
0.0
 11
5185.8830656117042963
 21
460.4243077132503004
 31
0.0
  0
LINE
  5
18673
  8
0
 10
5186.1488962963048834
 20
461.1086847984502128
 30
0.0
 11
5185.9232788716553841
 21
460.4381784284622086
 31
0.0
  0
LINE
  5
18674
  8
0
 10
5185.9512844926048274
 20
460.4342633688502247
 30
0.0
 11
5186.1637154728050518
 21
461.1092509778503086
 31
0.0
  0
LINE
  5
18675
  8
0
 10
5186.2151082031768965
 20
461.1112766826540224
 30
0.0
 11
5185.9732069825704457
 21
460.4227137846007736
 31
0.0
  0
ARC
  5
18676
  8
0
 10
5187.0578095750361172
 20
460.2391474794638953
 30
0.0
 40
1.2594289829609211
 50
163.7314082410904064
 51
171.9892378160774058
  0
LINE
  5
18677
  8
0
 10
5185.8106702139220943
 20
460.4146603766603221
 30
0.0
 11
5185.759871739504888
 21
458.9321126263503174
 31
0.0
  0
LINE
  5
18678
  8
0
 10
5185.7532020996040956
 20
458.9321126263503174
 30
0.0
 11
5185.7863481470039915
 21
460.4180677952502947
 31
0.0
  0
ARC
  5
18679
  8
0
 10
5185.9789516039991213
 20
460.4107444459706926
 30
0.0
 40
0.1927426343367882
 50
171.8170172213191904
 51
177.8224951022909863
  0
ARC
  5
1867A
  8
0
 10
5189.5212766937784181
 20
459.8989351080304004
 30
0.0
 40
3.7718508396472541
 50
167.4767279120540877
 51
171.7805347472551034
  0
LINE
  5
1867B
  8
0
 10
5185.7825357530045949
 20
458.9321126263503174
 30
0.0
 11
5185.8707918218469786
 21
460.4099382465981876
 31
0.0
  0
LINE
  5
1867C
  8
0
 10
5185.8312968279969937
 20
460.4181135562071177
 30
0.0
 11
5185.7675483709917899
 21
458.9321126263503174
 31
0.0
  0
LINE
  5
1867D
  8
0
 10
5185.9478348880093108
 20
460.4151905998731991
 30
0.0
 11
5185.8370076943047025
 21
458.9321126263503174
 31
0.0
  0
LINE
  5
1867E
  8
0
 10
5185.8638938285248514
 20
458.9321126263503174
 30
0.0
 11
5185.9693307085053675
 21
460.4043539623502852
 31
0.0
  0
LINE
  5
1867F
  8
0
 10
5186.0023117360469769
 20
460.4008290119298863
 30
0.0
 11
5185.8743679426042945
 21
458.9321126263503174
 31
0.0
  0
LINE
  5
18680
  8
0
 10
5186.0770300384911025
 20
460.4227081983552807
 30
0.0
 11
5186.3198309666486239
 21
461.1094734427039157
 31
0.0
  0
LINE
  5
18681
  8
0
 10
5186.072761697903843
 20
460.4043452365502844
 30
0.0
 11
5185.9191047737049303
 21
458.9321126263503174
 31
0.0
  0
LINE
  5
18682
  8
0
 10
5186.0091392218046167
 20
460.4412090763502192
 30
0.0
 11
5186.2491812352036504
 21
461.1121124085502174
 31
0.0
  0
LINE
  5
18683
  8
0
 10
5186.0458035227047731
 20
460.414425873950222
 30
0.0
 11
5185.9050023518047965
 21
458.9321126263503174
 31
0.0
  0
LINE
  5
18684
  8
0
 10
5186.0493831664043682
 20
460.4319729938501951
 30
0.0
 11
5186.2764862401518258
 21
461.1121126772051184
 31
0.0
  0
LINE
  5
18685
  8
0
 10
5186.3507727397145572
 20
461.1121125444552717
 30
0.0
 11
5186.1158442089054006
 21
460.4412081515503132
 31
0.0
  0
LINE
  5
18686
  8
0
 10
5186.1468672670043816
 20
460.4319729939501826
 30
0.0
 11
5186.3712883949046955
 21
461.1071598151502826
 31
0.0
  0
LINE
  5
18687
  8
0
 10
5186.410880824603737
 20
461.1013580173502078
 30
0.0
 11
5186.1863616322661983
 21
460.4227135480546735
 31
0.0
  0
LINE
  5
18688
  8
0
 10
5186.1820381964953413
 20
460.4043490136933201
 30
0.0
 11
5186.0158315755388685
 21
458.9321126263503174
 31
0.0
  0
LINE
  5
18689
  8
0
 10
5185.9867194309636034
 20
458.9321126263503174
 30
0.0
 11
5186.1431307988923436
 21
460.4144258740547002
 31
0.0
  0
LINE
  5
1868A
  8
0
 10
5186.1105363420074355
 20
460.4181581089262068
 30
0.0
 11
5185.9503212795052605
 21
458.9321126263503174
 31
0.0
  0
LINE
  5
1868B
  8
0
 10
5186.220055566089286
 20
460.4190791861075809
 30
0.0
 11
5186.0516738867299864
 21
458.9321126263503174
 31
0.0
  0
LINE
  5
1868C
  8
0
 10
5186.2251996263466935
 20
460.4412142510104218
 30
0.0
 11
5186.4375901269486349
 21
461.1121126263502106
 31
0.0
  0
LINE
  5
1868D
  8
0
 10
5186.2526488895473449
 20
460.4310098988705136
 30
0.0
 11
5186.4504167564846284
 21
461.1064551416250765
 31
0.0
  0
LINE
  5
1868E
  8
0
 10
5186.2483652901037203
 20
460.4101036249501817
 30
0.0
 11
5186.0815308521059706
 21
458.9321126263503174
 31
0.0
  0
LINE
  5
1868F
  8
0
 10
5186.28908537870484
 20
460.4043466059501952
 30
0.0
 11
5186.1231669579610752
 21
458.9321126263503174
 31
0.0
  0
LINE
  5
18690
  8
0
 10
5186.2931217168043077
 20
460.4227120709501833
 30
0.0
 11
5186.4841401507046612
 21
461.101357742350217
 31
0.0
  0
LINE
  5
18691
  8
0
 10
5186.3243867868040979
 20
460.4190793730501809
 30
0.0
 11
5186.1604347727479762
 21
458.9321126263503174
 31
0.0
  0
LINE
  5
18692
  8
0
 10
5186.3473707991315678
 20
460.4093449128752127
 30
0.0
 11
5186.202973788314921
 21
458.9321126263503174
 31
0.0
  0
LINE
  5
18693
  8
0
 10
5186.3858732806047556
 20
460.4043503410503035
 30
0.0
 11
5186.2331052415047452
 21
458.9321126263503174
 31
0.0
  0
LINE
  5
18694
  8
0
 10
5186.4159019854041617
 20
460.4190793578503076
 30
0.0
 11
5186.268537650304097
 21
458.9321126263503174
 31
0.0
  0
LINE
  5
18695
  8
0
 10
5186.4653144517042165
 20
460.4043503418502041
 30
0.0
 11
5186.3247882914429283
 21
458.9321126263503174
 31
0.0
  0
LINE
  5
18696
  8
0
 10
5186.4871406792190101
 20
460.408459333182293
 30
0.0
 11
5186.3679650262884024
 21
458.9321126263503174
 31
0.0
  0
LINE
  5
18697
  8
0
 10
5186.5214860924043023
 20
460.4043503402501756
 30
0.0
 11
5186.4105934970848466
 21
458.9321126263503174
 31
0.0
  0
LINE
  5
18698
  8
0
 10
5186.5347992238048391
 20
460.4064328221502933
 30
0.0
 11
5186.4538855957043779
 21
458.9321126263503174
 31
0.0
  0
LINE
  5
18699
  8
0
 10
5186.5356768204046602
 20
460.4277020837503187
 30
0.0
 11
5186.5535618249041363
 21
460.6372510379044911
 31
0.0
  0
LINE
  5
1869A
  8
0
 10
5186.5231510230278218
 20
460.422722382983693
 30
0.0
 11
5186.5535618249041363
 21
460.7545365301310198
 31
0.0
  0
LINE
  5
1869B
  8
0
 10
5186.4906478358043387
 20
460.4412093113501783
 30
0.0
 11
5186.5535618249041363
 21
460.9117271524505099
 31
0.0
  0
LINE
  5
1869C
  8
0
 10
5186.4680077264738429
 20
460.4227143244592071
 30
0.0
 11
5186.5535618249041363
 21
461.0801434618625763
 31
0.0
  0
LINE
  5
1869D
  8
0
 10
5186.419816788404205
 20
460.441209336150223
 30
0.0
 11
5186.5428335746546509
 21
461.1117049105502019
 31
0.0
  0
LINE
  5
1869E
  8
0
 10
5186.3893840253049348
 20
460.4227138562503114
 30
0.0
 11
5186.5332315135037788
 21
461.1092430526388171
 31
0.0
  0
LINE
  5
1869F
  8
0
 10
5186.3508749797656492
 20
460.4287218784198785
 30
0.0
 11
5186.5035289470042699
 21
461.1061614059502745
 31
0.0
  0
LINE
  5
186A0
  8
0
 10
5186.3290907080054239
 20
460.441207990250291
 30
0.0
 11
5186.4242124591783067
 21
460.7541749819453116
 31
0.0
  0
LINE
  5
186A1
  8
0
 10
5186.4946361197044098
 20
458.9321126263503174
 30
0.0
 11
5186.5535618249041363
 21
460.0802811980735783
 31
0.0
  0
LINE
  5
186A2
  8
0
 10
5186.5135090551921166
 20
458.9321126263503174
 30
0.0
 11
5186.5535618249041363
 21
459.9093590122495243
 31
0.0
  0
LINE
  5
186A3
  8
0
 10
5186.538445646206128
 20
458.9321126263503174
 30
0.0
 11
5186.5535618249041363
 21
459.6714927219579181
 31
0.0
  0
LINE
  5
186A4
  8
0
 10
5186.5477599460045894
 20
458.9321126263503174
 30
0.0
 11
5186.5535618249041363
 21
459.1693576254622826
 31
0.0
  0
LINE
  5
186A5
  8
0
 10
5185.798801441705109
 20
458.9321126263503174
 30
0.0
 11
5185.9194850448047873
 21
460.4180677900503156
 31
0.0
  0
ARC
  5
186A6
  8
0
 10
5185.7657903132212596
 20
461.1121739763602818
 30
0.0
 40
0.0099481206599246
 50
92.5002988281244143
 51
180.3534101067589859
  0
ARC
  5
186A7
  8
0
 10
5185.785679549751876
 20
461.1124055919339071
 30
0.0
 40
0.0098166635321385
 50
98.5708448526748668
 51
177.623604374650597
  0
ARC
  5
186A8
  8
0
 10
5185.8047442464394408
 20
461.1100735585508232
 30
0.0
 40
0.0155726376275828
 50
129.3677143377288132
 51
182.989100096455104
  0
ARC
  5
186A9
  8
0
 10
5185.8363953658054015
 20
461.1121126263502106
 30
0.0
 40
0.0100000000000027
 50
90.0
 51
179.9996142002648867
  0
ARC
  5
186AA
  8
0
 10
5185.8627343704702071
 20
461.1114754222048191
 30
0.0
 40
0.0125239081116859
 50
121.8587604290254944
 51
177.0836253718935041
  0
ARC
  5
186AB
  8
0
 10
5185.8683704296090582
 20
461.1121710939407876
 30
0.0
 40
0.0238967810538212
 50
352.9811192664074042
 51
24.5835501860135111
  0
ARC
  5
186AC
  8
0
 10
5185.9439266969529854
 20
461.1120673266689778
 30
0.0
 40
0.0107371513470777
 50
110.6804330093800957
 51
179.7583482209549004
  0
ARC
  5
186AD
  8
0
 10
5185.9574383156223121
 20
461.1121948550675143
 30
0.0
 40
0.0144418601998041
 50
348.2382299795972926
 51
43.3724288903806823
  0
ARC
  5
186AE
  8
0
 10
5186.0028485175043897
 20
461.1121988272502108
 30
0.0
 40
0.0099137993999958
 50
90.0140888703516424
 51
172.0132323071817098
  0
ARC
  5
186AF
  8
0
 10
5186.0310219888533538
 20
461.1122089129796109
 30
0.0
 40
0.0116103864147586
 50
344.3854832775497812
 51
58.5399891171086466
  0
ARC
  5
186B0
  8
0
 10
5186.0532269943169013
 20
461.1121791258407256
 30
0.0
 40
0.0115643941367472
 50
345.3329027635043076
 51
59.2014486541907488
  0
ARC
  5
186B1
  8
0
 10
5186.0752383472508882
 20
461.1106802512057925
 30
0.0
 40
0.0302964171720696
 50
342.0787283787614115
 51
22.1696770347919205
  0
ARC
  5
186B2
  8
0
 10
5186.1388933428897872
 20
461.112145291921081
 30
0.0
 40
0.0105846158207357
 50
340.9170830393512119
 51
70.3358474643466565
  0
ARC
  5
186B3
  8
0
 10
5186.1536267931951443
 20
461.1121060702330965
 30
0.0
 40
0.0104848943152149
 50
344.1985076865777842
 51
72.62646385962708
  0
ARC
  5
186B4
  8
0
 10
5186.2938602248586903
 20
461.110371388502017
 30
0.0
 40
0.0259862605203944
 50
358.0197709333759235
 51
26.8608238213388617
  0
ARC
  5
186B5
  8
0
 10
5186.3363435470000695
 20
461.1128079688299977
 30
0.0
 40
0.014445752572126
 50
357.2410166997822216
 51
40.0989989473849278
  0
ARC
  5
186B6
  8
0
 10
5186.3897343427315718
 20
461.1039686188269116
 30
0.0
 40
0.0187199552639944
 50
104.249400008645793
 51
170.1848357065647974
  0
ARC
  5
186B7
  8
0
 10
5186.3924332883170791
 20
461.1093880863285221
 30
0.0
 40
0.0201194831658659
 50
336.4768825061661914
 51
39.2310116325311711
  0
ARC
  5
186B8
  8
0
 10
5186.426600108187813
 20
461.1126078314703136
 30
0.0
 40
0.0110011699614741
 50
357.4200240461590283
 51
59.7664798422383114
  0
ARC
  5
186B9
  8
0
 10
5186.4678033479667647
 20
461.1086976274600033
 30
0.0
 40
0.0179099144924391
 50
335.806317865978599
 51
48.5061124440146685
  0
ARC
  5
186BA
  8
0
 10
5186.4336307762368961
 20
461.1119317489649916
 30
0.0
 40
0.0176567936177416
 50
341.9305253729825722
 51
35.2116399298302767
  0
ARC
  5
186BB
  8
0
 10
5186.4849641661921851
 20
461.1081032659998868
 30
0.0
 40
0.0186660629768146
 50
354.0286253010684163
 51
48.6359378964575129
  0
ARC
  5
186BC
  8
0
 10
5186.5221676104511062
 20
461.1114429228057929
 30
0.0
 40
0.0112804866692301
 50
348.7543687701618751
 51
71.0592770900870647
  0
ARC
  5
186BD
  8
0
 10
5186.5323905602663217
 20
461.1118570393339269
 30
0.0
 40
0.0104441223985553
 50
359.1654018250819149
 51
79.0968100882791134
  0
ARC
  5
186BE
  8
0
 10
5185.9809489668959941
 20
460.408843649535811
 30
0.0
 40
0.1499389670736419
 50
166.9391197845534123
 51
176.4554546814412106
  0
ARC
  5
186BF
  8
0
 10
5185.9237008201389472
 20
460.4115821715687957
 30
0.0
 40
0.0529345311649675
 50
154.629092384773287
 51
181.7796532361790014
  0
LINE
  5
186C0
  8
0
 10
5185.8794132817038189
 20
460.4043503401503017
 30
0.0
 11
5185.8483261012306684
 21
460.0337554193034748
 31
0.0
  0
ARC
  5
186C1
  8
0
 10
5185.960620228877815
 20
460.3998018236109147
 30
0.0
 40
0.0813342318575459
 50
162.4643836580289928
 51
176.7941317167075965
  0
ARC
  5
186C2
  8
0
 10
5185.9956960539093416
 20
460.4141039217118987
 30
0.0
 40
0.0763140233570757
 50
161.6110305188275049
 51
177.0226288333147124
  0
ARC
  5
186C3
  8
0
 10
5186.0077564442499352
 20
460.4142012033362903
 30
0.0
 40
0.0599297239082503
 50
160.4419631983973034
 51
179.0540450117898956
  0
ARC
  5
186C4
  8
0
 10
5186.0099193240266686
 20
460.4053736720686061
 30
0.0
 40
0.0406014226106158
 50
154.7175192733207894
 51
181.4391418650411936
  0
ARC
  5
186C5
  8
0
 10
5186.1069793970227693
 20
460.4038989703240077
 30
0.0
 40
0.1047126730551054
 50
159.1262863189598136
 51
181.6800341556252931
  0
ARC
  5
186C6
  8
0
 10
5186.0943803729851425
 20
460.4136547968021773
 30
0.0
 40
0.0485829696819502
 50
157.8489427125662985
 51
179.0906006454073065
  0
ARC
  5
186C7
  8
0
 10
5186.1189143839301323
 20
460.4032949248236264
 30
0.0
 40
0.0461646356215373
 50
155.1324129195998864
 51
178.6963262857250072
  0
ARC
  5
186C8
  8
0
 10
5186.1723213271134227
 20
460.4160666802903279
 30
0.0
 40
0.0618203725181443
 50
156.0031850801105122
 51
178.0612717322445064
  0
ARC
  5
186C9
  8
0
 10
5186.1939059096748679
 20
460.412785247145905
 30
0.0
 40
0.0508016095387472
 50
157.8087377836835117
 51
178.1493234973625874
  0
ARC
  5
186CA
  8
0
 10
5186.2325377144443337
 20
460.4021514457114108
 30
0.0
 40
0.0505473106911406
 50
155.9967008799710868
 51
177.5082538094239908
  0
ARC
  5
186CB
  8
0
 10
5186.3353614654006378
 20
460.4039480234631014
 30
0.0
 40
0.1162944646103366
 50
161.3100323731484025
 51
172.5240065118385928
  0
ARC
  5
186CC
  8
0
 10
5186.3167110972408409
 20
460.4069918650616273
 30
0.0
 40
0.0684166091141562
 50
159.4481060396242924
 51
177.3931441714647121
  0
ARC
  5
186CD
  8
0
 10
5186.3560953380192586
 20
460.399245527001483
 30
0.0
 40
0.067203836599333
 50
159.5625510517319867
 51
175.6468009494618059
  0
ARC
  5
186CE
  8
0
 10
5186.4158843588566015
 20
460.411193833686184
 30
0.0
 40
0.091836743313734
 50
160.9240767368752074
 51
175.07424657065161
  0
ARC
  5
186CF
  8
0
 10
5186.4639799661390498
 20
460.3982623444235855
 30
0.0
 40
0.1171346283284195
 50
164.9276427782544943
 51
174.5709000014396111
  0
ARC
  5
186D0
  8
0
 10
5186.5556319144543522
 20
460.3814131631705777
 30
0.0
 40
0.1713012197714883
 50
166.048538348339406
 51
172.3050016764148893
  0
ARC
  5
186D1
  8
0
 10
5186.6187642677577969
 20
460.3946041842573891
 30
0.0
 40
0.2043334033482643
 50
166.8157130684257936
 51
173.1205605907971119
  0
ARC
  5
186D2
  8
0
 10
5186.6524700712016056
 20
460.3862814554934175
 30
0.0
 40
0.1880258241931021
 50
168.827398619589701
 51
174.4854861689607901
  0
ARC
  5
186D3
  8
0
 10
5186.6508551502301998
 20
460.4074901210441908
 30
0.0
 40
0.1637173399198807
 50
168.1143095074147027
 51
179.6608050841163049
  0
ARC
  5
186D4
  8
0
 10
5186.615290392611314
 20
460.4051109699935864
 30
0.0
 40
0.0938073840101193
 50
169.1790683777938114
 51
180.4645833810039903
  0
ARC
  5
186D5
  8
0
 10
5186.6533190305653989
 20
460.4121952813865732
 30
0.0
 40
0.118659810090794
 50
172.4909465263982895
 51
182.7835415000014052
  0
LINE
  5
186D6
  8
0
 10
5186.2916197567756171
 20
458.9321126263503174
 30
0.0
 11
5186.4237296360242908
 21
460.4093449128095017
 31
0.0
  0
LINE
  5
186D7
  8
0
 10
5186.4264931932848413
 20
460.4287218773275754
 30
0.0
 11
5186.5485381983780826
 21
461.1117366890621838
 31
0.0
  0
ARC
  5
186D8
  8
0
 10
5186.5340726561889824
 20
461.1102422597022041
 30
0.0
 40
0.0145425317577114
 50
5.8982795219583082
 51
54.7113183945730626
  0
ARC
  5
186D9
  8
0
 10
5186.4939934657149934
 20
460.4092093851111827
 30
0.0
 40
0.07026396039676
 50
163.8768570053456131
 51
179.8894857350485097
  0
LINE
  5
186DA
  8
0
 10
5185.7655989469049018
 20
460.4173986654502073
 30
0.0
 11
5185.7499812732048667
 21
459.8847229368848843
 31
0.0
  0
ARC
  5
186DB
  8
0
 10
5190.0729934763239726
 20
459.933093913066898
 30
0.0
 40
4.3347253540987687
 50
171.5985336582727996
 51
173.3230353672626904
  0
ARC
  5
186DC
  8
0
 10
5188.8506736984509189
 20
460.3102919420788908
 30
0.0
 40
3.1011779435292568
 50
175.2031059651662019
 51
177.5805250663370032
  0
ARC
  5
186DD
  8
0
 10
5186.4378767661246457
 20
460.3567320756034178
 30
0.0
 40
0.6750095564794663
 50
173.162151482428186
 51
174.8435749937900141
  0
LINE
  5
186DE
  8
0
 10
5185.7516896528977668
 20
460.4190798218164105
 30
0.0
 11
5185.7499812732048667
 21
460.2603147136392749
 31
0.0
  0
ARC
  5
186DF
  8
0
 10
5185.9437976455301396
 20
460.425197531880201
 30
0.0
 40
0.1922053776813259
 50
175.2215094442875056
 51
181.8239769486681894
  0
ARC
  5
186E0
  8
0
 10
5185.7636570091754038
 20
458.9321431499542996
 30
0.0
 40
0.0104549541285085
 50
180.167277269033093
 51
253.6182554055475862
  0
ARC
  5
186E1
  8
0
 10
5185.7703696369089812
 20
458.9321908210549736
 30
0.0
 40
0.010498188620779
 50
180.4267658119291013
 51
253.7385016577761974
  0
ARC
  5
186E2
  8
0
 10
5185.7848823446593087
 20
458.9304824012882023
 30
0.0
 40
0.0174104645786596
 50
174.6272516587640951
 51
208.7332490777081944
  0
ARC
  5
186E3
  8
0
 10
5185.7925049735658831
 20
458.9318721234208738
 30
0.0
 40
0.0099721211515949
 50
178.6180333348100078
 51
258.1470956600468867
  0
ARC
  5
186E4
  8
0
 10
5185.8087321787743349
 20
458.931761619781696
 30
0.0
 40
0.0099369383786915
 50
177.9756964559622077
 51
256.1732407794245887
  0
ARC
  5
186E5
  8
0
 10
5185.8476747717068065
 20
458.931712055973378
 30
0.0
 40
0.0106745958680595
 50
177.8494378455708045
 51
244.0633301615467019
  0
ARC
  5
186E6
  8
0
 10
5185.8741429263891405
 20
458.9313508628895875
 30
0.0
 40
0.0102773678821651
 50
175.7493110276045059
 51
244.0127136316498024
  0
ARC
  5
186E7
  8
0
 10
5185.8468740325242834
 20
458.9335902639961091
 30
0.0
 40
0.0275335886607782
 50
335.3635280613419241
 51
356.9236450004336234
  0
ARC
  5
186E8
  8
0
 10
5185.8758443530332443
 20
458.9352087994604972
 30
0.0
 40
0.0293219232035273
 50
333.4720594134169005
 51
353.9386999750793734
  0
ARC
  5
186E9
  8
0
 10
5185.9314125436540053
 20
458.9314499171305215
 30
0.0
 40
0.0123255987534311
 50
176.9178974100738913
 51
229.2489229332732066
  0
ARC
  5
186EA
  8
0
 10
5185.9628546732128598
 20
458.9311345302753011
 30
0.0
 40
0.0125715006979415
 50
175.5377268695119994
 51
225.8605797948744964
  0
ARC
  5
186EB
  8
0
 10
5185.9674175179243321
 20
458.9343124042756017
 30
0.0
 40
0.0194268594964351
 50
321.0983786141878795
 51
353.4982338146821803
  0
ARC
  5
186EC
  8
0
 10
5186.0379237468478095
 20
458.9328690385427194
 30
0.0
 40
0.0221051168856191
 50
181.960979838102503
 51
209.1175382220469885
  0
ARC
  5
186ED
  8
0
 10
5186.0727195444123936
 20
458.9308192419744046
 30
0.0
 40
0.0210853656197612
 50
176.4833632958643932
 51
204.3885357001049954
  0
ARC
  5
186EE
  8
0
 10
5186.0698967723619717
 20
458.9323857266585946
 30
0.0
 40
0.0116372847038055
 50
298.0210952298709799
 51
358.6552763747707786
  0
ARC
  5
186EF
  8
0
 10
5186.1444536160361167
 20
458.9289729543286853
 30
0.0
 40
0.0215169549983497
 50
171.609662878881494
 51
198.5923999331774894
  0
ARC
  5
186F0
  8
0
 10
5186.3617994338383141
 20
458.9245577244100218
 30
0.0
 40
0.2015063355809394
 50
177.8513555482533093
 51
180.695249789348992
  0
ARC
  5
186F1
  8
0
 10
5186.2170289405003132
 20
458.9347249596656866
 30
0.0
 40
0.0142958591315429
 50
190.5290229406645039
 51
241.9133783056323068
  0
ARC
  5
186F2
  8
0
 10
5186.09301393343776
 20
458.9523367135872718
 30
0.0
 40
0.1415435915194315
 50
347.6705823491356
 51
351.7853275083016911
  0
ARC
  5
186F3
  8
0
 10
5186.2496989080673302
 20
458.9311158127001136
 30
0.0
 40
0.0188650944718538
 50
331.4946733776561132
 51
3.0287491520290351
  0
ARC
  5
186F4
  8
0
 10
5186.2763071892850348
 20
458.931629742127086
 30
0.0
 40
0.0153201795145173
 50
321.5951309340218813
 51
1.806232827242314
  0
ARC
  5
186F5
  8
0
 10
5186.3372133557168127
 20
458.9322490227024218
 30
0.0
 40
0.0124258128980135
 50
180.6289401207205003
 51
234.6619025634801972
  0
ARC
  5
186F6
  8
0
 10
5186.3543403910871348
 20
458.9314618337207889
 30
0.0
 40
0.013640169185344
 50
316.7315689830126075
 51
2.7347045230600888
  0
ARC
  5
186F7
  8
0
 10
5186.4201353840808224
 20
458.931172756188289
 30
0.0
 40
0.0095880635876478
 50
174.3745461210646965
 51
250.8981662094057015
  0
ARC
  5
186F8
  8
0
 10
5186.4437108011206874
 20
458.932233843805875
 30
0.0
 40
0.0101755166195235
 50
275.9217392556391815
 51
359.3174387943855095
  0
ARC
  5
186F9
  8
0
 10
5186.4831841650957358
 20
458.9321383776205039
 30
0.0
 40
0.011451983561706
 50
298.9005600789429877
 51
359.8711629007012789
  0
ARC
  5
186FA
  8
0
 10
5186.5035090523042527
 20
458.9321126263502038
 30
0.0
 40
0.009999999999998
 50
270.0
 51
0.0000000000065138
  0
ARC
  5
186FB
  8
0
 10
5186.5283774417857785
 20
458.9320438584175008
 30
0.0
 40
0.0100684391660463
 50
279.4697666324069019
 51
0.3913360235382709
  0
ARC
  5
186FC
  8
0
 10
5186.5325923216651063
 20
458.931281628785996
 30
0.0
 40
0.015190371459194
 50
323.2099103044341177
 51
3.135962392552067
  0
ENDSEC
  0
EOF
