  0
SECTION
  2
HEADER
  9
$ACADVER
  1
AC1009
  9
$INSBASE
 10
5200.5182757642241995
 20
458.0952342301055182
 30
0.0
  9
$EXTMIN
 10
5193.4385424085248815
 20
458.0735179330254141
 30
-0.0000000000000058
  9
$EXTMAX
 10
5201.7730574396009615
 20
468.9139275532288025
 30
0.0000000000000104
  9
$LIMMIN
 10
0.0
 20
0.0
  9
$LIMMAX
 10
11.6929133858000007
 20
8.2677165353999982
  9
$ORTHOMODE
 70
     0
  9
$REGENMODE
 70
     1
  9
$FILLMODE
 70
     1
  9
$QTEXTMODE
 70
     0
  9
$MIRRTEXT
 70
     0
  9
$DRAGMODE
 70
     2
  9
$LTSCALE
 40
0.6431102362
  9
$OSMODE
 70
  4095
  9
$ATTMODE
 70
     1
  9
$TEXTSIZE
 40
0.2
  9
$TRACEWID
 40
0.05
  9
$TEXTSTYLE
  7
STANDARD
  9
$CLAYER
  8
0
  9
$CELTYPE
  6
BYLAYER
  9
$CECOLOR
 62
   256
  9
$DIMSCALE
 40
1.0
  9
$DIMASZ
 40
0.1875
  9
$DIMEXO
 40
0.0625
  9
$DIMDLI
 40
0.4443307087
  9
$DIMRND
 40
0.0
  9
$DIMDLE
 40
0.0
  9
$DIMEXE
 40
0.125
  9
$DIMTP
 40
0.01
  9
$DIMTM
 40
0.01
  9
$DIMTXT
 40
2.0
  9
$DIMCEN
 40
0.1052362205
  9
$DIMTSZ
 40
0.0
  9
$DIMTOL
 70
     1
  9
$DIMLIM
 70
     0
  9
$DIMTIH
 70
     1
  9
$DIMTOH
 70
     1
  9
$DIMSE1
 70
     0
  9
$DIMSE2
 70
     0
  9
$DIMTAD
 70
     0
  9
$DIMZIN
 70
     0
  9
$DIMBLK
  1

  9
$DIMASO
 70
     1
  9
$DIMSHO
 70
     1
  9
$DIMPOST
  1
\X
  9
$DIMAPOST
  1

  9
$DIMALT
 70
     1
  9
$DIMALTD
 70
     2
  9
$DIMALTF
 40
25.3999999999999986
  9
$DIMLFAC
 40
1.0
  9
$DIMTOFL
 70
     0
  9
$DIMTVP
 40
0.0
  9
$DIMTIX
 70
     0
  9
$DIMSOXD
 70
     0
  9
$DIMSAH
 70
     0
  9
$DIMBLK1
  1

  9
$DIMBLK2
  1

  9
$DIMSTYLE
  2
STANDARD
  9
$DIMCLRD
 70
     0
  9
$DIMCLRE
 70
     0
  9
$DIMCLRT
 70
     0
  9
$DIMTFAC
 40
1.0
  9
$DIMGAP
 40
0.09
  9
$LUNITS
 70
     2
  9
$LUPREC
 70
     4
  9
$SKETCHINC
 40
0.1
  9
$FILLETRAD
 40
0.0
  9
$AUNITS
 70
     0
  9
$AUPREC
 70
     0
  9
$MENU
  1
.
  9
$ELEVATION
 40
0.0
  9
$PELEVATION
 40
0.0
  9
$THICKNESS
 40
0.0
  9
$LIMCHECK
 70
     0
  9
$BLIPMODE
 70
     0
  9
$CHAMFERA
 40
0.0
  9
$CHAMFERB
 40
0.0
  9
$SKPOLY
 70
     0
  9
$TDCREATE
 40
2458060.468368056230247
  9
$TDUPDATE
 40
2460109.829108796082437
  9
$TDINDWG
 40
0.6493010417
  9
$TDUSRTIMER
 40
0.6493010417
  9
$USRTIMER
 70
     1
  9
$ANGBASE
 50
0.0
  9
$ANGDIR
 70
     0
  9
$PDMODE
 70
     0
  9
$PDSIZE
 40
0.3125
  9
$PLINEWID
 40
0.0
  9
$COORDS
 70
     1
  9
$SPLFRAME
 70
     0
  9
$SPLINETYPE
 70
     6
  9
$SPLINESEGS
 70
     8
  9
$ATTDIA
 70
     1
  9
$ATTREQ
 70
     1
  9
$HANDLING
 70
     1
  9
$HANDSEED
  5
18ABA
  9
$SURFTAB1
 70
     6
  9
$SURFTAB2
 70
     6
  9
$SURFTYPE
 70
     6
  9
$SURFU
 70
     6
  9
$SURFV
 70
     6
  9
$UCSNAME
  2

  9
$UCSORG
 10
0.0
 20
0.0
 30
0.0
  9
$UCSXDIR
 10
1.0
 20
0.0
 30
0.0
  9
$UCSYDIR
 10
0.0
 20
1.0
 30
0.0
  9
$PUCSNAME
  2

  9
$PUCSORG
 10
0.0
 20
0.0
 30
0.0
  9
$PUCSXDIR
 10
1.0
 20
0.0
 30
0.0
  9
$PUCSYDIR
 10
0.0
 20
1.0
 30
0.0
  9
$USERI1
 70
     0
  9
$USERI2
 70
     0
  9
$USERI3
 70
     0
  9
$USERI4
 70
     0
  9
$USERI5
 70
     0
  9
$USERR1
 40
0.0
  9
$USERR2
 40
0.0
  9
$USERR3
 40
0.0
  9
$USERR4
 40
0.0
  9
$USERR5
 40
0.0
  9
$WORLDVIEW
 70
     1
  9
$SHADEDGE
 70
     3
  9
$SHADEDIF
 70
    70
  9
$TILEMODE
 70
     1
  9
$MAXACTVP
 70
    64
  9
$PLIMCHECK
 70
     0
  9
$PEXTMIN
 10
1.0000000000000000E+20
 20
1.0000000000000000E+20
 30
1.0000000000000000E+20
  9
$PEXTMAX
 10
-1.0000000000000000E+20
 20
-1.0000000000000000E+20
 30
-1.0000000000000000E+20
  9
$PLIMMIN
 10
0.0
 20
0.0
  9
$PLIMMAX
 10
12.0
 20
9.0
  9
$UNITMODE
 70
     0
  9
$VISRETAIN
 70
     1
  9
$PLINEGEN
 70
     0
  9
$PSLTSCALE
 70
     1
  0
ENDSEC
  0
SECTION
  2
TABLES
  0
TABLE
  2
VPORT
 70
     1
  0
VPORT
  2
*ACTIVE
 70
     0
 10
0.0
 20
0.0
 11
1.0
 21
1.0
 12
1394.0617325412499667
 22
337.4984605463772027
 13
0.0
 23
0.0
 14
1.0
 24
1.0
 15
0.0
 25
0.0
 16
0.0
 26
0.0
 36
17.1152628219792007
 17
3803.5440673828129547
 27
125.9952621967499056
 37
0.0
 40
10.9236906160052705
 41
1.4307692307692299
 42
50.0
 43
0.0
 44
0.0
 50
0.0
 51
0.0
 71
     0
 72
   100
 73
     1
 74
     1
 75
     0
 76
     0
 77
     0
 78
     0
  0
ENDTAB
  0
TABLE
  2
LTYPE
 70
     2
  0
LTYPE
  2
CONTINUOUS
 70
     0
  3
Solid line
 72
    65
 73
     0
 40
0.0
  0
LTYPE
  2
PHANTOM2
 70
     0
  3
___ _ _ ___ _ _ ___ _ _ ___ _ _
 72
    65
 73
     6
 40
1.25
 49
0.625
 49
-0.125
 49
0.125
 49
-0.125
 49
0.125
 49
-0.125
  0
ENDTAB
  0
TABLE
  2
LAYER
 70
     2
  0
LAYER
  2
0
 70
     0
 62
   255
  6
CONTINUOUS
  0
LAYER
  2
DEFPOINTS
 70
     0
 62
     7
  6
CONTINUOUS
  0
ENDTAB
  0
TABLE
  2
STYLE
 70
     1
  0
STYLE
  2
STANDARD
 70
     0
 40
0.0
 41
0.8
 50
0.0
 71
     0
 42
0.2
  3
txt
  4

  0
ENDTAB
  0
TABLE
  2
VIEW
 70
     0
  0
ENDTAB
  0
TABLE
  2
UCS
 70
     0
  0
ENDTAB
  0
TABLE
  2
APPID
 70
    10
  0
APPID
  2
ACAD
 70
     0
  0
APPID
  2
ACAD_MLEADERVER
 70
     0
  0
APPID
  2
ACAD_EXEMPT_FROM_CAD_STANDARDS
 70
     0
  0
APPID
  2
ACAD_NAV_VCDISPLAY
 70
     0
  0
APPID
  2
ACAECLAYERSTANDARD
 70
     0
  0
APPID
  2
ACCMTRANSPARENCY
 70
     0
  0
APPID
  2
ACAD_DSTYLE_DIMJAG
 70
     0
  0
APPID
  2
ACAD_DSTYLE_DIMTALN
 70
     0
  0
APPID
  2
ACDBATTR
 70
     0
  0
APPID
  2
ACADANNOTATIVE
 70
     0
  0
ENDTAB
  0
TABLE
  2
DIMSTYLE
 70
     1
  0
DIMSTYLE
  2
STANDARD
 70
     0
  3

  4

  5

  6

  7

 40
1.0
 41
0.1875
 42
0.0625
 43
0.38
 44
0.125
 45
0.0
 46
0.0
 47
0.01
 48
0.01
140
0.15625
141
0.09
142
0.0
143
25.3999999999999986
144
1.0
145
0.0
146
1.0
147
0.09
 71
     1
 72
     0
 73
     1
 74
     1
 75
     0
 76
     0
 77
     0
 78
     4
170
     0
171
     2
172
     0
173
     0
174
     0
175
     0
176
     0
177
     0
178
     0
  0
ENDTAB
  0
ENDSEC
  0
SECTION
  2
BLOCKS
  0
BLOCK
  8
0
  2
$MODEL_SPACE
 70
     0
 10
0.0
 20
0.0
 30
0.0
  3
$MODEL_SPACE
  1

  0
ENDBLK
  5
21
  8
0
  0
BLOCK
 67
     1
  8
0
  2
$PAPER_SPACE
 70
     0
 10
0.0
 20
0.0
 30
0.0
  3
$PAPER_SPACE
  1

  0
ENDBLK
  5
1D
 67
     1
  8
0
  0
ENDSEC
  0
SECTION
  2
ENTITIES
  0
ATTDEF
  5
3930
  8
DEFPOINTS
 10
5200.5156088744834051
 20
458.0997150328744283
 30
0.0
 40
0.001
  1
P40877-LV
  3

  2
MODELNUMBER
 70
     0
1001
ACDBATTR
1070
     0
1070
     1
  0
ATTDEF
  5
3931
  8
DEFPOINTS
 10
5200.5156088744834051
 20
458.09804836620782
 30
0.0
 40
0.001
  1
ONE
  3

  2
TRADENAME
 70
     0
1001
ACDBATTR
1070
     0
1070
     1
  0
ATTDEF
  5
3932
  8
DEFPOINTS
 10
5200.5156088744834051
 20
458.096381699541098
 30
0.0
 40
0.001
  1
BATHROOM SINK FAUCET
  3

  2
PRODUCT
 70
     0
1001
ACDBATTR
1070
     0
1070
     1
  0
LINE
  5
188EF
  8
0
 10
5199.3932757642241995
 20
458.0952342301055182
 30
0.0
 11
5201.6432757642241995
 21
458.0952342301055182
 31
0.0
  0
LINE
  5
188F0
  8
0
 10
5199.4032757642253273
 20
458.4952342301054955
 30
0.0
 11
5201.6332757642239812
 21
458.4952342301054955
 31
0.0
  0
ARC
  5
188F1
  8
0
 10
5201.6332757642239812
 20
458.4852342301055046
 30
0.0
 40
0.01
 50
0.0
 51
90.0
  0
ARC
  5
188F2
  8
0
 10
5199.4032757642253273
 20
458.4852342301055046
 30
0.0
 40
0.01
 50
90.0
 51
180.0
  0
LINE
  5
188F3
  8
0
 10
5199.3932757642241995
 20
458.4852342301055046
 30
0.0
 11
5199.3932757642241995
 21
458.0952342301055182
 31
0.0
  0
LINE
  5
188F4
  8
0
 10
5200.1162757642241559
 20
459.625234230105491
 30
0.0
 11
5200.1162757642241559
 21
458.5352342301055728
 31
0.0
  0
LINE
  5
188F5
  8
0
 10
5200.1562757642241195
 20
459.6652342301055114
 30
0.0
 11
5200.8802757642242796
 21
459.6652342301055114
 31
0.0
  0
LINE
  5
188F6
  8
0
 10
5200.1302757642242796
 20
459.6732342301054928
 30
0.0
 11
5200.9062757642241195
 21
459.6732342301054928
 31
0.0
  0
ARC
  5
188F7
  8
0
 10
5197.268275764225109
 20
465.2452342301054955
 30
0.0
 40
2.8439999999999999
 50
0.0
 51
180.0
  0
ARC
  5
188F8
  8
0
 10
5197.268275764225109
 20
465.2452342301054955
 30
0.0
 40
3.6559999999999988
 50
0.0
 51
180.0
  0
LINE
  5
188F9
  8
0
 10
5193.6222757642253782
 20
463.9952342301056092
 30
0.0
 11
5194.4142757642230208
 21
463.9952342301056092
 31
0.0
  0
LINE
  5
188FA
  8
0
 10
5193.6122757642242505
 20
465.2452342301054955
 30
0.0
 11
5193.6122757642242505
 21
464.0052342301054864
 31
0.0
  0
LINE
  5
188FB
  8
0
 10
5194.4242757642241486
 20
465.2452342301054955
 30
0.0
 11
5194.4242757642241486
 21
464.0052342301054864
 31
0.0
  0
ARC
  5
188FC
  8
0
 10
5199.4132757642246361
 20
458.4752342301055137
 30
0.0
 40
0.02
 50
90.0
 51
179.9999999999870113
  0
ARC
  5
188FD
  8
0
 10
5200.0762757642241922
 20
458.5352342301055728
 30
0.0
 40
0.04
 50
270.0
 51
0.0
  0
ARC
  5
188FE
  8
0
 10
5200.1562757642241195
 20
459.625234230105491
 30
0.0
 40
0.04
 50
90.0
 51
180.0000000000032117
  0
ARC
  5
188FF
  8
0
 10
5200.1302757642242796
 20
459.6872342301055028
 30
0.0
 40
0.014
 50
179.9999999999934914
 51
270.0
  0
LINE
  5
18900
  8
0
 10
5200.1682757642238357
 20
459.6732342301054928
 30
0.0
 11
5200.1682757642238357
 21
459.6652342301055114
 31
0.0
  0
LINE
  5
18901
  8
0
 10
5201.6432757642241995
 20
458.4852342301055046
 30
0.0
 11
5201.6432757642241995
 21
458.0952342301055182
 31
0.0
  0
LINE
  5
18902
  8
0
 10
5200.9202757642242432
 20
460.5842342301054941
 30
0.0
 11
5200.9202757642242432
 21
459.6872342301055028
 31
0.0
  0
LINE
  5
18903
  8
0
 10
5200.9202757642242432
 20
459.625234230105491
 30
0.0
 11
5200.9202757642242432
 21
458.5352342301055728
 31
0.0
  0
ARC
  5
18904
  8
0
 10
5201.6232757642246725
 20
458.4752342301055137
 30
0.0
 40
0.02
 50
0.0000000000130276
 51
90.0
  0
ARC
  5
18905
  8
0
 10
5200.9602757642242068
 20
458.5352342301055728
 30
0.0
 40
0.04
 50
180.0
 51
270.0
  0
ARC
  5
18906
  8
0
 10
5200.8802757642242796
 20
459.625234230105491
 30
0.0
 40
0.04
 50
359.9999999999968168
 51
90.0
  0
ARC
  5
18907
  8
0
 10
5200.9062757642241195
 20
459.6872342301055028
 30
0.0
 40
0.014
 50
270.0
 51
0.0000000000065138
  0
LINE
  5
18908
  8
0
 10
5200.8682757642245633
 20
459.6732342301054928
 30
0.0
 11
5200.8682757642245633
 21
459.6652342301055114
 31
0.0
  0
ARC
  5
18909
  8
0
 10
5193.6222757642253782
 20
464.0052342301054864
 30
0.0
 40
0.01
 50
180.0000000000098055
 51
270.0
  0
ARC
  5
1890A
  8
0
 10
5194.4142757642230208
 20
464.0052342301054864
 30
0.0
 40
0.01
 50
270.0
 51
359.9999999999902229
  0
LINE
  5
1890B
  8
0
 10
5200.1122757642242505
 20
465.2452342301054955
 30
0.0
 11
5200.1122757642242505
 21
458.5177986343314274
 31
0.0
  0
LINE
  5
1890C
  8
0
 10
5200.9242757642241486
 20
465.2452342301054955
 30
0.0
 11
5200.9242757642241486
 21
458.5177986343313137
 31
0.0
  0
LINE
  5
1890D
  8
0
 10
5200.1162757642241559
 20
459.6872342301055028
 30
0.0
 11
5200.1162757642241559
 21
460.5842342301054941
 31
0.0
  0
CIRCLE
  5
1890E
  8
0
 10
5200.5182757642241995
 20
460.5842342301054941
 30
0.0
 40
0.4019014024999997
  0
ARC
  5
1890F
  8
0
 10
5200.3883655377776449
 20
460.9560966347070234
 30
0.0
 40
0.008
 50
42.5332696490275026
 51
109.2568746404065934
  0
ARC
  5
18910
  8
0
 10
5200.4546956292406321
 20
460.9729704920196127
 30
0.0
 40
0.008
 50
99.2888222472437718
 51
166.180463831467506
  0
LINE
  5
18911
  8
0
 10
5200.394260617144937
 20
460.9615047803453081
 30
0.0
 11
5200.4172928646048604
 21
460.9363987762023953
 31
0.0
  0
ARC
  5
18912
  8
0
 10
5200.4231879439730619
 20
460.9418069218406231
 30
0.0
 40
0.008
 50
222.5332696490418982
 51
284.3748856647490015
  0
LINE
  5
18913
  8
0
 10
5200.425174066424006
 20
460.9340573852343823
 30
0.0
 11
5200.4330345686794317
 21
460.9360719469813148
 31
0.0
  0
LINE
  5
18914
  8
0
 10
5200.4388168693531043
 20
460.9419105670129966
 30
0.0
 11
5200.4469272061151059
 21
460.9748814085941149
 31
0.0
  0
ARC
  5
18915
  8
0
 10
5200.4310484462293971
 20
460.9438214835874987
 30
0.0
 40
0.008
 50
284.3748856647490015
 51
346.1804638314739009
  0
ARC
  5
18916
  8
0
 10
5200.2928556852994006
 20
460.9072576083754029
 30
0.0
 40
0.008
 50
58.185443562070283
 51
124.9090485534557047
  0
ARC
  5
18917
  8
0
 10
5200.352173564819168
 20
460.9414013817931277
 30
0.0
 40
0.008
 50
114.9409961603055024
 51
181.8326377445067124
  0
LINE
  5
18918
  8
0
 10
5200.2970730589022423
 20
460.914055678682189
 30
0.0
 11
5200.3260247270018226
 21
460.8960946992738741
 31
0.0
  0
ARC
  5
18919
  8
0
 10
5200.3302421006037548
 20
460.902892769580717
 30
0.0
 40
0.008
 50
238.1854435620772108
 51
300.0270595777834046
  0
LINE
  5
1891A
  8
0
 10
5200.3342453721998027
 20
460.8959664562378862
 30
0.0
 11
5200.3412708634559749
 21
460.9000270506986112
 31
0.0
  0
LINE
  5
1891B
  8
0
 10
5200.3452634999030124
 20
460.9072092049132152
 30
0.0
 11
5200.3441776567760826
 21
460.9411455409214113
 31
0.0
  0
ARC
  5
1891C
  8
0
 10
5200.3372675918590176
 20
460.9069533640413852
 30
0.0
 40
0.008
 50
300.0270595777834046
 51
1.832637744513236
  0
ARC
  5
1891D
  8
0
 10
5200.2140642088470486
 20
460.8344614158111199
 30
0.0
 40
0.008
 50
73.8376174751199557
 51
140.5612224665026133
  0
ARC
  5
1891E
  8
0
 10
5200.261970540663242
 20
460.8833428178571125
 30
0.0
 40
0.008
 50
130.5931700733331979
 51
197.4848116575446113
  0
LINE
  5
1891F
  8
0
 10
5200.2162910933766398
 20
460.8421452290108959
 30
0.0
 11
5200.2490149693394414
 21
460.8326613580139224
 31
0.0
  0
ARC
  5
18920
  8
0
 10
5200.2512418538690326
 20
460.8403451712135848
 30
0.0
 40
0.008
 50
253.8376174751226984
 51
315.6792334908251974
  0
LINE
  5
18921
  8
0
 10
5200.2569653702721553
 20
460.8347557741091123
 30
0.0
 11
5200.2626348019794023
 21
460.8405612455686082
 31
0.0
  0
LINE
  5
18922
  8
0
 10
5200.2645416586192368
 20
460.8485542664440118
 30
0.0
 11
5200.2543401676211943
 21
460.8809391940861246
 31
0.0
  0
ARC
  5
18923
  8
0
 10
5200.2569112855753701
 20
460.8461506426730239
 30
0.0
 40
0.008
 50
315.6792334908251974
 51
17.4848116575508001
  0
ARC
  5
18924
  8
0
 10
5200.1578347117811063
 20
460.7431070175962873
 30
0.0
 40
0.008
 50
89.4897913881728186
 51
156.2133963795548937
  0
ARC
  5
18925
  8
0
 10
5200.1907765024188848
 20
460.8031007382982125
 30
0.0
 40
0.008
 50
146.245343986384313
 51
213.1369855705900989
  0
LINE
  5
18926
  8
0
 10
5200.1579059493997192
 20
460.751106700415221
 30
0.0
 11
5200.1919750530469173
 21
460.7508033131554157
 31
0.0
  0
ARC
  5
18927
  8
0
 10
5200.1920462906664397
 20
460.7588029959741789
 30
0.0
 40
0.008
 50
269.4897913881728755
 51
331.3314074038680133
  0
LINE
  5
18928
  8
0
 10
5200.1990655648460233
 20
460.7549650551214881
 30
0.0
 11
5200.202958461190974
 21
460.7620848383197085
 31
0.0
  0
LINE
  5
18929
  8
0
 10
5200.2026381151899841
 20
460.7702959200634041
 30
0.0
 11
5200.1840775742402911
 21
460.7987275974072077
 31
0.0
  0
ARC
  5
1892A
  8
0
 10
5200.1959391870113905
 20
460.7659227791723993
 30
0.0
 40
0.008
 50
331.3314074038707986
 51
33.1369855705927776
  0
ARC
  5
1892B
  8
0
 10
5200.1283374786671629
 20
460.6399697515278717
 30
0.0
 40
0.008
 50
105.1419653011917035
 51
171.8655702926041897
  0
ARC
  5
1892C
  8
0
 10
5200.1438715862132085
 20
460.7066263310742897
 30
0.0
 40
0.008
 50
161.8975178994272142
 51
228.7891594836380023
  0
LINE
  5
1892D
  8
0
 10
5200.1262477860082072
 20
460.6476920040872187
 30
0.0
 11
5200.1591353677758889
 21
460.6565916014099002
 31
0.0
  0
ARC
  5
1892E
  8
0
 10
5200.1570456751160236
 20
460.6643138539691904
 30
0.0
 40
0.008
 50
285.1419653012437152
 51
346.9835813169132166
  0
LINE
  5
1892F
  8
0
 10
5200.1648401196189297
 20
460.662512011883905
 30
0.0
 11
5200.1666677622888528
 21
460.6704180650718854
 31
0.0
  0
LINE
  5
18930
  8
0
 10
5200.164143972245256
 20
460.678238229314104
 30
0.0
 11
5200.1386009317548087
 21
460.7006080089175271
 31
0.0
  0
ARC
  5
18931
  8
0
 10
5200.1588733177868562
 20
460.6722199071572845
 30
0.0
 40
0.008
 50
346.9835813169162861
 51
48.7891594836401481
  0
ARC
  5
18932
  8
0
 10
5200.1277601843439697
 20
460.5326988368086063
 30
0.0
 40
0.008
 50
120.7941392142363952
 51
187.5177442056449024
  0
ARC
  5
18933
  8
0
 10
5200.1247345151059562
 20
460.6010746616282177
 30
0.0
 40
0.008
 50
177.5496918124678984
 51
244.441333396702106
  0
LINE
  5
18934
  8
0
 10
5200.1236645443495945
 20
460.5395709349630806
 30
0.0
 11
5200.1529314827521375
 21
460.5570134744476718
 31
0.0
  0
ARC
  5
18935
  8
0
 10
5200.1488358427577623
 20
460.563885572602203
 30
0.0
 40
0.008
 50
300.7941392142877817
 51
2.6357552299523901
  0
LINE
  5
18936
  8
0
 10
5200.1568273792909167
 20
460.5642534636688765
 30
0.0
 11
5200.1564542203914243
 21
460.5723594310496196
 31
0.0
  0
LINE
  5
18937
  8
0
 10
5200.1519141642656905
 20
460.5792086919832968
 30
0.0
 11
5200.1212830346994451
 21
460.5938575096279237
 31
0.0
  0
ARC
  5
18938
  8
0
 10
5200.1484626838582699
 20
460.5719915399830029
 30
0.0
 40
0.008
 50
2.6357552299523901
 51
64.4413333967035555
  0
ARC
  5
18939
  8
0
 10
5200.1561456440904294
 20
460.429250066451516
 30
0.0
 40
0.008
 50
136.4463131272763121
 51
203.1699181186835119
  0
ARC
  5
1893A
  8
0
 10
5200.1347845981135833
 20
460.4942740144159075
 30
0.0
 40
0.008
 50
193.2018657255098049
 51
260.0935073097493273
  0
LINE
  5
1893B
  8
0
 10
5200.1503478116446786
 20
460.4347623381186736
 30
0.0
 11
5200.1738235117463773
 21
460.459454186405992
 31
0.0
  0
ARC
  5
1893C
  8
0
 10
5200.1680256793006265
 20
460.4649664580732065
 30
0.0
 40
0.008
 50
316.4463131273240037
 51
18.2879291430015485
  0
LINE
  5
1893D
  8
0
 10
5200.1756216121575562
 20
460.4674767974946121
 30
0.0
 11
5200.1730753271749563
 21
460.4751814965496806
 31
0.0
  0
LINE
  5
1893E
  8
0
 10
5200.1668557201628573
 20
460.4805518758245739
 30
0.0
 11
5200.1334082722696621
 21
460.4863932957196084
 31
0.0
  0
ARC
  5
1893F
  8
0
 10
5200.1654793943180266
 20
460.4726711571283886
 30
0.0
 40
0.008
 50
18.2879291430015485
 51
80.0935073097493273
  0
ARC
  5
18940
  8
0
 10
5200.2113886382130659
 20
460.3372957625070967
 30
0.0
 40
0.008
 50
152.0984870403285072
 51
218.8220920317272942
  0
ARC
  5
18941
  8
0
 10
5200.1732764665566719
 20
460.3941453048606149
 30
0.0
 40
0.008
 50
208.8540396385579925
 51
275.745681222754115
  0
LINE
  5
18942
  8
0
 10
5200.2043186120254177
 20
460.3410393877146021
 30
0.0
 11
5200.2202619885420063
 21
460.3711492633747753
 31
0.0
  0
ARC
  5
18943
  8
0
 10
5200.2131919623543581
 20
460.3748928885822238
 30
0.0
 40
0.008
 50
332.0984870403485729
 51
33.940103056028228
  0
LINE
  5
18944
  8
0
 10
5200.2198289359457704
 20
460.3793594959672077
 30
0.0
 11
5200.2152983711903289
 21
460.3860915044144235
 31
0.0
  0
LINE
  5
18945
  8
0
 10
5200.2078604930884467
 20
460.3895847055678132
 30
0.0
 11
5200.1740773710671419
 21
460.3861854963222981
 31
0.0
  0
ARC
  5
18946
  8
0
 10
5200.2086613975970977
 20
460.3816248970296101
 30
0.0
 40
0.008
 50
33.940103056028228
 51
95.745681222754456
  0
ARC
  5
18947
  8
0
 10
5200.289392046555804
 20
460.263655755036325
 30
0.0
 40
0.008
 50
167.750660953369902
 51
234.4742659447759081
  0
ARC
  5
18948
  8
0
 10
5200.237355354641295
 20
460.3081146212919066
 30
0.0
 40
0.008
 50
224.5062135516166109
 51
291.3978551358234768
  0
LINE
  5
18949
  8
0
 10
5200.2815741781241741
 20
460.2653530862281741
 30
0.0
 11
5200.2888027837580012
 21
460.2986478775271735
 31
0.0
  0
ARC
  5
1894A
  8
0
 10
5200.2809849153263713
 20
460.3003452087190794
 30
0.0
 40
0.008
 50
347.7506609533954247
 51
49.5922769690648977
  0
LINE
  5
1894B
  8
0
 10
5200.2861706956828129
 20
460.3064368162313258
 30
0.0
 11
5200.279991862415045
 21
460.3116968518011163
 31
0.0
  0
LINE
  5
1894C
  8
0
 10
5200.2718873466174045
 20
460.3130538000835941
 30
0.0
 11
5200.2402740900834033
 21
460.3006660654970119
 31
0.0
  0
ARC
  5
1894D
  8
0
 10
5200.2748060820576939
 20
460.3056052442886994
 30
0.0
 40
0.008
 50
49.5922769690648977
 51
111.3978551358235052
  0
ARC
  5
1894E
  8
0
 10
5200.384370713163662
 20
460.2137915865124
 30
0.0
 40
0.008
 50
183.4028348664168959
 51
250.1264398578132102
  0
ARC
  5
1894F
  8
0
 10
5200.3222688243786251
 20
460.2425624659455821
 30
0.0
 40
0.008
 50
240.1583874646615868
 51
307.0500290488704991
  0
LINE
  5
18950
  8
0
 10
5200.3763848180260538
 20
460.2133167403990228
 30
0.0
 11
5200.3743625401657482
 21
460.2473271249796198
 31
0.0
  0
ARC
  5
18951
  8
0
 10
5200.3663766450272306
 20
460.2468522788662995
 30
0.0
 40
0.008
 50
3.4028348664429471
 51
65.2444508821164249
  0
LINE
  5
18952
  8
0
 10
5200.3697266265444341
 20
460.2541170998439952
 30
0.0
 11
5200.3623577805619789
 21
460.2575150497610252
 31
0.0
  0
LINE
  5
18953
  8
0
 10
5200.3541877019297317
 20
460.2566351065261756
 30
0.0
 11
5200.3270889214945782
 21
460.2361775882027928
 31
0.0
  0
ARC
  5
18954
  8
0
 10
5200.3590077990456848
 20
460.2502502287832158
 30
0.0
 40
0.008
 50
65.2444508821177891
 51
127.0500290488724033
  0
ARC
  5
18955
  8
0
 10
5200.4892805048366426
 20
460.1914014542014115
 30
0.0
 40
0.008
 50
199.0550087794563865
 51
265.7786137708475849
  0
ARC
  5
18956
  8
0
 10
5200.4217192321730181
 20
460.2023505423027814
 30
0.0
 40
0.008
 50
255.810561377672002
 51
322.7022029619046748
  0
LINE
  5
18957
  8
0
 10
5200.4817188603001341
 20
460.1887896479468054
 30
0.0
 11
5200.4705956820444044
 21
460.2209932311718035
 31
0.0
  0
ARC
  5
18958
  8
0
 10
5200.4630340375069864
 20
460.2183814249171974
 30
0.0
 40
0.008
 50
19.0550087794779905
 51
80.8966247951509843
  0
LINE
  5
18959
  8
0
 10
5200.4642997673790887
 20
460.2262806608226811
 30
0.0
 11
5200.4562874222792743
 21
460.2275645146863212
 31
0.0
  0
LINE
  5
1895A
  8
0
 10
5200.4486577181687608
 20
460.2245129412984852
 30
0.0
 11
5200.4280832064123388
 21
460.1975028797850769
 31
0.0
  0
ARC
  5
1895B
  8
0
 10
5200.4550216924080814
 20
460.2196652787807807
 30
0.0
 40
0.008
 50
80.8966247951509843
 51
142.7022029619099044
  0
ARC
  5
1895C
  8
0
 10
5200.5963407422532327
 20
460.1981459317888721
 30
0.0
 40
0.008
 50
214.7071826925121911
 51
281.4307876839204141
  0
ARC
  5
1895D
  8
0
 10
5200.5283307962326944
 20
460.1904611847826914
 30
0.0
 40
0.008
 50
271.4627352907187969
 51
338.3543768749423748
  0
LINE
  5
1895E
  8
0
 10
5200.5897641609017228
 20
460.1935908711146794
 30
0.0
 11
5200.5703650374953213
 21
460.2215992605379142
 31
0.0
  0
ARC
  5
1895F
  8
0
 10
5200.5637884561447208
 20
460.2170441998636079
 30
0.0
 40
0.008
 50
34.7071826925309566
 51
96.5487987082338037
  0
LINE
  5
18960
  8
0
 10
5200.562876060977942
 20
460.2249920005065178
 30
0.0
 11
5200.5548144557424166
 21
460.2240665407488791
 31
0.0
  0
LINE
  5
18961
  8
0
 10
5200.5482909864022076
 20
460.2190696584460738
 30
0.0
 11
5200.5357666607378633
 21
460.1875102664425867
 31
0.0
  0
ARC
  5
18962
  8
0
 10
5200.555726850908286
 20
460.2161187401060261
 30
0.0
 40
0.008
 50
96.5487987082341732
 51
158.3543768749453875
  0
ARC
  5
18963
  8
0
 10
5200.6976112573711362
 20
460.2335248122261078
 30
0.0
 40
0.008
 50
230.3593566055299959
 51
297.0829615969648785
  0
ARC
  5
18964
  8
0
 10
5200.6341966245672666
 20
460.2077761726424114
 30
0.0
 40
0.008
 50
287.114909203782986
 51
354.0065507879850202
  0
LINE
  5
18965
  8
0
 10
5200.6925074941600542
 20
460.2273643251444923
 30
0.0
 11
5200.6662711698390922
 21
460.2491002666521922
 31
0.0
  0
ARC
  5
18966
  8
0
 10
5200.6611674066280102
 20
460.2429397795705768
 30
0.0
 40
0.008
 50
50.3593566055805582
 51
112.2009726212432952
  0
LINE
  5
18967
  8
0
 10
5200.6581445545980387
 20
460.2503466929359206
 30
0.0
 11
5200.6506315816068309
 21
460.2472805566733882
 31
0.0
  0
LINE
  5
18968
  8
0
 10
5200.6456981629189613
 20
460.2407089613569724
 30
0.0
 11
5200.6421528952860172
 21
460.2069408545935971
 31
0.0
  0
ARC
  5
18969
  8
0
 10
5200.6536544336368024
 20
460.2398736433082149
 30
0.0
 40
0.008
 50
112.2009726212432952
 51
174.0065507879915003
  0
ARC
  5
1896A
  8
0
 10
5200.7855812793686709
 20
460.294914205798591
 30
0.0
 40
0.008
 50
246.0115305185892964
 51
312.7351355099789885
  0
ARC
  5
1896B
  8
0
 10
5200.731465132991616
 20
460.2530113324431227
 30
0.0
 40
0.008
 50
302.7670831168230166
 51
9.658724701025859
  0
LINE
  5
1896C
  8
0
 10
5200.7823288570662044
 20
460.2876051874540053
 30
0.0
 11
5200.7512011599837933
 21
460.3014566256999842
 31
0.0
  0
ARC
  5
1896D
  8
0
 10
5200.7479487376813267
 20
460.2941476073555123
 30
0.0
 40
0.008
 50
66.0115305186409245
 51
127.8531465342926055
  0
LINE
  5
1896E
  8
0
 10
5200.7430396198942617
 20
460.3004642965632911
 30
0.0
 11
5200.7366324819840884
 21
460.2954848850960161
 31
0.0
  0
LINE
  5
1896F
  8
0
 10
5200.7336550030413491
 20
460.2878259619274104
 30
0.0
 11
5200.7393517297232393
 21
460.2543535664040064
 31
0.0
  0
ARC
  5
18970
  8
0
 10
5200.7415415997711534
 20
460.2891681958881804
 30
0.0
 40
0.008
 50
127.8531465342926055
 51
189.658724701032213
  0
ARC
  5
18971
  8
0
 10
5200.8537264741489707
 20
460.377761142022905
 30
0.0
 40
0.008
 50
261.6637044316394736
 51
328.3873094230337983
  0
ARC
  5
18972
  8
0
 10
5200.8129223612122587
 20
460.3228117793195224
 30
0.0
 40
0.008
 50
318.4192570298753253
 51
25.3108986140732384
  0
LINE
  5
18973
  8
0
 10
5200.8525666100367744
 20
460.369845668869516
 30
0.0
 11
5200.818856139087984
 21
460.3747853060449984
 31
0.0
  0
ARC
  5
18974
  8
0
 10
5200.8176962749757877
 20
460.3668698328917799
 30
0.0
 40
0.008
 50
81.6637044316399567
 51
143.505320447336203
  0
LINE
  5
18975
  8
0
 10
5200.8112649782397057
 20
460.3716278180003769
 30
0.0
 11
5200.8064388635211799
 21
460.3651044314976275
 31
0.0
  0
LINE
  5
18976
  8
0
 10
5200.8056381503156445
 20
460.3569262077709823
 30
0.0
 11
5200.8201543711538761
 21
460.3262320179375138
 31
0.0
  0
ARC
  5
18977
  8
0
 10
5200.8128701602572619
 20
460.3603464463889736
 30
0.0
 40
0.008
 50
143.505320447338903
 51
205.3108986140761942
  0
ARC
  5
18978
  8
0
 10
5200.8969928243586764
 20
460.4759212426387762
 30
0.0
 40
0.008
 50
277.3158783446896223
 51
344.0394833360755911
  0
ARC
  5
18979
  8
0
 10
5200.8725269992510221
 20
460.4120007334424827
 30
0.0
 40
0.008
 50
334.0714309429130822
 51
40.963072527117248
  0
LINE
  5
1897A
  8
0
 10
5200.8980115402528099
 20
460.4679863691093828
 30
0.0
 11
5200.8642184468517371
 21
460.4636478549227263
 31
0.0
  0
ARC
  5
1897B
  8
0
 10
5200.8652371627458706
 20
460.4557129813932761
 30
0.0
 40
0.008
 50
97.3158783446900486
 51
159.1574943603800989
  0
LINE
  5
1897C
  8
0
 10
5200.857760666919603
 20
460.4585593844137179
 30
0.0
 11
5200.8548735062413471
 21
460.4509758326097995
 31
0.0
  0
LINE
  5
1897D
  8
0
 10
5200.856308944007651
 20
460.4428848497660169
 30
0.0
 11
5200.8785680573109858
 21
460.4172453132658802
 31
0.0
  0
ARC
  5
1897E
  8
0
 10
5200.8623500020676147
 20
460.4481294295895282
 30
0.0
 40
0.008
 50
159.1574943603800989
 51
220.9630725271221081
  0
ARC
  5
1897F
  8
0
 10
5200.9121714627362962
 20
460.5821144220359997
 30
0.0
 40
0.008
 50
292.9680522577157831
 51
359.6916572491202828
  0
ARC
  5
18980
  8
0
 10
5200.9058584437816535
 20
460.5139634580971801
 30
0.0
 40
0.008
 50
349.7236048559441883
 51
56.6152464401562483
  0
LINE
  5
18981
  8
0
 10
5200.9152932051383686
 20
460.5747486414007881
 30
0.0
 11
5200.8839237684278487
 21
460.5614537436015894
 31
0.0
  0
ARC
  5
18982
  8
0
 10
5200.8870455108308306
 20
460.5540879629663777
 30
0.0
 40
0.008
 50
112.9680522577675958
 51
174.8096682734303897
  0
LINE
  5
18983
  8
0
 10
5200.8790783134063531
 20
460.5548116792077735
 30
0.0
 11
5200.8783442342682974
 21
460.5467303994477106
 31
0.0
  0
LINE
  5
18984
  8
0
 10
5200.8819093631573196
 20
460.5393267286705736
 30
0.0
 11
5200.9102605123180183
 21
460.5206434126328077
 31
0.0
  0
ARC
  5
18985
  8
0
 10
5200.8863114316936844
 20
460.5460066832062012
 30
0.0
 40
0.008
 50
174.8096682734336866
 51
236.6152464401561986
  0
ARC
  5
18986
  8
0
 10
5200.8981366591051483
 20
460.6884648179002966
 30
0.0
 40
0.008
 50
308.6202261707650791
 51
15.3438311621603898
  0
ARC
  5
18987
  8
0
 10
5200.9104446540413846
 20
460.6211378444443767
 30
0.0
 40
0.008
 50
5.3757787689900436
 51
72.267420353197835
  0
LINE
  5
18988
  8
0
 10
5200.9031299026637498
 20
460.6822144164127053
 30
0.0
 11
5200.8765106502596609
 21
460.6609491567506893
 31
0.0
  0
ARC
  5
18989
  8
0
 10
5200.8815038938191719
 20
460.6546987552630981
 30
0.0
 40
0.008
 50
128.6202261707753109
 51
190.4618421864695961
  0
LINE
  5
1898A
  8
0
 10
5200.8736368853833483
 20
460.6532461100027831
 30
0.0
 11
5200.8751103310769395
 21
460.6452664538368253
 31
0.0
  0
LINE
  5
1898B
  8
0
 10
5200.8805407417848983
 20
460.6390991915183122
 30
0.0
 11
5200.912881251770159
 21
460.6287577520229775
 31
0.0
  0
ARC
  5
1898C
  8
0
 10
5200.8829773395136726
 20
460.6467190990970266
 30
0.0
 40
0.008
 50
190.4618421864695961
 51
252.2674203531977923
  0
ARC
  5
1898D
  8
0
 10
5200.8559293106491168
 20
460.7870849078911988
 30
0.0
 40
0.008
 50
324.2724000838077245
 51
30.9960050751972496
  0
ARC
  5
1898E
  8
0
 10
5200.885945491797429
 20
460.7255752585388109
 30
0.0
 40
0.008
 50
21.0279526820415796
 51
87.9195942662330481
  0
LINE
  5
1898F
  8
0
 10
5200.8624237293333863
 20
460.7824134492358894
 30
0.0
 11
5200.8425288894095502
 21
460.7547549747379776
 31
0.0
  0
ARC
  5
18990
  8
0
 10
5200.8490233080938197
 20
460.7500835160827251
 30
0.0
 40
0.008
 50
144.2724000838236122
 51
206.114016099525287
  0
LINE
  5
18991
  8
0
 10
5200.841839948670895
 20
460.7465622453743208
 30
0.0
 11
5200.8454116404700471
 21
460.7392760273955901
 31
0.0
  0
LINE
  5
18992
  8
0
 10
5200.85230458427759
 20
460.7348025711687001
 30
0.0
 11
5200.8862359074109918
 21
460.7335699854742757
 31
0.0
  0
ARC
  5
18993
  8
0
 10
5200.8525949998938813
 20
460.742797298104108
 30
0.0
 40
0.008
 50
206.114016099525287
 51
267.9195942662331049
  0
ARC
  5
18994
  8
0
 10
5200.7886797433166066
 20
460.870660491090689
 30
0.0
 40
0.008
 50
339.924573996861227
 51
46.6481789882680431
  0
ARC
  5
18995
  8
0
 10
5200.8341779478341778
 20
460.8195300551465721
 30
0.0
 40
0.008
 50
36.6801265950720179
 51
103.5717681793015004
  0
LINE
  5
18996
  8
0
 10
5200.7961936758019874
 20
460.8679144359855968
 30
0.0
 11
5200.7844987576254425
 21
460.835914049176381
 31
0.0
  0
ARC
  5
18997
  8
0
 10
5200.7920126901090043
 20
460.8331679940712888
 30
0.0
 40
0.008
 50
159.9245739968826001
 51
221.7661900125607133
  0
LINE
  5
18998
  8
0
 10
5200.7860457366068658
 20
460.8278392544543749
 30
0.0
 11
5200.7914507784698799
 21
460.8217868601184932
 31
0.0
  0
LINE
  5
18999
  8
0
 10
5200.7992950372708947
 20
460.8193389857667057
 30
0.0
 11
5200.8323006425362109
 21
460.8273066691152735
 31
0.0
  0
ARC
  5
1899A
  8
0
 10
5200.7974177319729279
 20
460.8271155997354072
 30
0.0
 40
0.008
 50
221.7661900125631007
 51
283.5717681793015004
  0
ARC
  5
1899B
  8
0
 10
5200.7013755498728642
 20
460.9329931488259717
 30
0.0
 40
0.008
 50
355.5767479098968238
 51
62.3003529012829205
  0
ARC
  5
1899C
  8
0
 10
5200.758981384069557
 20
460.8960340368179232
 30
0.0
 40
0.008
 50
52.3323005081272683
 51
119.2239420923519049
  0
LINE
  5
1899D
  8
0
 10
5200.7093517221574075
 20
460.9323761596158988
 30
0.0
 11
5200.7067240843089166
 21
460.8984071827928801
 31
0.0
  0
ARC
  5
1899E
  8
0
 10
5200.7147002565925504
 20
460.8977901935828072
 30
0.0
 40
0.008
 50
175.5767479099228012
 51
237.4183639255988965
  0
LINE
  5
1899F
  8
0
 10
5200.7103922506557865
 20
460.8910491932974196
 30
0.0
 11
5200.7172297753559178
 21
460.8866795010042097
 31
0.0
  0
LINE
  5
189A0
  8
0
 10
5200.7254435763570655
 20
460.8864387561699232
 30
0.0
 11
5200.7550755890069922
 21
460.9030157819374836
 31
0.0
  0
ARC
  5
189A1
  8
0
 10
5200.7215377812917723
 20
460.8934205012895973
 30
0.0
 40
0.008
 50
237.4183639255988965
 51
299.2239420923535249
  0
ARC
  5
189A2
  8
0
 10
5200.6004916829506328
 20
460.9694599530255914
 30
0.0
 40
0.008
 50
11.2289218229381405
 51
77.9525268143578245
  0
ARC
  5
189A3
  8
0
 10
5200.6659327856368691
 20
460.9494132532145159
 30
0.0
 40
0.008
 50
67.9844744211765146
 51
134.8761160053952892
  0
LINE
  5
189A4
  8
0
 10
5200.6083385388283205
 20
460.9710177889776901
 30
0.0
 11
5200.6149730611859923
 21
460.9375995457542103
 31
0.0
  0
ARC
  5
189A5
  8
0
 10
5200.6228199170618609
 20
460.9391573817061953
 30
0.0
 40
0.008
 50
191.2289218229637129
 51
253.0705378386311963
  0
LINE
  5
189A6
  8
0
 10
5200.6204903637826646
 20
460.9315040699054862
 30
0.0
 11
5200.6282532633886149
 21
460.9291411597424144
 31
0.0
  0
LINE
  5
189A7
  8
0
 10
5200.6362274265484302
 20
460.9311253993687956
 30
0.0
 11
5200.6602881757589785
 21
460.9550823253889007
 31
0.0
  0
ARC
  5
189A8
  8
0
 10
5200.6305828166687206
 20
460.9367944715431804
 30
0.0
 40
0.008
 50
253.0705378386311963
 51
314.8761160053975914
  0
ARC
  5
189A9
  8
0
 10
5200.4935102374511189
 20
460.9773563276465893
 30
0.0
 40
0.008
 50
26.8810957359905203
 51
93.6047007273903091
  0
ARC
  5
189AA
  8
0
 10
5200.5619331414127373
 20
460.975708812049902
 30
0.0
 40
0.008
 50
83.6366483341910936
 51
150.5282899184198016
  0
LINE
  5
189AB
  8
0
 10
5200.5006458115167334
 20
460.9809734511949841
 30
0.0
 11
5200.5160504419072822
 21
460.9505844197925057
 31
0.0
  0
ARC
  5
189AC
  8
0
 10
5200.5231860159710777
 20
460.9542015433409006
 30
0.0
 40
0.008
 50
206.8810957360109057
 51
268.7227117517019224
  0
LINE
  5
189AD
  8
0
 10
5200.5230076876596286
 20
460.9462035311494787
 30
0.0
 11
5200.5311202234242955
 21
460.9460226493537789
 31
0.0
  0
LINE
  5
189AE
  8
0
 10
5200.5382633415356395
 20
460.9500847114647968
 30
0.0
 11
5200.554968351611933
 21
460.9796447621301922
 31
0.0
  0
ARC
  5
189AF
  8
0
 10
5200.5312985517357447
 20
460.954020661545087
 30
0.0
 40
0.008
 50
268.7227117517019224
 51
330.5282899184226721
  0
ENDSEC
  0
EOF
