  0
SECTION
  2
HEADER
  9
$ACADVER
  1
AC1009
  9
$INSBASE
 10
5262.7392870099556603
 20
475.5394300041743918
 30
0.0
  9
$EXTMIN
 10
5256.9893996696009708
 20
475.5344696722738718
 30
0.0
  9
$EXTMAX
 10
5263.8642870099565698
 20
478.5594300041743736
 30
0.0
  9
$LIMMIN
 10
0.0
 20
0.0
  9
$LIMMAX
 10
11.6929133858000007
 20
8.2677165353999982
  9
$ORTHOMODE
 70
     0
  9
$REGENMODE
 70
     1
  9
$FILLMODE
 70
     1
  9
$QTEXTMODE
 70
     0
  9
$MIRRTEXT
 70
     0
  9
$DRAGMODE
 70
     2
  9
$LTSCALE
 40
0.6431102362
  9
$OSMODE
 70
  4095
  9
$ATTMODE
 70
     1
  9
$TEXTSIZE
 40
0.2
  9
$TRACEWID
 40
0.05
  9
$TEXTSTYLE
  7
STANDARD
  9
$CLAYER
  8
0
  9
$CELTYPE
  6
BYLAYER
  9
$CECOLOR
 62
   256
  9
$DIMSCALE
 40
1.0
  9
$DIMASZ
 40
0.1875
  9
$DIMEXO
 40
0.0625
  9
$DIMDLI
 40
0.4443307087
  9
$DIMRND
 40
0.0
  9
$DIMDLE
 40
0.0
  9
$DIMEXE
 40
0.125
  9
$DIMTP
 40
0.01
  9
$DIMTM
 40
0.01
  9
$DIMTXT
 40
2.0
  9
$DIMCEN
 40
0.1052362205
  9
$DIMTSZ
 40
0.0
  9
$DIMTOL
 70
     1
  9
$DIMLIM
 70
     0
  9
$DIMTIH
 70
     1
  9
$DIMTOH
 70
     1
  9
$DIMSE1
 70
     0
  9
$DIMSE2
 70
     0
  9
$DIMTAD
 70
     0
  9
$DIMZIN
 70
     0
  9
$DIMBLK
  1

  9
$DIMASO
 70
     1
  9
$DIMSHO
 70
     1
  9
$DIMPOST
  1
\X
  9
$DIMAPOST
  1

  9
$DIMALT
 70
     1
  9
$DIMALTD
 70
     2
  9
$DIMALTF
 40
25.3999999999999986
  9
$DIMLFAC
 40
1.0
  9
$DIMTOFL
 70
     0
  9
$DIMTVP
 40
0.0
  9
$DIMTIX
 70
     0
  9
$DIMSOXD
 70
     0
  9
$DIMSAH
 70
     0
  9
$DIMBLK1
  1

  9
$DIMBLK2
  1

  9
$DIMSTYLE
  2
STANDARD
  9
$DIMCLRD
 70
     0
  9
$DIMCLRE
 70
     0
  9
$DIMCLRT
 70
     0
  9
$DIMTFAC
 40
1.0
  9
$DIMGAP
 40
0.09
  9
$LUNITS
 70
     2
  9
$LUPREC
 70
     4
  9
$SKETCHINC
 40
0.1
  9
$FILLETRAD
 40
0.0
  9
$AUNITS
 70
     0
  9
$AUPREC
 70
     0
  9
$MENU
  1
.
  9
$ELEVATION
 40
0.0
  9
$PELEVATION
 40
0.0
  9
$THICKNESS
 40
0.0
  9
$LIMCHECK
 70
     0
  9
$BLIPMODE
 70
     0
  9
$CHAMFERA
 40
0.0
  9
$CHAMFERB
 40
0.0
  9
$SKPOLY
 70
     0
  9
$TDCREATE
 40
2458060.468368056230247
  9
$TDUPDATE
 40
2460111.525219907052815
  9
$TDINDWG
 40
0.666858912
  9
$TDUSRTIMER
 40
0.666858912
  9
$USRTIMER
 70
     1
  9
$ANGBASE
 50
0.0
  9
$ANGDIR
 70
     0
  9
$PDMODE
 70
     0
  9
$PDSIZE
 40
0.3125
  9
$PLINEWID
 40
0.0
  9
$COORDS
 70
     1
  9
$SPLFRAME
 70
     0
  9
$SPLINETYPE
 70
     6
  9
$SPLINESEGS
 70
     8
  9
$ATTDIA
 70
     1
  9
$ATTREQ
 70
     1
  9
$HANDLING
 70
     1
  9
$HANDSEED
  5
19193
  9
$SURFTAB1
 70
     6
  9
$SURFTAB2
 70
     6
  9
$SURFTYPE
 70
     6
  9
$SURFU
 70
     6
  9
$SURFV
 70
     6
  9
$UCSNAME
  2

  9
$UCSORG
 10
0.0
 20
0.0
 30
0.0
  9
$UCSXDIR
 10
1.0
 20
0.0
 30
0.0
  9
$UCSYDIR
 10
0.0
 20
1.0
 30
0.0
  9
$PUCSNAME
  2

  9
$PUCSORG
 10
0.0
 20
0.0
 30
0.0
  9
$PUCSXDIR
 10
1.0
 20
0.0
 30
0.0
  9
$PUCSYDIR
 10
0.0
 20
1.0
 30
0.0
  9
$USERI1
 70
     0
  9
$USERI2
 70
     0
  9
$USERI3
 70
     0
  9
$USERI4
 70
     0
  9
$USERI5
 70
     0
  9
$USERR1
 40
0.0
  9
$USERR2
 40
0.0
  9
$USERR3
 40
0.0
  9
$USERR4
 40
0.0
  9
$USERR5
 40
0.0
  9
$WORLDVIEW
 70
     1
  9
$SHADEDGE
 70
     3
  9
$SHADEDIF
 70
    70
  9
$TILEMODE
 70
     1
  9
$MAXACTVP
 70
    64
  9
$PLIMCHECK
 70
     0
  9
$PEXTMIN
 10
1.0000000000000000E+20
 20
1.0000000000000000E+20
 30
1.0000000000000000E+20
  9
$PEXTMAX
 10
-1.0000000000000000E+20
 20
-1.0000000000000000E+20
 30
-1.0000000000000000E+20
  9
$PLIMMIN
 10
0.0
 20
0.0
  9
$PLIMMAX
 10
12.0
 20
9.0
  9
$UNITMODE
 70
     0
  9
$VISRETAIN
 70
     1
  9
$PLINEGEN
 70
     0
  9
$PSLTSCALE
 70
     1
  0
ENDSEC
  0
SECTION
  2
TABLES
  0
TABLE
  2
VPORT
 70
     1
  0
VPORT
  2
*ACTIVE
 70
     0
 10
0.0
 20
0.0
 11
1.0
 21
1.0
 12
1456.8827759569660429
 22
351.0516876414741887
 13
0.0
 23
0.0
 14
1.0
 24
1.0
 15
0.0
 25
0.0
 16
0.0
 26
0.0
 36
17.1152628219792007
 17
3803.5440673828129547
 27
125.9952621967499056
 37
0.0
 40
3.0500450013505618
 41
2.5251322751322749
 42
50.0
 43
0.0
 44
0.0
 50
0.0
 51
0.0
 71
     0
 72
   100
 73
     1
 74
     1
 75
     0
 76
     0
 77
     0
 78
     0
  0
ENDTAB
  0
TABLE
  2
LTYPE
 70
     2
  0
LTYPE
  2
CONTINUOUS
 70
     0
  3
Solid line
 72
    65
 73
     0
 40
0.0
  0
LTYPE
  2
PHANTOM2
 70
     0
  3
___ _ _ ___ _ _ ___ _ _ ___ _ _
 72
    65
 73
     6
 40
1.25
 49
0.625
 49
-0.125
 49
0.125
 49
-0.125
 49
0.125
 49
-0.125
  0
ENDTAB
  0
TABLE
  2
LAYER
 70
     2
  0
LAYER
  2
0
 70
     0
 62
   255
  6
CONTINUOUS
  0
LAYER
  2
DEFPOINTS
 70
     0
 62
     7
  6
CONTINUOUS
  0
ENDTAB
  0
TABLE
  2
STYLE
 70
     1
  0
STYLE
  2
STANDARD
 70
     0
 40
0.0
 41
0.8
 50
0.0
 71
     0
 42
0.2
  3
txt
  4

  0
ENDTAB
  0
TABLE
  2
VIEW
 70
     0
  0
ENDTAB
  0
TABLE
  2
UCS
 70
     0
  0
ENDTAB
  0
TABLE
  2
APPID
 70
    10
  0
APPID
  2
ACAD
 70
     0
  0
APPID
  2
ACAD_MLEADERVER
 70
     0
  0
APPID
  2
ACAD_EXEMPT_FROM_CAD_STANDARDS
 70
     0
  0
APPID
  2
ACAD_NAV_VCDISPLAY
 70
     0
  0
APPID
  2
ACAECLAYERSTANDARD
 70
     0
  0
APPID
  2
ACCMTRANSPARENCY
 70
     0
  0
APPID
  2
ACAD_DSTYLE_DIMJAG
 70
     0
  0
APPID
  2
ACAD_DSTYLE_DIMTALN
 70
     0
  0
APPID
  2
ACDBATTR
 70
     0
  0
APPID
  2
ACADANNOTATIVE
 70
     0
  0
ENDTAB
  0
TABLE
  2
DIMSTYLE
 70
     2
  0
DIMSTYLE
  2
STANDARD
 70
     0
  3

  4

  5

  6

  7

 40
1.0
 41
0.1875
 42
0.0625
 43
0.38
 44
0.125
 45
0.0
 46
0.0
 47
0.01
 48
0.01
140
0.15625
141
0.09
142
0.0
143
25.3999999999999986
144
1.0
145
0.0
146
1.0
147
0.09
 71
     1
 72
     0
 73
     1
 74
     1
 75
     0
 76
     0
 77
     0
 78
     4
170
     0
171
     2
172
     0
173
     0
174
     0
175
     0
176
     0
177
     0
178
     0
  0
DIMSTYLE
  2
ANNOTATIVE
 70
     0
  3

  4

  5

  6

  7

 40
0.0
 41
0.18
 42
0.0625
 43
0.38
 44
0.18
 45
0.0
 46
0.0
 47
0.0
 48
0.0
140
0.18
141
0.09
142
0.0
143
25.3999999999999986
144
1.0
145
0.0
146
1.0
147
0.09
 71
     0
 72
     0
 73
     1
 74
     1
 75
     0
 76
     0
 77
     0
 78
     0
170
     0
171
     2
172
     0
173
     0
174
     0
175
     0
176
     0
177
     0
178
     0
  0
ENDTAB
  0
ENDSEC
  0
SECTION
  2
BLOCKS
  0
BLOCK
  8
0
  2
$MODEL_SPACE
 70
     0
 10
0.0
 20
0.0
 30
0.0
  3
$MODEL_SPACE
  1

  0
ENDBLK
  5
21
  8
0
  0
BLOCK
 67
     1
  8
0
  2
$PAPER_SPACE
 70
     0
 10
0.0
 20
0.0
 30
0.0
  3
$PAPER_SPACE
  1

  0
ENDBLK
  5
1D
 67
     1
  8
0
  0
BLOCK
  8
0
  2
_FILLED
 70
     0
 10
0.0
 20
0.0
 30
0.0
  3
_FILLED
  1

  0
SOLID
  5
13053
  8
0
  6
BYBLOCK
 62
     0
 10
0.0
 20
0.0
 30
0.0
 11
-1.0
 21
0.1666666667
 31
0.0
 12
-1.0
 22
-0.1666666667
 32
0.0
 13
-1.0
 23
-0.1666666667
 33
0.0
  0
ENDBLK
  5
13054
  8
0
  6
BYBLOCK
 62
     0
  0
ENDSEC
  0
SECTION
  2
ENTITIES
  0
ATTDEF
  5
3930
  8
DEFPOINTS
 10
5262.7357935884083417
 20
475.5378030056072021
 30
0.0
 40
0.001
  1
P40875-SN
  3

  2
MODELNUMBER
 70
     0
1001
ACDBATTR
1070
     0
1070
     1
  0
ATTDEF
  5
3931
  8
DEFPOINTS
 10
5262.7357935884083417
 20
475.5361363389405938
 30
0.0
 40
0.001
  1
ONE
  3

  2
TRADENAME
 70
     0
1001
ACDBATTR
1070
     0
1070
     1
  0
ATTDEF
  5
3932
  8
DEFPOINTS
 10
5262.7357935884083417
 20
475.5344696722738718
 30
0.0
 40
0.001
  1
BATHROOM SINK FAUCET
  3

  2
PRODUCT
 70
     0
1001
ACDBATTR
1070
     0
1070
     1
  0
LINE
  5
19007
  8
0
 10
5261.6142870099556603
 20
475.5394300041743918
 30
0.0
 11
5263.8642870099565698
 21
475.5394300041743918
 31
0.0
  0
LINE
  5
19008
  8
0
 10
5261.6242870099558786
 20
475.9394300041743122
 30
0.0
 11
5263.8542870099563515
 21
475.9394300041743122
 31
0.0
  0
ARC
  5
19009
  8
0
 10
5263.8542870099563515
 20
475.9294300041743782
 30
0.0
 40
0.01
 50
0.0
 51
90.0
  0
ARC
  5
1900A
  8
0
 10
5261.6242870099558786
 20
475.9294300041743782
 30
0.0
 40
0.01
 50
90.0
 51
180.0
  0
LINE
  5
1900B
  8
0
 10
5261.6142870099556603
 20
475.9294300041743782
 30
0.0
 11
5261.6142870099556603
 21
475.5394300041743918
 31
0.0
  0
LINE
  5
1900C
  8
0
 10
5262.3372870099556167
 20
477.0694300041744214
 30
0.0
 11
5262.3372870099556167
 21
475.9794300041742758
 31
0.0
  0
LINE
  5
1900D
  8
0
 10
5262.3772870099555803
 20
477.109430004174385
 30
0.0
 11
5263.1012870099557404
 21
477.109430004174385
 31
0.0
  0
LINE
  5
1900E
  8
0
 10
5262.3512870099557404
 20
477.1174300041743095
 30
0.0
 11
5263.1272870099573993
 21
477.1174300041743095
 31
0.0
  0
ARC
  5
1900F
  8
0
 10
5261.6342870099570064
 20
475.9194300041743872
 30
0.0
 40
0.02
 50
90.0
 51
179.9999999999870113
  0
ARC
  5
19010
  8
0
 10
5262.2972870099565625
 20
475.9794300041742758
 30
0.0
 40
0.04
 50
270.0
 51
0.0
  0
ARC
  5
19011
  8
0
 10
5262.3772870099555803
 20
477.0694300041744214
 30
0.0
 40
0.04
 50
90.0
 51
180.0000000000032117
  0
ARC
  5
19012
  8
0
 10
5262.3512870099557404
 20
477.1314300041743195
 30
0.0
 40
0.014
 50
179.9999999999934914
 51
270.0
  0
LINE
  5
19013
  8
0
 10
5262.389287009956206
 20
477.1174300041743095
 30
0.0
 11
5262.389287009956206
 21
477.109430004174385
 31
0.0
  0
LINE
  5
19014
  8
0
 10
5263.8642870099565698
 20
475.9294300041743782
 30
0.0
 11
5263.8642870099565698
 21
475.5394300041743918
 31
0.0
  0
LINE
  5
19015
  8
0
 10
5263.1412870099566135
 20
478.0284300041743109
 30
0.0
 11
5263.1412870099566135
 21
477.1314300041743195
 31
0.0
  0
LINE
  5
19016
  8
0
 10
5263.1412870099566135
 20
477.0694300041744214
 30
0.0
 11
5263.1412870099566135
 21
475.9794300041742758
 31
0.0
  0
ARC
  5
19017
  8
0
 10
5263.8442870099552238
 20
475.9194300041743872
 30
0.0
 40
0.02
 50
0.0000000000130276
 51
90.0
  0
ARC
  5
19018
  8
0
 10
5263.1812870099556676
 20
475.9794300041742758
 30
0.0
 40
0.04
 50
180.0
 51
270.0
  0
ARC
  5
19019
  8
0
 10
5263.1012870099557404
 20
477.0694300041744214
 30
0.0
 40
0.04
 50
359.9999999999968168
 51
90.0
  0
ARC
  5
1901A
  8
0
 10
5263.1272870099573993
 20
477.1314300041743195
 30
0.0
 40
0.014
 50
270.0
 51
0.0000000000065138
  0
LINE
  5
1901B
  8
0
 10
5263.0892870099560241
 20
477.1174300041743095
 30
0.0
 11
5263.0892870099560241
 21
477.109430004174385
 31
0.0
  0
LINE
  5
1901C
  8
0
 10
5262.3372870099556167
 20
477.1314300041743195
 30
0.0
 11
5262.3372870099556167
 21
478.0284300041743109
 31
0.0
  0
CIRCLE
  5
1901D
  8
0
 10
5262.7392870099556603
 20
478.0284300041743109
 30
0.0
 40
0.4019014024999997
  0
ARC
  5
1901E
  8
0
 10
5262.6093767835091057
 20
478.400292408775897
 30
0.0
 40
0.008
 50
42.5332696490275026
 51
109.2568746404065934
  0
ARC
  5
1901F
  8
0
 10
5262.6757068749720929
 20
478.4171662660883726
 30
0.0
 40
0.008
 50
99.2888222472437718
 51
166.180463831467506
  0
LINE
  5
19020
  8
0
 10
5262.6152718628773073
 20
478.4057005544140111
 30
0.0
 11
5262.6383041103372307
 21
478.380594550271212
 31
0.0
  0
ARC
  5
19021
  8
0
 10
5262.6441991897054322
 20
478.3860026959094967
 30
0.0
 40
0.008
 50
222.5332696490418982
 51
284.3748856647490015
  0
LINE
  5
19022
  8
0
 10
5262.6461853121545573
 20
478.3782531593033127
 30
0.0
 11
5262.654045814411802
 21
478.3802677210500747
 31
0.0
  0
LINE
  5
19023
  8
0
 10
5262.6598281150863841
 20
478.3861063410818133
 30
0.0
 11
5262.6679384518483857
 21
478.4190771826628179
 31
0.0
  0
ARC
  5
19024
  8
0
 10
5262.6520596919608579
 20
478.3880172576563155
 30
0.0
 40
0.008
 50
284.3748856647490015
 51
346.1804638314739009
  0
ARC
  5
19025
  8
0
 10
5262.5138669310308615
 20
478.3514533824442196
 30
0.0
 40
0.008
 50
58.185443562070283
 51
124.9090485534557047
  0
ARC
  5
19026
  8
0
 10
5262.5731848105524477
 20
478.3855971558620013
 30
0.0
 40
0.008
 50
114.9409961603055024
 51
181.8326377445067124
  0
LINE
  5
19027
  8
0
 10
5262.5180843046337031
 20
478.3582514527510057
 30
0.0
 11
5262.5470359727332834
 21
478.3402904733426908
 31
0.0
  0
ARC
  5
19028
  8
0
 10
5262.5512533463361251
 20
478.3470885436494768
 30
0.0
 40
0.008
 50
238.1854435620772108
 51
300.0270595777816993
  0
LINE
  5
19029
  8
0
 10
5262.555256617932173
 20
478.3401622303067029
 30
0.0
 11
5262.5622821091874357
 21
478.3442228247674279
 31
0.0
  0
LINE
  5
1902A
  8
0
 10
5262.5662747456335637
 20
478.3514049789819751
 30
0.0
 11
5262.5651889025093624
 21
478.3853413149902281
 31
0.0
  0
ARC
  5
1902B
  8
0
 10
5262.5582788375913879
 20
478.3511491381102019
 30
0.0
 40
0.008
 50
300.0270595777834046
 51
1.832637744513236
  0
ARC
  5
1902C
  8
0
 10
5262.4350754545794189
 20
478.2786571898799934
 30
0.0
 40
0.008
 50
73.8376174751199557
 51
140.5612224665026133
  0
ARC
  5
1902D
  8
0
 10
5262.4829817863937933
 20
478.3275385919258724
 30
0.0
 40
0.008
 50
130.5931700733331979
 51
197.4848116575446113
  0
LINE
  5
1902E
  8
0
 10
5262.4373023391090101
 20
478.2863410030797127
 30
0.0
 11
5262.4700262150709023
 21
478.2768571320826823
 31
0.0
  0
ARC
  5
1902F
  8
0
 10
5262.4722530996023124
 20
478.2845409452824015
 30
0.0
 40
0.008
 50
253.8376174751226984
 51
315.6792334908251974
  0
LINE
  5
19030
  8
0
 10
5262.4779766160036161
 20
478.2789515481779858
 30
0.0
 11
5262.4836460477099536
 21
478.2847570196373113
 31
0.0
  0
LINE
  5
19031
  8
0
 10
5262.4855529043506976
 20
478.2927500405127716
 30
0.0
 11
5262.4753514133526551
 21
478.3251349681548845
 31
0.0
  0
ARC
  5
19032
  8
0
 10
5262.4779225313068309
 20
478.2903464167418974
 30
0.0
 40
0.008
 50
315.6792334908251974
 51
17.4848116575508001
  0
ARC
  5
19033
  8
0
 10
5262.3788459575116576
 20
478.1873027916652177
 30
0.0
 40
0.008
 50
89.4897913881728186
 51
156.2133963795548937
  0
ARC
  5
19034
  8
0
 10
5262.4117877481521646
 20
478.2472965123669724
 30
0.0
 40
0.008
 50
146.245343986384313
 51
213.1369855705900989
  0
LINE
  5
19035
  8
0
 10
5262.378917195132999
 20
478.195302474483924
 30
0.0
 11
5262.4129862987783781
 21
478.1949990872241756
 31
0.0
  0
ARC
  5
19036
  8
0
 10
5262.4130575363979005
 20
478.2029987700429956
 30
0.0
 40
0.008
 50
269.4897913881728755
 51
331.3314074038680133
  0
LINE
  5
19037
  8
0
 10
5262.4200768105783936
 20
478.1991608291901912
 30
0.0
 11
5262.4239697069233443
 21
478.2062806123885252
 31
0.0
  0
LINE
  5
19038
  8
0
 10
5262.4236493609223544
 20
478.2144916941322208
 30
0.0
 11
5262.4050888199717519
 21
478.2429233714760244
 31
0.0
  0
ARC
  5
19039
  8
0
 10
5262.4169504327428513
 20
478.210118553241216
 30
0.0
 40
0.008
 50
331.3314074038707986
 51
33.1369855705927776
  0
ARC
  5
1903A
  8
0
 10
5262.3493487243986237
 20
478.0841655255966884
 30
0.0
 40
0.008
 50
105.1419653011917035
 51
171.8655702926041897
  0
ARC
  5
1903B
  8
0
 10
5262.3648828319455788
 20
478.1508221051431065
 30
0.0
 40
0.008
 50
161.8975178994272142
 51
228.7891594836380023
  0
LINE
  5
1903C
  8
0
 10
5262.347259031739668
 20
478.0918877781559786
 30
0.0
 11
5262.3801466135091687
 21
478.100787375478717
 31
0.0
  0
ARC
  5
1903D
  8
0
 10
5262.3780569208483939
 20
478.1085096280381208
 30
0.0
 40
0.008
 50
285.1419653012437152
 51
346.9835813169132166
  0
LINE
  5
1903E
  8
0
 10
5262.3858513653513
 20
478.1067077859527217
 30
0.0
 11
5262.3876790080212231
 21
478.1146138391408158
 31
0.0
  0
LINE
  5
1903F
  8
0
 10
5262.3851552179767168
 20
478.1224340033829208
 30
0.0
 11
5262.359612177487179
 21
478.1448037829862869
 31
0.0
  0
ARC
  5
19040
  8
0
 10
5262.3798845635192265
 20
478.1164156812261012
 30
0.0
 40
0.008
 50
346.9835813169162861
 51
48.7891594836401481
  0
ARC
  5
19041
  8
0
 10
5262.34877143007634
 20
477.9768946108774799
 30
0.0
 40
0.008
 50
120.7941392142363952
 51
187.5177442056449024
  0
ARC
  5
19042
  8
0
 10
5262.3457457608383265
 20
478.0452704356969775
 30
0.0
 40
0.008
 50
177.5496918124678984
 51
244.441333396702106
  0
LINE
  5
19043
  8
0
 10
5262.3446757900828743
 20
477.9837667090318973
 30
0.0
 11
5262.3739427284826888
 21
478.0012092485166022
 31
0.0
  0
ARC
  5
19044
  8
0
 10
5262.3698470884901326
 20
478.0080813466710197
 30
0.0
 40
0.008
 50
300.7941392142877817
 51
2.6357552299523901
  0
LINE
  5
19045
  8
0
 10
5262.3778386250241965
 20
478.0084492377375796
 30
0.0
 11
5262.3774654661228851
 21
478.0165552051183795
 31
0.0
  0
LINE
  5
19046
  8
0
 10
5262.3729254099980608
 20
478.0234044660521135
 30
0.0
 11
5262.3422942804299964
 21
478.0380532836966836
 31
0.0
  0
ARC
  5
19047
  8
0
 10
5262.3694739295897307
 20
478.0161873140518196
 30
0.0
 40
0.008
 50
2.6357552299523901
 51
64.4413333967035555
  0
ARC
  5
19048
  8
0
 10
5262.3771568898218902
 20
477.8734458405202759
 30
0.0
 40
0.008
 50
136.4463131272763121
 51
203.1699181186835119
  0
ARC
  5
19049
  8
0
 10
5262.3557958438459536
 20
477.9384697884847242
 30
0.0
 40
0.008
 50
193.2018657255098049
 51
260.0935073097493273
  0
LINE
  5
1904A
  8
0
 10
5262.3713590573770489
 20
477.8789581121874903
 30
0.0
 11
5262.3948347574778381
 21
477.9036499604749224
 31
0.0
  0
ARC
  5
1904B
  8
0
 10
5262.3890369250320873
 20
477.90916223214208
 30
0.0
 40
0.008
 50
316.4463131273240037
 51
18.2879291430015485
  0
LINE
  5
1904C
  8
0
 10
5262.396632857890836
 20
477.9116725715633152
 30
0.0
 11
5262.3940865729082361
 21
477.9193772706184973
 31
0.0
  0
LINE
  5
1904D
  8
0
 10
5262.3878669658952276
 20
477.9247476498935043
 30
0.0
 11
5262.3544195180002134
 21
477.930589069788482
 31
0.0
  0
ARC
  5
1904E
  8
0
 10
5262.3864906400503969
 20
477.9168669311972053
 30
0.0
 40
0.008
 50
18.2879291430015485
 51
80.0935073097493273
  0
ARC
  5
1904F
  8
0
 10
5262.4323998839454362
 20
477.7814915365760271
 30
0.0
 40
0.008
 50
152.0984870403285072
 51
218.8220920317272942
  0
ARC
  5
19050
  8
0
 10
5262.3942877122899517
 20
477.8383410789293748
 30
0.0
 40
0.008
 50
208.8540396385579925
 51
275.745681222754115
  0
LINE
  5
19051
  8
0
 10
5262.425329857755969
 20
477.7852351617834188
 30
0.0
 11
5262.4412732342725576
 21
477.815345037443592
 31
0.0
  0
ARC
  5
19052
  8
0
 10
5262.4342032080839999
 20
477.8190886626510974
 30
0.0
 40
0.008
 50
332.0984870403485729
 51
33.940103056028228
  0
LINE
  5
19053
  8
0
 10
5262.4408401816781407
 20
477.8235552700360245
 30
0.0
 11
5262.4363096169217897
 21
477.8302872784831834
 31
0.0
  0
LINE
  5
19054
  8
0
 10
5262.428871738818998
 20
477.8337804796365731
 30
0.0
 11
5262.3950886167976932
 21
477.8303812703911149
 31
0.0
  0
ARC
  5
19055
  8
0
 10
5262.4296726433285585
 20
477.8258206710983131
 30
0.0
 40
0.008
 50
33.940103056028228
 51
95.745681222754456
  0
ARC
  5
19056
  8
0
 10
5262.5104032922881743
 20
477.7078515291050849
 30
0.0
 40
0.008
 50
167.750660953369902
 51
234.4742659447759081
  0
ARC
  5
19057
  8
0
 10
5262.4583666003727558
 20
477.7523103953607233
 30
0.0
 40
0.008
 50
224.5062135516166109
 51
291.3978551358234768
  0
LINE
  5
19058
  8
0
 10
5262.5025854238556349
 20
477.7095488602969908
 30
0.0
 11
5262.5098140294885525
 21
477.7428436515959902
 31
0.0
  0
ARC
  5
19059
  8
0
 10
5262.5019961610569226
 20
477.7445409827878962
 30
0.0
 40
0.008
 50
347.7506609533954247
 51
49.5922769690648977
  0
LINE
  5
1905A
  8
0
 10
5262.5071819414151832
 20
477.7506325903001994
 30
0.0
 11
5262.5010031081474153
 21
477.7558926258698762
 31
0.0
  0
LINE
  5
1905B
  8
0
 10
5262.4928985923488653
 20
477.7572495741524108
 30
0.0
 11
5262.4612853358139546
 21
477.7448618395658855
 31
0.0
  0
ARC
  5
1905C
  8
0
 10
5262.4958173277900642
 20
477.749801018357573
 30
0.0
 40
0.008
 50
49.5922769690648977
 51
111.3978551358235052
  0
ARC
  5
1905D
  8
0
 10
5262.6053819588969418
 20
477.6579873605812168
 30
0.0
 40
0.008
 50
183.4028348664168959
 51
250.1264398578132102
  0
ARC
  5
1905E
  8
0
 10
5262.5432800701109954
 20
477.6867582400145125
 30
0.0
 40
0.008
 50
240.1583874646615868
 51
307.0500290488704991
  0
LINE
  5
1905F
  8
0
 10
5262.5973960637593336
 20
477.6575125144677827
 30
0.0
 11
5262.595373785899028
 21
477.6915228990484934
 31
0.0
  0
ARC
  5
19060
  8
0
 10
5262.5873878907596009
 20
477.6910480529351162
 30
0.0
 40
0.008
 50
3.4028348664429471
 51
65.2444508821164249
  0
LINE
  5
19061
  8
0
 10
5262.5907378722758949
 20
477.6983128739129256
 30
0.0
 11
5262.5833690262952587
 21
477.7017108238298988
 31
0.0
  0
LINE
  5
19062
  8
0
 10
5262.5751989476611925
 20
477.7008308805949923
 30
0.0
 11
5262.548100167227858
 21
477.6803733622716095
 31
0.0
  0
ARC
  5
19063
  8
0
 10
5262.5800190447771456
 20
477.6944460028520894
 30
0.0
 40
0.008
 50
65.2444508821177891
 51
127.0500290488724033
  0
ARC
  5
19064
  8
0
 10
5262.7102917505681035
 20
477.6355972282702282
 30
0.0
 40
0.008
 50
199.0550087794563865
 51
265.7786137708475849
  0
ARC
  5
19065
  8
0
 10
5262.6427304779062979
 20
477.6465463163717118
 30
0.0
 40
0.008
 50
255.810561377672002
 51
322.7022029619046748
  0
LINE
  5
19066
  8
0
 10
5262.7027301060315949
 20
477.632985422015679
 30
0.0
 11
5262.6916069277758652
 21
477.665189005240677
 31
0.0
  0
ARC
  5
19067
  8
0
 10
5262.6840452832402661
 20
477.6625771989860141
 30
0.0
 40
0.008
 50
19.0550087794779905
 51
80.8966247951509843
  0
LINE
  5
19068
  8
0
 10
5262.6853110131105495
 20
477.6704764348916115
 30
0.0
 11
5262.6772986680116446
 21
477.6717602887550811
 31
0.0
  0
LINE
  5
19069
  8
0
 10
5262.6696689639002216
 20
477.6687087153673019
 30
0.0
 11
5262.6490944521447091
 21
477.6416986538540073
 31
0.0
  0
ARC
  5
1906A
  8
0
 10
5262.6760329381404517
 20
477.6638610528495974
 30
0.0
 40
0.008
 50
80.8966247951509843
 51
142.7022029619099044
  0
ARC
  5
1906B
  8
0
 10
5262.8173519879828746
 20
477.6423417058578025
 30
0.0
 40
0.008
 50
214.7071826925121911
 51
281.4307876839204141
  0
ARC
  5
1906C
  8
0
 10
5262.7493420419650647
 20
477.6346569588516218
 30
0.0
 40
0.008
 50
271.4627352907187969
 51
338.3543768749423748
  0
LINE
  5
1906D
  8
0
 10
5262.8107754066340931
 20
477.6377866451834961
 30
0.0
 11
5262.7913762832267821
 21
477.6657950346066741
 31
0.0
  0
ARC
  5
1906E
  8
0
 10
5262.7847997018761816
 20
477.6612399739324815
 30
0.0
 40
0.008
 50
34.7071826925309566
 51
96.5487987082341732
  0
LINE
  5
1906F
  8
0
 10
5262.7838873067103123
 20
477.6691877745752777
 30
0.0
 11
5262.7758257014729679
 21
477.6682623148176958
 31
0.0
  0
LINE
  5
19070
  8
0
 10
5262.7693022321336684
 20
477.6632654325148906
 30
0.0
 11
5262.7567779064711431
 21
477.6317060405115171
 31
0.0
  0
ARC
  5
19071
  8
0
 10
5262.7767380966406563
 20
477.6603145141747859
 30
0.0
 40
0.008
 50
96.5487987082341732
 51
158.3543768749453875
  0
ARC
  5
19072
  8
0
 10
5262.918622503102597
 20
477.6777205862949245
 30
0.0
 40
0.008
 50
230.3593566055299959
 51
297.0829615969648785
  0
ARC
  5
19073
  8
0
 10
5262.8552078702978179
 20
477.6519719467112282
 30
0.0
 40
0.008
 50
287.114909203782986
 51
354.0065507879850202
  0
LINE
  5
19074
  8
0
 10
5262.9135187398924245
 20
477.6715600992133091
 30
0.0
 11
5262.887282415570553
 21
477.6932960407211226
 31
0.0
  0
ARC
  5
19075
  8
0
 10
5262.8821786523603805
 20
477.6871355536393935
 30
0.0
 40
0.008
 50
50.3593566055805582
 51
112.2009726212432952
  0
LINE
  5
19076
  8
0
 10
5262.87915580032859
 20
477.6945424670046805
 30
0.0
 11
5262.8716428273382917
 21
477.6914763307423755
 31
0.0
  0
LINE
  5
19077
  8
0
 10
5262.8667094086486031
 20
477.6849047354256754
 30
0.0
 11
5262.8631641410192969
 21
477.6511366286625275
 31
0.0
  0
ARC
  5
19078
  8
0
 10
5262.8746656793691727
 20
477.684069417376918
 30
0.0
 40
0.008
 50
112.2009726212432952
 51
174.0065507879915003
  0
ARC
  5
19079
  8
0
 10
5263.0065925251001318
 20
477.7391099798674077
 30
0.0
 40
0.008
 50
246.0115305185892964
 51
312.7351355099789885
  0
ARC
  5
1907A
  8
0
 10
5262.9524763787239863
 20
477.6972071065118826
 30
0.0
 40
0.008
 50
302.7670831168230166
 51
9.658724701025859
  0
LINE
  5
1907B
  8
0
 10
5263.0033401027958462
 20
477.7318009615228789
 30
0.0
 11
5262.9722124057161636
 21
477.7456523997688009
 31
0.0
  0
ARC
  5
1907C
  8
0
 10
5262.9689599834127876
 20
477.7383433814242721
 30
0.0
 40
0.008
 50
66.0115305186409245
 51
127.8531465342926055
  0
LINE
  5
1907D
  8
0
 10
5262.964050865624813
 20
477.7446600706321078
 30
0.0
 11
5262.9576437277155492
 21
477.7396806591648897
 31
0.0
  0
LINE
  5
1907E
  8
0
 10
5262.9546662487728099
 20
477.7320217359962271
 30
0.0
 11
5262.9603629754547001
 21
477.69854934047288
 31
0.0
  0
ARC
  5
1907F
  8
0
 10
5262.9625528455044332
 20
477.7333639699571108
 30
0.0
 40
0.008
 50
127.8531465342926055
 51
189.658724701032213
  0
ARC
  5
19080
  8
0
 10
5263.0747377198822505
 20
477.8219569160917217
 30
0.0
 40
0.008
 50
261.6637044316394736
 51
328.3873094230337983
  0
ARC
  5
19081
  8
0
 10
5263.0339336069437195
 20
477.7670075533882823
 30
0.0
 40
0.008
 50
318.4192570298753253
 51
25.3108986140732384
  0
LINE
  5
19082
  8
0
 10
5263.0735778557691447
 20
477.8140414429382758
 30
0.0
 11
5263.0398673848194449
 21
477.8189810801138719
 31
0.0
  0
ARC
  5
19083
  8
0
 10
5263.038707520708158
 20
477.8110656069605966
 30
0.0
 40
0.008
 50
81.6637044316399567
 51
143.505320447336203
  0
LINE
  5
19084
  8
0
 10
5263.032276223972076
 20
477.8158235920691936
 30
0.0
 11
5263.0274501092526407
 21
477.8093002055665011
 31
0.0
  0
LINE
  5
19085
  8
0
 10
5263.0266493960471053
 20
477.801121981839799
 30
0.0
 11
5263.0411656168853369
 21
477.7704277920062736
 31
0.0
  0
ARC
  5
19086
  8
0
 10
5263.0338814059887227
 20
477.8045422204577903
 30
0.0
 40
0.008
 50
143.505320447338903
 51
205.3108986140761942
  0
ARC
  5
19087
  8
0
 10
5263.1180040700919562
 20
477.9201170167075929
 30
0.0
 40
0.008
 50
277.3158783446896223
 51
344.0394833360755911
  0
ARC
  5
19088
  8
0
 10
5263.0935382449843019
 20
477.8561965075112994
 30
0.0
 40
0.008
 50
334.0714309429130822
 51
40.963072527117248
  0
LINE
  5
19089
  8
0
 10
5263.1190227859860897
 20
477.9121821431781996
 30
0.0
 11
5263.0852296925831979
 21
477.9078436289914862
 31
0.0
  0
ARC
  5
1908A
  8
0
 10
5263.0862484084791504
 20
477.8999087554620928
 30
0.0
 40
0.008
 50
97.3158783446900486
 51
159.1574943603800989
  0
LINE
  5
1908B
  8
0
 10
5263.0787719126528827
 20
477.9027551584824778
 30
0.0
 11
5263.0758847519728079
 21
477.8951716066786162
 31
0.0
  0
LINE
  5
1908C
  8
0
 10
5263.0773201897409308
 20
477.8870806238348905
 30
0.0
 11
5263.0995793030442655
 21
477.8614410873346969
 31
0.0
  0
ARC
  5
1908D
  8
0
 10
5263.083361247799985
 20
477.892325203658288
 30
0.0
 40
0.008
 50
159.1574943603800989
 51
220.9630725271221081
  0
ARC
  5
1908E
  8
0
 10
5263.1331827084668475
 20
478.0263101961048733
 30
0.0
 40
0.008
 50
292.9680522577157831
 51
359.6916572491202828
  0
ARC
  5
1908F
  8
0
 10
5263.1268696895140238
 20
477.9581592321661105
 30
0.0
 40
0.008
 50
349.7236048559441883
 51
56.6152464401562483
  0
LINE
  5
19090
  8
0
 10
5263.1363044508698295
 20
478.0189444154697185
 30
0.0
 11
5263.1049350141593095
 21
478.0056495176705198
 31
0.0
  0
ARC
  5
19091
  8
0
 10
5263.1080567565632009
 20
477.9982837370353081
 30
0.0
 40
0.008
 50
112.9680522577675958
 51
174.8096682734303897
  0
LINE
  5
19092
  8
0
 10
5263.1000895591387234
 20
477.9990074532767039
 30
0.0
 11
5263.0993554800006677
 21
477.9909261735165273
 31
0.0
  0
LINE
  5
19093
  8
0
 10
5263.1029206088887804
 20
477.9835225027393903
 30
0.0
 11
5263.1312717580512981
 21
477.9648391867016244
 31
0.0
  0
ARC
  5
19094
  8
0
 10
5263.1073226774251452
 20
477.9902024572750179
 30
0.0
 40
0.008
 50
174.8096682734336866
 51
236.6152464401561986
  0
ARC
  5
19095
  8
0
 10
5263.1191479048366091
 20
478.132660591969227
 30
0.0
 40
0.008
 50
308.6202261707650791
 51
15.3438311621603898
  0
ARC
  5
19096
  8
0
 10
5263.1314558997728454
 20
478.0653336185133071
 30
0.0
 40
0.008
 50
5.3757787689900436
 51
72.267420353197835
  0
LINE
  5
19097
  8
0
 10
5263.1241411483961201
 20
478.1264101904815789
 30
0.0
 11
5263.0975218959920312
 21
478.105144930819506
 31
0.0
  0
ARC
  5
19098
  8
0
 10
5263.1025151395524517
 20
478.0988945293319148
 30
0.0
 40
0.008
 50
128.6202261707753109
 51
190.4618421864695961
  0
LINE
  5
19099
  8
0
 10
5263.0946481311138996
 20
478.0974418840717135
 30
0.0
 11
5263.0961215768084003
 21
478.0894622279055852
 31
0.0
  0
LINE
  5
1909A
  8
0
 10
5263.1015519875163591
 20
478.0832949655871857
 30
0.0
 11
5263.1338924975034388
 21
478.0729535260919079
 31
0.0
  0
ARC
  5
1909B
  8
0
 10
5263.1039885852451334
 20
478.0909148731659002
 30
0.0
 40
0.008
 50
190.4618421864695961
 51
252.2674203531977923
  0
ARC
  5
1909C
  8
0
 10
5263.0769405563805776
 20
478.2312806819600155
 30
0.0
 40
0.008
 50
324.2724000838077245
 51
30.9960050751972496
  0
ARC
  5
1909D
  8
0
 10
5263.1069567375270708
 20
478.1697710326076844
 30
0.0
 40
0.008
 50
21.0279526820415796
 51
87.9195942662330481
  0
LINE
  5
1909E
  8
0
 10
5263.0834349750639376
 20
478.2266092233045924
 30
0.0
 11
5263.0635401351419205
 21
478.1989507488067943
 31
0.0
  0
ARC
  5
1909F
  8
0
 10
5263.0700345538252805
 20
478.1942792901514849
 30
0.0
 40
0.008
 50
144.2724000838236122
 51
206.114016099525287
  0
LINE
  5
190A0
  8
0
 10
5263.0628511944032653
 20
478.1907580194430238
 30
0.0
 11
5263.0664228862024174
 21
478.1834718014644068
 31
0.0
  0
LINE
  5
190A1
  8
0
 10
5263.0733158300108698
 20
478.1789983452375736
 30
0.0
 11
5263.1072471531433621
 21
478.1777657595430924
 31
0.0
  0
ARC
  5
190A2
  8
0
 10
5263.0736062456262516
 20
478.1869930721729247
 30
0.0
 40
0.008
 50
206.114016099525287
 51
267.9195942662331049
  0
ARC
  5
190A3
  8
0
 10
5263.0096909890498864
 20
478.3148562651596194
 30
0.0
 40
0.008
 50
339.924573996861227
 51
46.6481789882680431
  0
ARC
  5
190A4
  8
0
 10
5263.0551891935665481
 20
478.2637258292155025
 30
0.0
 40
0.008
 50
36.6801265950720179
 51
103.5717681793015004
  0
LINE
  5
190A5
  8
0
 10
5263.0172049215316292
 20
478.3121102100545272
 30
0.0
 11
5263.0055100033578128
 21
478.2801098232451977
 31
0.0
  0
ARC
  5
190A6
  8
0
 10
5263.0130239358395556
 20
478.2773637681401055
 30
0.0
 40
0.008
 50
159.9245739968826001
 51
221.7661900125607133
  0
LINE
  5
190A7
  8
0
 10
5263.0070569823383266
 20
478.2720350285231916
 30
0.0
 11
5263.0124620242022502
 21
478.2659826341871963
 31
0.0
  0
LINE
  5
190A8
  8
0
 10
5263.020306283003265
 20
478.2635347598355224
 30
0.0
 11
5263.0533118882685812
 21
478.2715024431840902
 31
0.0
  0
ARC
  5
190A9
  8
0
 10
5263.0184289777052982
 20
478.2713113738042807
 30
0.0
 40
0.008
 50
221.7661900125631007
 51
283.5717681793015004
  0
ARC
  5
190AA
  8
0
 10
5262.922386795604325
 20
478.3771889228947884
 30
0.0
 40
0.008
 50
355.5767479098968238
 51
62.3003529012829205
  0
ARC
  5
190AB
  8
0
 10
5262.9799926298019273
 20
478.340229810886683
 30
0.0
 40
0.008
 50
52.3323005081272683
 51
119.2239420923519049
  0
LINE
  5
190AC
  8
0
 10
5262.9303629678888683
 20
478.3765719336847155
 30
0.0
 11
5262.9277353300412869
 21
478.3426029568616968
 31
0.0
  0
ARC
  5
190AD
  8
0
 10
5262.9357115023258302
 20
478.3419859676516239
 30
0.0
 40
0.008
 50
175.5767479099228012
 51
237.4183639255988965
  0
LINE
  5
190AE
  8
0
 10
5262.9314034963890663
 20
478.3352449673661795
 30
0.0
 11
5262.9382410210873786
 21
478.3308752750730264
 31
0.0
  0
LINE
  5
190AF
  8
0
 10
5262.9464548220876168
 20
478.3306345302387967
 30
0.0
 11
5262.976086834738453
 21
478.3472115560063003
 31
0.0
  0
ARC
  5
190B0
  8
0
 10
5262.9425490270241426
 20
478.337616275358414
 30
0.0
 40
0.008
 50
237.4183639255988965
 51
299.2239420923535249
  0
ARC
  5
190B1
  8
0
 10
5262.8215029286839126
 20
478.4136557270945218
 30
0.0
 40
0.008
 50
11.2289218229381405
 51
77.9525268143578245
  0
ARC
  5
190B2
  8
0
 10
5262.8869440313701489
 20
478.3936090272832189
 30
0.0
 40
0.008
 50
67.9844744211765146
 51
134.8761160053952892
  0
LINE
  5
190B3
  8
0
 10
5262.8293497845597813
 20
478.4152135630465068
 30
0.0
 11
5262.8359843069174531
 21
478.3817953198230271
 31
0.0
  0
ARC
  5
190B4
  8
0
 10
5262.8438311627942312
 20
478.3833531557751257
 30
0.0
 40
0.008
 50
191.2289218229637129
 51
253.0705378386311963
  0
LINE
  5
190B5
  8
0
 10
5262.8415016095150349
 20
478.3756998439744166
 30
0.0
 11
5262.8492645091218947
 21
478.373336933811288
 31
0.0
  0
LINE
  5
190B6
  8
0
 10
5262.857238672279891
 20
478.3753211734376123
 30
0.0
 11
5262.8812994214913488
 21
478.3992780994577174
 31
0.0
  0
ARC
  5
190B7
  8
0
 10
5262.8515940624010909
 20
478.3809902456119971
 30
0.0
 40
0.008
 50
253.0705378386311963
 51
314.8761160053975914
  0
ARC
  5
190B8
  8
0
 10
5262.7145214831825797
 20
478.4215521017155197
 30
0.0
 40
0.008
 50
26.8810957359905203
 51
93.6047007273903091
  0
ARC
  5
190B9
  8
0
 10
5262.7829443871441981
 20
478.4199045861187187
 30
0.0
 40
0.008
 50
83.6366483341910936
 51
150.5282899184198016
  0
LINE
  5
190BA
  8
0
 10
5262.7216570572481942
 20
478.4251692252638009
 30
0.0
 11
5262.7370616876396525
 21
478.3947801938613225
 31
0.0
  0
ARC
  5
190BB
  8
0
 10
5262.7441972617043575
 20
478.3983973174096036
 30
0.0
 40
0.008
 50
206.8810957360109057
 51
268.7227117517019224
  0
LINE
  5
190BC
  8
0
 10
5262.7440189333929084
 20
478.3903993052184092
 30
0.0
 11
5262.7521314691566658
 21
478.3902184234225956
 31
0.0
  0
LINE
  5
190BD
  8
0
 10
5262.7592745872689193
 20
478.3942804855336135
 30
0.0
 11
5262.7759795973443033
 21
478.423840536199009
 31
0.0
  0
ARC
  5
190BE
  8
0
 10
5262.752309797468115
 20
478.3982164356139037
 30
0.0
 40
0.008
 50
268.7227117517019224
 51
330.5282899184226721
  0
LINE
  5
190C0
  8
0
 10
5261.8592870099573702
 20
478.5594300041743736
 30
0.0
 11
5258.3267892415560709
 21
478.5594300041743736
 31
0.0
  0
LINE
  5
190C1
  8
0
 10
5261.8592870099573702
 20
477.6794300041743782
 30
0.0
 11
5258.326789241545157
 21
477.6794300041743782
 31
0.0
  0
LINE
  5
190C2
  8
0
 10
5262.299287009955151
 20
477.2394300041743236
 30
0.0
 11
5262.299287009955151
 21
475.9394800354634185
 31
0.0
  0
ARC
  5
190C3
  8
0
 10
5261.8592870099573702
 20
477.2394300041743236
 30
0.0
 40
0.4400000000000001
 50
0.0
 51
90.0
  0
LINE
  5
190C4
  8
0
 10
5263.1792870099561696
 20
477.2394300041743236
 30
0.0
 11
5263.1792870099561696
 21
475.9394800354634754
 31
0.0
  0
ARC
  5
190C5
  8
0
 10
5261.8592870099573702
 20
477.2394300041743236
 30
0.0
 40
1.3200000000000001
 50
0.0
 51
13.7812900675968493
  0
ARC
  5
190C6
  8
0
 10
5261.8592870099573702
 20
477.2394300041743236
 30
0.0
 40
1.3200000000000001
 50
59.2591626835629413
 51
90.0
  0
LINE
  5
190C7
  8
0
 10
5257.008598255666584
 20
477.3085134661606048
 30
0.0
 11
5256.9894133742527629
 21
476.9424441202227172
 31
0.0
  0
LINE
  5
190C8
  8
0
 10
5257.8873922462526025
 20
477.262457824923672
 30
0.0
 11
5257.8682073647587458
 21
476.8963884788151972
 31
0.0
  0
ARC
  5
190C9
  8
0
 10
5258.3267892415560709
 20
477.2394300041743236
 30
0.0
 40
1.3200000000000001
 50
90.0
 51
177.0000000110593135
  0
ARC
  5
190CA
  8
0
 10
5258.326789241545157
 20
477.2394300041743236
 30
0.0
 40
0.4400000000000001
 50
90.0
 51
176.9999999996784084
  0
LINE
  5
190CB
  8
0
 10
5256.998876310040032
 20
476.9319344653146118
 30
0.0
 11
5257.8576977098491625
 21
476.8869255430300882
 31
0.0
  0
ARC
  5
190CC
  8
0
 10
5256.9993996696011891
 20
476.9419207606620716
 30
0.0
 40
0.01
 50
177.0000000110626104
 51
267.0000000053170197
  0
ARC
  5
190CD
  8
0
 10
5257.8582210694121386
 20
476.8969118383777186
 30
0.0
 40
0.01
 50
267.0000000053690883
 51
356.9999999996686029
  0
ENDSEC
  0
EOF
