  0
SECTION
  2
HEADER
  9
$ACADVER
  1
AC1009
  9
$INSBASE
 10
4653.8803263487397999
 20
330.8356098296242749
 30
0.0
  9
$EXTMIN
 10
4652.6174687059792632
 20
329.9282604165268253
 30
-0.0015258207003583
  9
$EXTMAX
 10
4659.3662556531462542
 20
331.7491938325619003
 30
0.0000000349246037
  9
$LIMMIN
 10
0.0
 20
0.0
  9
$LIMMAX
 10
11.6929133858000007
 20
8.2677165353999982
  9
$ORTHOMODE
 70
     1
  9
$REGENMODE
 70
     1
  9
$FILLMODE
 70
     1
  9
$QTEXTMODE
 70
     0
  9
$MIRRTEXT
 70
     0
  9
$DRAGMODE
 70
     2
  9
$LTSCALE
 40
0.6431102362
  9
$OSMODE
 70
     7
  9
$ATTMODE
 70
     1
  9
$TEXTSIZE
 40
0.2
  9
$TRACEWID
 40
0.05
  9
$TEXTSTYLE
  7
STANDARD
  9
$CLAYER
  8
0
  9
$CELTYPE
  6
BYLAYER
  9
$CECOLOR
 62
   256
  9
$DIMSCALE
 40
1.0
  9
$DIMASZ
 40
0.1875
  9
$DIMEXO
 40
0.0625
  9
$DIMDLI
 40
0.4443307087
  9
$DIMRND
 40
0.0
  9
$DIMDLE
 40
0.0
  9
$DIMEXE
 40
0.125
  9
$DIMTP
 40
0.01
  9
$DIMTM
 40
0.01
  9
$DIMTXT
 40
2.0
  9
$DIMCEN
 40
0.1052362205
  9
$DIMTSZ
 40
0.0
  9
$DIMTOL
 70
     1
  9
$DIMLIM
 70
     0
  9
$DIMTIH
 70
     1
  9
$DIMTOH
 70
     1
  9
$DIMSE1
 70
     0
  9
$DIMSE2
 70
     0
  9
$DIMTAD
 70
     0
  9
$DIMZIN
 70
     0
  9
$DIMBLK
  1

  9
$DIMASO
 70
     1
  9
$DIMSHO
 70
     1
  9
$DIMPOST
  1
\X
  9
$DIMAPOST
  1

  9
$DIMALT
 70
     1
  9
$DIMALTD
 70
     2
  9
$DIMALTF
 40
25.3999999999999986
  9
$DIMLFAC
 40
1.0
  9
$DIMTOFL
 70
     0
  9
$DIMTVP
 40
0.0
  9
$DIMTIX
 70
     0
  9
$DIMSOXD
 70
     0
  9
$DIMSAH
 70
     0
  9
$DIMBLK1
  1

  9
$DIMBLK2
  1

  9
$DIMSTYLE
  2
STANDARD
  9
$DIMCLRD
 70
     0
  9
$DIMCLRE
 70
     0
  9
$DIMCLRT
 70
     0
  9
$DIMTFAC
 40
1.0
  9
$DIMGAP
 40
0.09
  9
$LUNITS
 70
     2
  9
$LUPREC
 70
     4
  9
$SKETCHINC
 40
0.1
  9
$FILLETRAD
 40
0.0
  9
$AUNITS
 70
     0
  9
$AUPREC
 70
     0
  9
$MENU
  1
.
  9
$ELEVATION
 40
0.0
  9
$PELEVATION
 40
0.0
  9
$THICKNESS
 40
0.0
  9
$LIMCHECK
 70
     0
  9
$BLIPMODE
 70
     0
  9
$CHAMFERA
 40
0.0
  9
$CHAMFERB
 40
0.0
  9
$SKPOLY
 70
     0
  9
$TDCREATE
 40
2458060.468368056230247
  9
$TDUPDATE
 40
2459580.0431944448500872
  9
$TDINDWG
 40
0.7009445602
  9
$TDUSRTIMER
 40
0.7009445602
  9
$USRTIMER
 70
     1
  9
$ANGBASE
 50
0.0
  9
$ANGDIR
 70
     0
  9
$PDMODE
 70
     0
  9
$PDSIZE
 40
0.3125
  9
$PLINEWID
 40
0.0
  9
$COORDS
 70
     1
  9
$SPLFRAME
 70
     0
  9
$SPLINETYPE
 70
     6
  9
$SPLINESEGS
 70
     8
  9
$ATTDIA
 70
     1
  9
$ATTREQ
 70
     1
  9
$HANDLING
 70
     1
  9
$HANDSEED
  5
234B0
  9
$SURFTAB1
 70
     6
  9
$SURFTAB2
 70
     6
  9
$SURFTYPE
 70
     6
  9
$SURFU
 70
     6
  9
$SURFV
 70
     6
  9
$UCSNAME
  2

  9
$UCSORG
 10
0.0
 20
0.0
 30
0.0
  9
$UCSXDIR
 10
1.0
 20
0.0
 30
0.0
  9
$UCSYDIR
 10
0.0
 20
1.0
 30
0.0
  9
$PUCSNAME
  2

  9
$PUCSORG
 10
0.0
 20
0.0
 30
0.0
  9
$PUCSXDIR
 10
1.0
 20
0.0
 30
0.0
  9
$PUCSYDIR
 10
0.0
 20
1.0
 30
0.0
  9
$USERI1
 70
     0
  9
$USERI2
 70
     0
  9
$USERI3
 70
     0
  9
$USERI4
 70
     0
  9
$USERI5
 70
     0
  9
$USERR1
 40
0.0
  9
$USERR2
 40
0.0
  9
$USERR3
 40
0.0
  9
$USERR4
 40
0.0
  9
$USERR5
 40
0.0
  9
$WORLDVIEW
 70
     1
  9
$SHADEDGE
 70
     3
  9
$SHADEDIF
 70
    70
  9
$TILEMODE
 70
     1
  9
$MAXACTVP
 70
    64
  9
$PLIMCHECK
 70
     0
  9
$PEXTMIN
 10
1.0000000000000000E+20
 20
1.0000000000000000E+20
 30
1.0000000000000000E+20
  9
$PEXTMAX
 10
-1.0000000000000000E+20
 20
-1.0000000000000000E+20
 30
-1.0000000000000000E+20
  9
$PLIMMIN
 10
0.0
 20
0.0
  9
$PLIMMAX
 10
12.0
 20
9.0
  9
$UNITMODE
 70
     0
  9
$VISRETAIN
 70
     1
  9
$PLINEGEN
 70
     0
  9
$PSLTSCALE
 70
     1
  0
ENDSEC
  0
SECTION
  2
TABLES
  0
TABLE
  2
VPORT
 70
     1
  0
VPORT
  2
*ACTIVE
 70
     0
 10
0.0
 20
0.0
 11
1.0
 21
1.0
 12
744.6265057342498039
 22
198.2591220220053003
 13
0.0
 23
0.0
 14
1.0
 24
1.0
 15
0.0
 25
0.0
 16
0.0
 26
0.0
 36
60.4960186965801583
 17
3911.3653564453120453
 27
132.5796051025390057
 37
0.0
 40
2.9651747469752041
 41
2.2831541218637992
 42
50.0
 43
0.0
 44
0.0
 50
0.0
 51
0.0
 71
     0
 72
   100
 73
     1
 74
     1
 75
     0
 76
     0
 77
     0
 78
     0
  0
ENDTAB
  0
TABLE
  2
LTYPE
 70
     2
  0
LTYPE
  2
CONTINUOUS
 70
     0
  3
Solid line
 72
    65
 73
     0
 40
0.0
  0
LTYPE
  2
PHANTOM2
 70
     0
  3
___ _ _ ___ _ _ ___ _ _ ___ _ _
 72
    65
 73
     6
 40
1.25
 49
0.625
 49
-0.125
 49
0.125
 49
-0.125
 49
0.125
 49
-0.125
  0
ENDTAB
  0
TABLE
  2
LAYER
 70
     2
  0
LAYER
  2
0
 70
     0
 62
   255
  6
CONTINUOUS
  0
LAYER
  2
DEFPOINTS
 70
     0
 62
     7
  6
CONTINUOUS
  0
ENDTAB
  0
TABLE
  2
STYLE
 70
     1
  0
STYLE
  2
STANDARD
 70
     0
 40
0.0
 41
0.8
 50
0.0
 71
     0
 42
0.2
  3
txt
  4

  0
ENDTAB
  0
TABLE
  2
VIEW
 70
     0
  0
ENDTAB
  0
TABLE
  2
UCS
 70
     0
  0
ENDTAB
  0
TABLE
  2
APPID
 70
    11
  0
APPID
  2
ACAD
 70
     0
  0
APPID
  2
ACAD_MLEADERVER
 70
     0
  0
APPID
  2
ACAD_EXEMPT_FROM_CAD_STANDARDS
 70
     0
  0
APPID
  2
ACAD_NAV_VCDISPLAY
 70
     0
  0
APPID
  2
ACAECLAYERSTANDARD
 70
     0
  0
APPID
  2
ACCMTRANSPARENCY
 70
     0
  0
APPID
  2
ACAD_DSTYLE_DIMJAG
 70
     0
  0
APPID
  2
ACAD_DSTYLE_DIMTALN
 70
     0
  0
APPID
  2
ACDBATTR
 70
     0
  0
APPID
  2
ACADANNOTATIVE
 70
     0
  0
APPID
  2
DCO15
 70
     0
  0
ENDTAB
  0
TABLE
  2
DIMSTYLE
 70
     1
  0
DIMSTYLE
  2
STANDARD
 70
     0
  3

  4

  5

  6

  7

 40
1.0
 41
0.1875
 42
0.0625
 43
0.38
 44
0.125
 45
0.0
 46
0.0
 47
0.01
 48
0.01
140
0.15625
141
0.09
142
0.0
143
25.3999999999999986
144
1.0
145
0.0
146
1.0
147
0.09
 71
     1
 72
     0
 73
     1
 74
     1
 75
     0
 76
     0
 77
     0
 78
     4
170
     0
171
     2
172
     0
173
     0
174
     0
175
     0
176
     0
177
     0
178
     0
  0
ENDTAB
  0
ENDSEC
  0
SECTION
  2
BLOCKS
  0
BLOCK
  8
0
  2
$MODEL_SPACE
 70
     0
 10
0.0
 20
0.0
 30
0.0
  3
$MODEL_SPACE
  1

  0
ENDBLK
  5
21
  8
0
  0
BLOCK
 67
     1
  8
0
  2
$PAPER_SPACE
 70
     0
 10
0.0
 20
0.0
 30
0.0
  3
$PAPER_SPACE
  1

  0
ENDBLK
  5
1D
 67
     1
  8
0
  0
ENDSEC
  0
SECTION
  2
ENTITIES
  0
ATTDEF
  5
211C4
  8
DEFPOINTS
 10
4653.8803620887229044
 20
330.8389805434002824
 30
0.0
 40
0.001
  1
P34708-00
  3

  2
MODELNUMBER
 70
     0
1001
ACDBATTR
1070
     0
1070
     1
  0
ATTDEF
  5
211C5
  8
DEFPOINTS
 10
4653.8803620887229044
 20
330.8373137030212092
 30
0.0
 40
0.001
  1
PER SE
  3

  2
TRADENAME
 70
     0
1001
ACDBATTR
1070
     0
1070
     1
  0
ATTDEF
  5
211C6
  8
DEFPOINTS
 10
4653.8803620887229044
 20
330.8356472100670089
 30
0.0
 40
0.001
  1
TOILET TISSUE HOLDER
  3

  2
PRODUCT
 70
     0
1001
ACDBATTR
1070
     0
1070
     1
  0
ARC
  5
233E5
  8
0
 10
4653.8803263487889126
 20
339.0680821989120091
 30
0.0
 40
9.135969825787706
 50
264.7157187528973736
 51
266.7282589414522249
  0
ARC
  5
233E6
  8
0
 10
4653.073002685562642
 20
330.3393620957863277
 30
0.0
 40
0.3699943446496517
 50
186.967435293737708
 51
264.7157187528973736
  0
ARC
  5
233E7
  8
0
 10
4657.1337440820016127
 20
330.8356098296242749
 30
0.0
 40
4.4609456401412624
 50
173.0326413942676993
 51
186.9673586057323007
  0
ARC
  5
233E8
  8
0
 10
4653.1398836234593546
 20
330.3840501737237787
 30
0.0
 40
0.3234809343563868
 50
184.6694065069081887
 51
266.547900339264686
  0
ARC
  5
233E9
  8
0
 10
4658.5591872404793321
 20
330.8356098296242749
 30
0.0
 40
5.7615645466026457
 50
175.2421344937185097
 51
184.7578655062814903
  0
ARC
  5
233EA
  8
0
 10
4653.5751947328517417
 20
330.5819544989723795
 30
0.0
 40
0.1653722028954362
 50
185.9897603882670012
 51
260.1368349215115927
  0
ARC
  5
233EB
  8
0
 10
4656.0315580923179368
 20
330.8356098296242749
 30
0.0
 40
2.6347974294580552
 50
174.0983706885103004
 51
185.9016293114896996
  0
ARC
  5
233EC
  8
0
 10
4653.8803263487397999
 20
332.5524217307661843
 30
0.0
 40
2.159298496532986
 50
261.1162951745553755
 51
278.8837048254446245
  0
ARC
  5
233ED
  8
0
 10
4653.8803263487397999
 20
342.1113703556719088
 30
0.0
 40
12.0741517659590407
 50
266.3915434129455093
 51
273.6084565870544907
  0
ARC
  5
233EE
  8
0
 10
4653.8803263487397999
 20
339.067971763203218
 30
0.0
 40
9.1358595700789529
 50
266.7282194139124272
 51
273.271780586087516
  0
ARC
  5
233EF
  8
0
 10
4653.2778218806270161
 20
329.3131068664990835
 30
0.0
 40
0.6498818364580786
 50
80.676661311451312
 51
91.5010513120344342
  0
ARC
  5
233F0
  8
0
 10
4653.449765522495909
 20
332.0282314029839199
 30
0.0
 40
2.082475048441863
 50
264.6964645817805035
 51
267.716951403373514
  0
ARC
  5
233F1
  8
0
 10
4653.3808306654864282
 20
330.2991461035312
 30
0.0
 40
0.3520161534390734
 50
267.716951403373514
 51
271.8955174250078812
  0
ARC
  5
233F2
  8
0
 10
4653.3917608575584381
 20
329.9688798793170008
 30
0.0
 40
0.021569110850666
 50
271.8955174250078812
 51
293.3967060410158751
  0
ARC
  5
233F3
  8
0
 10
4653.3624716889808042
 20
329.8354214490104823
 30
0.0
 40
0.1207582582585487
 50
74.0062963260850637
 51
80.161184773627113
  0
ARC
  5
233F4
  8
0
 10
4653.392271341018386
 20
329.9393883046864175
 30
0.0
 40
0.0126050043055106
 50
50.2832535216520284
 51
74.0062963260850637
  0
ARC
  5
233F5
  8
0
 10
4653.2638123651031492
 20
329.841565941171325
 30
0.0
 40
0.1212372297537223
 50
91.4246950697531986
 51
100.5345082205636942
  0
ARC
  5
233F6
  8
0
 10
4653.2427565572634194
 20
329.9547922894284966
 30
0.0
 40
0.0060697300700706
 50
100.5345082205636942
 51
131.8218249710758982
  0
ARC
  5
233F7
  8
0
 10
4653.2422627560335968
 20
329.9612103110026737
 30
0.0
 40
0.004027159597649
 50
208.0658914867202895
 51
261.2071220960178266
  0
ARC
  5
233F8
  8
0
 10
4653.2715742742639122
 20
330.09101174109162
 30
0.0
 40
0.1370877754097448
 50
257.3904280357966741
 51
264.0140490127583917
  0
ARC
  5
233F9
  8
0
 10
4653.8803263486897777
 20
339.0680821989120091
 30
0.0
 40
9.135969825787706
 50
273.2717410585478888
 51
275.2842812471026264
  0
ARC
  5
233FA
  8
0
 10
4654.6876500119151387
 20
330.3393620957863277
 30
0.0
 40
0.3699943446496517
 50
275.2842812471026264
 51
353.032564706262292
  0
ARC
  5
233FB
  8
0
 10
4650.6269086154770775
 20
330.8356098296242749
 30
0.0
 40
4.4609456401412624
 50
353.0326413942677277
 51
355.1421587646942157
  0
ARC
  5
233FC
  8
0
 10
4650.6269086154770775
 20
330.8356098296242749
 30
0.0
 40
4.4609456401412624
 50
4.857841235305778
 51
6.9673586057322758
  0
ARC
  5
233FD
  8
0
 10
4654.6207690740202452
 20
330.3840501737237787
 30
0.0
 40
0.3234809343563868
 50
273.4520996607352004
 51
355.3305934930917829
  0
ARC
  5
233FE
  8
0
 10
4649.2014654570002676
 20
330.8356098296242749
 30
0.0
 40
5.7615645466026457
 50
355.2421344937184244
 51
356.2405783767948151
  0
ARC
  5
233FF
  8
0
 10
4649.2014654570002676
 20
330.8356098296242749
 30
0.0
 40
5.7615645466026457
 50
3.7594216232051498
 51
4.7578655062815276
  0
ARC
  5
23400
  8
0
 10
4654.1854579646269485
 20
330.5819544989723795
 30
0.0
 40
0.1653722028954362
 50
279.8631650784884073
 51
312.4005247388843145
  0
ARC
  5
23401
  8
0
 10
4654.4828308168507647
 20
329.3131068664990835
 30
0.0
 40
0.6498818364580786
 50
88.4989486879655942
 51
99.3233386885486738
  0
ARC
  5
23402
  8
0
 10
4654.3108871749827813
 20
332.0282314029839199
 30
0.0
 40
2.082475048441863
 50
272.283048596626486
 51
275.3035354182194965
  0
ARC
  5
23403
  8
0
 10
4654.3798220319922621
 20
330.2991461035312
 30
0.0
 40
0.3520161534390734
 50
268.1044825749921188
 51
272.283048596626486
  0
ARC
  5
23404
  8
0
 10
4654.3688918399211616
 20
329.9688798793170008
 30
0.0
 40
0.021569110850666
 50
246.6032939589840964
 51
268.1044825749921188
  0
ARC
  5
23405
  8
0
 10
4654.3981810084978861
 20
329.8354214490104823
 30
0.0
 40
0.1207582582585487
 50
99.8388152263729012
 51
105.9937036739148937
  0
ARC
  5
23406
  8
0
 10
4654.3683813564612137
 20
329.9393883046864175
 30
0.0
 40
0.0126050043055106
 50
105.9937036739148937
 51
129.7167464783478863
  0
ARC
  5
23407
  8
0
 10
4654.4968403323764505
 20
329.841565941171325
 30
0.0
 40
0.1212372297537223
 50
79.46549177943632
 51
88.5753049302467872
  0
ARC
  5
23408
  8
0
 10
4654.5178961402152709
 20
329.9547922894284966
 30
0.0
 40
0.0060697300700706
 50
48.1781750289241018
 51
79.46549177943632
  0
ARC
  5
23409
  8
0
 10
4654.5183899414432744
 20
329.9612103110026737
 30
0.0
 40
0.004027159597649
 50
278.7928779039821734
 51
331.934108513279682
  0
ARC
  5
2340A
  8
0
 10
4654.489078423212959
 20
330.09101174109162
 30
0.0
 40
0.1370877754097448
 50
275.985950987241722
 51
282.6095719642033259
  0
ARC
  5
2340C
  8
0
 10
4654.4307801263130386
 20
354.3979166860532928
 30
0.0
 40
23.9384551383950495
 50
269.6797287880872886
 51
270.0806782463582749
  0
ARC
  5
2340D
  8
0
 10
4654.2031082800813238
 20
193.2697959394801899
 30
0.0
 40
137.1899383356494013
 50
89.6989156676566068
 51
89.8908377896320019
  0
LINE
  5
2340E
  8
0
 10
4654.9240261423947231
 20
330.4578400904742921
 30
0.0
 11
4658.7224761203833623
 21
330.4578400904742921
 31
0.0
  0
LINE
  5
2340F
  8
0
 10
4659.3052237634892663
 20
331.68508115143959
 30
0.0
 11
4659.3052237634892663
 21
331.6590733391786898
 31
0.0
  0
LINE
  5
23410
  8
0
 10
4659.2456572918890743
 20
331.7406098296743266
 30
0.0
 11
4659.0995947933888601
 21
331.7406098296743266
 31
0.0
  0
ARC
  5
23411
  8
0
 10
4659.2451150901915753
 20
331.6803149249308831
 30
0.0
 40
0.0602973425674343
 50
4.5336964134320459
 51
89.4847818121039893
  0
ARC
  5
23412
  8
0
 10
4659.0996318268680625
 20
331.6805709910378255
 30
0.0
 40
0.0600388500580654
 50
90.0353414859361436
 51
178.8390415178203909
  0
ARC
  5
23413
  8
0
 10
4655.3266639347493765
 20
331.7480797921477915
 30
0.0
 40
3.7135331246351271
 50
356.7660365963743061
 51
358.9771268546734859
  0
ARC
  5
23414
  8
0
 10
4657.7909637383481822
 20
331.6058330758334023
 30
0.0
 40
1.2451367232895301
 50
350.618807290207485
 51
356.9041202965336197
  0
ARC
  5
23415
  8
0
 10
4658.7404266408811964
 20
331.448970696088395
 30
0.0
 40
0.2828033042159874
 50
334.2959766901929015
 51
350.618807290207485
  0
ARC
  5
23416
  8
0
 10
4658.8411599886103431
 20
331.4004822976045261
 30
0.0
 40
0.1710073645215908
 50
292.8628755586315151
 51
334.2959766901929015
  0
ARC
  5
23417
  8
0
 10
4658.7644991989973278
 20
331.6245611133600733
 30
0.0
 40
0.4075977146880647
 50
275.7148897860607235
 51
290.5537414034067183
  0
ARC
  5
23418
  8
0
 10
4658.65932298136795
 20
332.9733247892709755
 30
0.0
 40
1.7603807226928541
 50
271.274495940920076
 51
274.7496782426023856
  0
LINE
  5
23419
  8
0
 10
4654.9240261423947231
 20
331.2133795687743145
 30
0.0
 11
4658.698477925874613
 21
331.2133795687743145
 31
0.0
  0
ARC
  5
2341A
  8
0
 10
4653.6181136761560992
 20
331.6990378316477859
 30
0.0
 40
5.6872505049548661
 50
358.1104810973159829
 51
359.5973773984468949
  0
ARC
  5
2341B
  8
0
 10
4655.1930911061763254
 20
331.6470788746124185
 30
0.0
 40
4.1114162375621941
 50
355.0259303348524895
 51
358.1104810973159829
  0
ARC
  5
2341C
  8
0
 10
4656.7884957629594282
 20
331.5082265831122754
 30
0.0
 40
2.5099806385629928
 50
345.9866226080179104
 51
355.0259303348524895
  0
ARC
  5
2341D
  8
0
 10
4658.571182213719112
 20
331.0633108099610808
 30
0.0
 40
0.6726126767995306
 50
323.3008537081655049
 51
345.9866226080179104
  0
ARC
  5
2341E
  8
0
 10
4658.6929846381353855
 20
330.9856858846013097
 30
0.0
 40
0.5286690173470892
 50
273.1978705398544207
 51
322.1571499512169225
  0
ARC
  5
2341F
  8
0
 10
4653.8803263487889126
 20
322.6031374603364839
 30
0.0
 40
9.135969825787706
 50
93.2717410585478319
 51
95.2842812471025553
  0
ARC
  5
23420
  8
0
 10
4653.073002685562642
 20
331.3318575634622221
 30
0.0
 40
0.3699943446496517
 50
95.2842812471025553
 51
173.032564706262292
  0
ARC
  5
23421
  8
0
 10
4653.1398836234593546
 20
331.2871694855248279
 30
0.0
 40
0.3234809343563868
 50
93.4520996607352288
 51
175.3305934930918113
  0
ARC
  5
23422
  8
0
 10
4653.5751947328517417
 20
331.0892651602762271
 30
0.0
 40
0.1653722028954362
 50
99.8631650784883931
 51
174.0102396117329988
  0
ARC
  5
23423
  8
0
 10
4653.8803263487397999
 20
329.1187979284824223
 30
0.0
 40
2.159298496532986
 50
81.1162951745554039
 51
98.8837048254446103
  0
ARC
  5
23424
  8
0
 10
4653.8803263487397999
 20
319.5598493035765841
 30
0.0
 40
12.0741517659590407
 50
86.3915434129454667
 51
93.6084565870545191
  0
ARC
  5
23425
  8
0
 10
4653.8803263487397999
 20
322.603247896045275
 30
0.0
 40
9.1358595700789831
 50
86.728219413912484
 51
93.2717805860875302
  0
ARC
  5
23426
  8
0
 10
4653.8803263486897777
 20
322.6031374603364839
 30
0.0
 40
9.135969825787706
 50
84.7157187528974447
 51
86.7282589414521681
  0
ARC
  5
23427
  8
0
 10
4654.6876500119151387
 20
331.3318575634622221
 30
0.0
 40
0.3699943446496517
 50
6.967435293737684
 51
84.7157187528974447
  0
ARC
  5
23428
  8
0
 10
4654.6207690740202452
 20
331.2871694855248279
 30
0.0
 40
0.3234809343563868
 50
4.669406506908226
 51
86.5479003392647712
  0
ARC
  5
23429
  8
0
 10
4654.1854579646269485
 20
331.0892651602762271
 30
0.0
 40
0.1653722028954362
 50
47.5994752611156571
 51
80.1368349215116069
  0
ARC
  5
2342A
  8
0
 10
4654.4307801263130386
 20
307.2733029731953138
 30
0.0
 40
23.9384551383950495
 50
89.9193217536416967
 51
90.3202712119126403
  0
ARC
  5
2342B
  8
0
 10
4654.2031082800813238
 20
468.4014237197682746
 30
0.0
 40
137.1899383356494013
 50
270.1091622103680265
 51
270.3010843323434074
  0
ENDSEC
  0
EOF
