  0
SECTION
  2
HEADER
  9
$ACADVER
  1
AC1009
  9
$INSBASE
 10
4653.4314944763873427
 20
327.5504257782276909
 30
0.0
  9
$EXTMIN
 10
4652.2239665695087751
 20
326.6485830993407262
 30
0.0
  9
$EXTMAX
 10
4654.6390223832659103
 20
328.9011557782777118
 30
0.0
  9
$LIMMIN
 10
0.0
 20
0.0
  9
$LIMMAX
 10
11.6929133858000007
 20
8.2677165353999982
  9
$ORTHOMODE
 70
     1
  9
$REGENMODE
 70
     1
  9
$FILLMODE
 70
     1
  9
$QTEXTMODE
 70
     0
  9
$MIRRTEXT
 70
     0
  9
$DRAGMODE
 70
     2
  9
$LTSCALE
 40
0.6431102362
  9
$OSMODE
 70
     7
  9
$ATTMODE
 70
     1
  9
$TEXTSIZE
 40
0.2
  9
$TRACEWID
 40
0.05
  9
$TEXTSTYLE
  7
STANDARD
  9
$CLAYER
  8
0
  9
$CELTYPE
  6
BYLAYER
  9
$CECOLOR
 62
   256
  9
$DIMSCALE
 40
1.0
  9
$DIMASZ
 40
0.1875
  9
$DIMEXO
 40
0.0625
  9
$DIMDLI
 40
0.4443307087
  9
$DIMRND
 40
0.0
  9
$DIMDLE
 40
0.0
  9
$DIMEXE
 40
0.125
  9
$DIMTP
 40
0.01
  9
$DIMTM
 40
0.01
  9
$DIMTXT
 40
2.0
  9
$DIMCEN
 40
0.1052362205
  9
$DIMTSZ
 40
0.0
  9
$DIMTOL
 70
     1
  9
$DIMLIM
 70
     0
  9
$DIMTIH
 70
     1
  9
$DIMTOH
 70
     1
  9
$DIMSE1
 70
     0
  9
$DIMSE2
 70
     0
  9
$DIMTAD
 70
     0
  9
$DIMZIN
 70
     0
  9
$DIMBLK
  1

  9
$DIMASO
 70
     1
  9
$DIMSHO
 70
     1
  9
$DIMPOST
  1
\X
  9
$DIMAPOST
  1

  9
$DIMALT
 70
     1
  9
$DIMALTD
 70
     2
  9
$DIMALTF
 40
25.3999999999999986
  9
$DIMLFAC
 40
1.0
  9
$DIMTOFL
 70
     0
  9
$DIMTVP
 40
0.0
  9
$DIMTIX
 70
     0
  9
$DIMSOXD
 70
     0
  9
$DIMSAH
 70
     0
  9
$DIMBLK1
  1

  9
$DIMBLK2
  1

  9
$DIMSTYLE
  2
STANDARD
  9
$DIMCLRD
 70
     0
  9
$DIMCLRE
 70
     0
  9
$DIMCLRT
 70
     0
  9
$DIMTFAC
 40
1.0
  9
$DIMGAP
 40
0.09
  9
$LUNITS
 70
     2
  9
$LUPREC
 70
     4
  9
$SKETCHINC
 40
0.1
  9
$FILLETRAD
 40
0.0
  9
$AUNITS
 70
     0
  9
$AUPREC
 70
     0
  9
$MENU
  1
.
  9
$ELEVATION
 40
0.0
  9
$PELEVATION
 40
0.0
  9
$THICKNESS
 40
0.0
  9
$LIMCHECK
 70
     0
  9
$BLIPMODE
 70
     0
  9
$CHAMFERA
 40
0.0
  9
$CHAMFERB
 40
0.0
  9
$SKPOLY
 70
     0
  9
$TDCREATE
 40
2458060.468368056230247
  9
$TDUPDATE
 40
2459579.6397106479853392
  9
$TDINDWG
 40
0.6947640046
  9
$TDUSRTIMER
 40
0.6947640046
  9
$USRTIMER
 70
     1
  9
$ANGBASE
 50
0.0
  9
$ANGDIR
 70
     0
  9
$PDMODE
 70
     0
  9
$PDSIZE
 40
0.3125
  9
$PLINEWID
 40
0.0
  9
$COORDS
 70
     1
  9
$SPLFRAME
 70
     0
  9
$SPLINETYPE
 70
     6
  9
$SPLINESEGS
 70
     8
  9
$ATTDIA
 70
     1
  9
$ATTREQ
 70
     1
  9
$HANDLING
 70
     1
  9
$HANDSEED
  5
230EF
  9
$SURFTAB1
 70
     6
  9
$SURFTAB2
 70
     6
  9
$SURFTYPE
 70
     6
  9
$SURFU
 70
     6
  9
$SURFV
 70
     6
  9
$UCSNAME
  2

  9
$UCSORG
 10
0.0
 20
0.0
 30
0.0
  9
$UCSXDIR
 10
1.0
 20
0.0
 30
0.0
  9
$UCSYDIR
 10
0.0
 20
1.0
 30
0.0
  9
$PUCSNAME
  2

  9
$PUCSORG
 10
0.0
 20
0.0
 30
0.0
  9
$PUCSXDIR
 10
1.0
 20
0.0
 30
0.0
  9
$PUCSYDIR
 10
0.0
 20
1.0
 30
0.0
  9
$USERI1
 70
     0
  9
$USERI2
 70
     0
  9
$USERI3
 70
     0
  9
$USERI4
 70
     0
  9
$USERI5
 70
     0
  9
$USERR1
 40
0.0
  9
$USERR2
 40
0.0
  9
$USERR3
 40
0.0
  9
$USERR4
 40
0.0
  9
$USERR5
 40
0.0
  9
$WORLDVIEW
 70
     1
  9
$SHADEDGE
 70
     3
  9
$SHADEDIF
 70
    70
  9
$TILEMODE
 70
     1
  9
$MAXACTVP
 70
    64
  9
$PLIMCHECK
 70
     0
  9
$PEXTMIN
 10
1.0000000000000000E+20
 20
1.0000000000000000E+20
 30
1.0000000000000000E+20
  9
$PEXTMAX
 10
-1.0000000000000000E+20
 20
-1.0000000000000000E+20
 30
-1.0000000000000000E+20
  9
$PLIMMIN
 10
0.0
 20
0.0
  9
$PLIMMAX
 10
12.0
 20
9.0
  9
$UNITMODE
 70
     0
  9
$VISRETAIN
 70
     1
  9
$PLINEGEN
 70
     0
  9
$PSLTSCALE
 70
     1
  0
ENDSEC
  0
SECTION
  2
TABLES
  0
TABLE
  2
VPORT
 70
     1
  0
VPORT
  2
*ACTIVE
 70
     0
 10
0.0
 20
0.0
 11
1.0
 21
1.0
 12
742.0661380310748427
 22
195.1952643362700996
 13
0.0
 23
0.0
 14
1.0
 24
1.0
 15
0.0
 25
0.0
 16
0.0
 26
0.0
 36
60.4960186965801583
 17
3911.3653564453120453
 27
132.5796051025390057
 37
0.0
 40
2.2687008842754599
 41
2.2831541218637992
 42
50.0
 43
0.0
 44
0.0
 50
0.0
 51
0.0
 71
     0
 72
   100
 73
     1
 74
     1
 75
     0
 76
     0
 77
     0
 78
     0
  0
ENDTAB
  0
TABLE
  2
LTYPE
 70
     2
  0
LTYPE
  2
CONTINUOUS
 70
     0
  3
Solid line
 72
    65
 73
     0
 40
0.0
  0
LTYPE
  2
PHANTOM2
 70
     0
  3
___ _ _ ___ _ _ ___ _ _ ___ _ _
 72
    65
 73
     6
 40
1.25
 49
0.625
 49
-0.125
 49
0.125
 49
-0.125
 49
0.125
 49
-0.125
  0
ENDTAB
  0
TABLE
  2
LAYER
 70
     2
  0
LAYER
  2
0
 70
     0
 62
   255
  6
CONTINUOUS
  0
LAYER
  2
DEFPOINTS
 70
     0
 62
     7
  6
CONTINUOUS
  0
ENDTAB
  0
TABLE
  2
STYLE
 70
     1
  0
STYLE
  2
STANDARD
 70
     0
 40
0.0
 41
0.8
 50
0.0
 71
     0
 42
0.2
  3
txt
  4

  0
ENDTAB
  0
TABLE
  2
VIEW
 70
     0
  0
ENDTAB
  0
TABLE
  2
UCS
 70
     0
  0
ENDTAB
  0
TABLE
  2
APPID
 70
    11
  0
APPID
  2
ACAD
 70
     0
  0
APPID
  2
ACAD_MLEADERVER
 70
     0
  0
APPID
  2
ACAD_EXEMPT_FROM_CAD_STANDARDS
 70
     0
  0
APPID
  2
ACAD_NAV_VCDISPLAY
 70
     0
  0
APPID
  2
ACAECLAYERSTANDARD
 70
     0
  0
APPID
  2
ACCMTRANSPARENCY
 70
     0
  0
APPID
  2
ACAD_DSTYLE_DIMJAG
 70
     0
  0
APPID
  2
ACAD_DSTYLE_DIMTALN
 70
     0
  0
APPID
  2
ACDBATTR
 70
     0
  0
APPID
  2
ACADANNOTATIVE
 70
     0
  0
APPID
  2
DCO15
 70
     0
  0
ENDTAB
  0
TABLE
  2
DIMSTYLE
 70
     1
  0
DIMSTYLE
  2
STANDARD
 70
     0
  3

  4

  5

  6

  7

 40
1.0
 41
0.1875
 42
0.0625
 43
0.38
 44
0.125
 45
0.0
 46
0.0
 47
0.01
 48
0.01
140
0.15625
141
0.09
142
0.0
143
25.3999999999999986
144
1.0
145
0.0
146
1.0
147
0.09
 71
     1
 72
     0
 73
     1
 74
     1
 75
     0
 76
     0
 77
     0
 78
     4
170
     0
171
     2
172
     0
173
     0
174
     0
175
     0
176
     0
177
     0
178
     0
  0
ENDTAB
  0
ENDSEC
  0
SECTION
  2
BLOCKS
  0
BLOCK
  8
0
  2
$MODEL_SPACE
 70
     0
 10
0.0
 20
0.0
 30
0.0
  3
$MODEL_SPACE
  1

  0
ENDBLK
  5
21
  8
0
  0
BLOCK
 67
     1
  8
0
  2
$PAPER_SPACE
 70
     0
 10
0.0
 20
0.0
 30
0.0
  3
$PAPER_SPACE
  1

  0
ENDBLK
  5
1D
 67
     1
  8
0
  0
ENDSEC
  0
SECTION
  2
ENTITIES
  0
ATTDEF
  5
211C4
  8
DEFPOINTS
 10
4653.4315386804801165
 20
327.5538086459512215
 30
0.0
 40
0.001
  1
P34706-00
  3

  2
MODELNUMBER
 70
     0
1001
ACDBATTR
1070
     0
1070
     1
  0
ATTDEF
  5
211C5
  8
DEFPOINTS
 10
4653.4315386804801165
 20
327.5521418055720915
 30
0.0
 40
0.001
  1
PER SE
  3

  2
TRADENAME
 70
     0
1001
ACDBATTR
1070
     0
1070
     1
  0
ATTDEF
  5
211C6
  8
DEFPOINTS
 10
4653.4315386804801165
 20
327.5504753126178912
 30
0.0
 40
0.001
  1
ROBE HOOK
  3

  2
PRODUCT
 70
     0
1001
ACDBATTR
1070
     0
1070
     1
  0
ARC
  5
22FE4
  8
0
 10
4653.4314944764373649
 20
319.3179534089400136
 30
0.0
 40
9.135969825787706
 50
93.2717410585478319
 51
95.2842812471025553
  0
ARC
  5
22FE5
  8
0
 10
4652.6241708132110944
 20
328.0466735120655812
 30
0.0
 40
0.3699943446496517
 50
95.2842812471025553
 51
173.032564706262292
  0
ARC
  5
22FE6
  8
0
 10
4653.4314944764373649
 20
335.7828981475154251
 30
0.0
 40
9.135969825787706
 50
264.7157187528973736
 51
266.7282589414522249
  0
ARC
  5
22FE7
  8
0
 10
4652.6241708132110944
 20
327.0541780443898006
 30
0.0
 40
0.3699943446496517
 50
186.967435293737708
 51
264.7157187528973736
  0
ARC
  5
22FE8
  8
0
 10
4656.6849122096500651
 20
327.5504257782276909
 30
0.0
 40
4.4609456401412624
 50
173.0326413942676993
 51
186.9673586057323007
  0
ARC
  5
22FE9
  8
0
 10
4652.6910517511068974
 20
328.0019854341281871
 30
0.0
 40
0.3234809343563868
 50
93.4520996607352288
 51
175.3305934930918113
  0
ARC
  5
22FEA
  8
0
 10
4652.6910517511068974
 20
327.0988661223271947
 30
0.0
 40
0.3234809343563868
 50
184.6694065069081887
 51
266.547900339264686
  0
ARC
  5
22FEB
  8
0
 10
4658.1103553681259655
 20
327.5504257782276909
 30
0.0
 40
5.7615645466026457
 50
175.2421344937185097
 51
184.7578655062814903
  0
ARC
  5
22FEC
  8
0
 10
4653.1293489778972798
 20
327.8032533610855808
 30
0.0
 40
0.163986445326368
 50
152.0008080771756909
 51
173.7798657567695102
  0
ARC
  5
22FED
  8
0
 10
4653.1263628605001941
 20
327.8040811088795863
 30
0.0
 40
0.1653722028954362
 50
146.5780159973743935
 51
174.0102396117329988
  0
ARC
  5
22FEE
  8
0
 10
4653.1293489778972798
 20
327.297598195369801
 30
0.0
 40
0.163986445326368
 50
186.2201342432304898
 51
259.1420910802889921
  0
ARC
  5
22FEF
  8
0
 10
4653.1263628605001941
 20
327.2967704475757955
 30
0.0
 40
0.1653722028954362
 50
185.9897603882670012
 51
260.1368349215115927
  0
ARC
  5
22FF0
  8
0
 10
4655.2444726423600514
 20
327.5504257782276909
 30
0.0
 40
2.2941589205604589
 50
173.2262127144477972
 51
186.7737872855522028
  0
ARC
  5
22FF1
  8
0
 10
4655.5827262199663892
 20
327.5504257782276909
 30
0.0
 40
2.6347974294580552
 50
174.0983706885103004
 51
185.9016293114896996
  0
ARC
  5
22FF2
  8
0
 10
4653.4314944763873427
 20
329.127106650816927
 30
0.0
 40
2.0182266325757241
 50
260.5019339789587889
 51
279.4980660210412111
  0
ARC
  5
22FF3
  8
0
 10
4653.4314944763873427
 20
329.2672376793696003
 30
0.0
 40
2.159298496532986
 50
261.1162951745553755
 51
278.8837048254446245
  0
ARC
  5
22FF4
  8
0
 10
4653.4314944763873427
 20
338.8261863042753248
 30
0.0
 40
12.0741517659590407
 50
266.3915434129455093
 51
273.6084565870544907
  0
ARC
  5
22FF5
  8
0
 10
4653.4314944763873427
 20
335.7827877118066908
 30
0.0
 40
9.1358595700790683
 50
266.7282194139124272
 51
273.271780586087516
  0
ARC
  5
22FF6
  8
0
 10
4653.4314944763873427
 20
319.3180638446473836
 30
0.0
 40
9.1358595700802514
 50
86.728219413912484
 51
87.5472034577222757
  0
ARC
  5
22FF7
  8
0
 10
4653.4314944763873427
 20
319.3180638446473836
 30
0.0
 40
9.1358595700802514
 50
92.4527965422777243
 51
93.2717805860875302
  0
ARC
  5
22FF8
  8
0
 10
4653.4314944763873427
 20
316.2746653798733973
 30
0.0
 40
12.0741516385188703
 50
86.3915433748293822
 51
88.129617646570253
  0
ARC
  5
22FF9
  8
0
 10
4653.4314944763873427
 20
316.2746653798733973
 30
0.0
 40
12.0741516385188703
 50
91.8703823534297612
 51
93.6084566251706178
  0
ARC
  5
22FFA
  8
0
 10
4652.8289900082745589
 20
326.0279228151024995
 30
0.0
 40
0.6498818364580786
 50
80.676661311451312
 51
91.5010513120344342
  0
ARC
  5
22FFB
  8
0
 10
4653.0009336501434518
 20
328.7430473515872791
 30
0.0
 40
2.082475048441863
 50
264.6964645817805035
 51
267.716951403373514
  0
ARC
  5
22FFC
  8
0
 10
4652.931998793133971
 20
327.013962052134616
 30
0.0
 40
0.3520161534390734
 50
267.716951403373514
 51
271.8955174250078812
  0
ARC
  5
22FFD
  8
0
 10
4652.942928985205981
 20
326.6836958279204168
 30
0.0
 40
0.021569110850666
 50
271.8955174250078812
 51
293.3967060410158751
  0
ARC
  5
22FFE
  8
0
 10
4652.913639816628347
 20
326.5502373976138983
 30
0.0
 40
0.1207582582585487
 50
74.0062963260850637
 51
80.161184773627113
  0
ARC
  5
22FFF
  8
0
 10
4652.9434394686650194
 20
326.6542042532898904
 30
0.0
 40
0.0126050043055106
 50
50.2832535216520284
 51
74.0062963260850637
  0
ARC
  5
23000
  8
0
 10
4652.8149804927497826
 20
326.5563818897747979
 30
0.0
 40
0.1212372297537223
 50
91.4246950697531986
 51
100.5345082205636942
  0
ARC
  5
23001
  8
0
 10
4652.7939246849118717
 20
326.6696082380319126
 30
0.0
 40
0.0060697300700706
 50
100.5345082205636942
 51
131.8218249710758982
  0
ARC
  5
23002
  8
0
 10
4652.7934308836829587
 20
326.6760262596060898
 30
0.0
 40
0.004027159597649
 50
208.0658914867202895
 51
261.2071220960178266
  0
ARC
  5
23003
  8
0
 10
4652.8227424019105456
 20
326.8058276896950929
 30
0.0
 40
0.1370877754097448
 50
257.3904280357966741
 51
264.0140490127583917
  0
ARC
  5
23004
  8
0
 10
4653.2259403028665474
 20
328.7054784609841249
 30
0.0
 40
0.1800219501669326
 50
98.7110688147962918
 51
136.9928790269104866
  0
ARC
  5
23005
  8
0
 10
4653.225691422597265
 20
328.705602406604612
 30
0.0
 40
0.17975542719461
 50
136.9676597711734019
 51
179.1551256782524035
  0
ARC
  5
23006
  8
0
 10
4628.4606379059086976
 20
329.0826956567782986
 30
0.0
 40
24.5881689112770907
 50
358.7911086458904037
 51
359.1274333655696864
  0
ARC
  5
23007
  8
0
 10
4635.2727812810389878
 20
328.9280774347981264
 30
0.0
 40
17.77428302428984
 50
358.0942713561892106
 51
358.8261294422321726
  0
ARC
  5
23008
  8
0
 10
4648.4177022474841579
 20
328.4768249568068086
 30
0.0
 40
4.6216469212474234
 50
355.9973051510319237
 51
358.2661861657135205
  0
ARC
  5
23009
  8
0
 10
4651.5807447112119917
 20
328.2436684611852229
 30
0.0
 40
1.450092721144749
 50
342.7188763272300207
 51
356.463418261611821
  0
ARC
  5
2300A
  8
0
 10
4653.43149447633823
 20
319.3179534089400136
 30
0.0
 40
9.135969825787706
 50
84.7157187528974447
 51
86.7282589414521681
  0
ARC
  5
2300B
  8
0
 10
4654.2388181395626816
 20
328.0466735120655812
 30
0.0
 40
0.3699943446496517
 50
6.967435293737684
 51
84.7157187528974447
  0
ARC
  5
2300C
  8
0
 10
4653.43149447633823
 20
335.7828981475154251
 30
0.0
 40
9.135969825787706
 50
273.2717410585478888
 51
275.2842812471026264
  0
ARC
  5
2300D
  8
0
 10
4654.2388181395626816
 20
327.0541780443898006
 30
0.0
 40
0.3699943446496517
 50
275.2842812471026264
 51
353.032564706262292
  0
ARC
  5
2300E
  8
0
 10
4650.1780767431246204
 20
327.5504257782276909
 30
0.0
 40
4.4609456401412624
 50
353.0326413942677277
 51
6.9673586057322758
  0
ARC
  5
2300F
  8
0
 10
4654.171937201667788
 20
328.0019854341281871
 30
0.0
 40
0.3234809343563868
 50
4.669406506908226
 51
86.5479003392647712
  0
ARC
  5
23010
  8
0
 10
4654.171937201667788
 20
327.0988661223271947
 30
0.0
 40
0.3234809343563868
 50
273.4520996607352004
 51
355.3305934930917829
  0
ARC
  5
23011
  8
0
 10
4648.7526335846478105
 20
327.5504257782276909
 30
0.0
 40
5.7615645466026457
 50
355.2421344937184244
 51
4.7578655062815276
  0
ARC
  5
23012
  8
0
 10
4653.7336399748783151
 20
327.8032533610855808
 30
0.0
 40
0.163986445326368
 50
6.2201342432304854
 51
27.9991919228242594
  0
ARC
  5
23013
  8
0
 10
4653.7366260922735819
 20
327.8040811088795863
 30
0.0
 40
0.1653722028954362
 50
5.9897603882669994
 51
33.4219840026255923
  0
ARC
  5
23014
  8
0
 10
4653.7336399748783151
 20
327.297598195369801
 30
0.0
 40
0.163986445326368
 50
280.8579089197110079
 51
353.7798657567694818
  0
ARC
  5
23015
  8
0
 10
4653.7366260922735819
 20
327.2967704475757955
 30
0.0
 40
0.1653722028954362
 50
279.8631650784884073
 51
354.0102396117330272
  0
ARC
  5
23016
  8
0
 10
4651.6185163104137246
 20
327.5504257782276909
 30
0.0
 40
2.2941589205604682
 50
353.2262127144477972
 51
6.7737872855522223
  0
ARC
  5
23017
  8
0
 10
4651.2802627328073868
 20
327.5504257782276909
 30
0.0
 40
2.6347974294584011
 50
354.098370688510272
 51
5.9016293114897369
  0
ARC
  5
23018
  8
0
 10
4654.033998944497398
 20
326.0279228151024995
 30
0.0
 40
0.6498818364580786
 50
88.4989486879655942
 51
99.3233386885486738
  0
ARC
  5
23019
  8
0
 10
4653.8620553026312336
 20
328.7430473515872791
 30
0.0
 40
2.082475048441863
 50
272.283048596626486
 51
275.3035354182194965
  0
ARC
  5
2301A
  8
0
 10
4653.9309901596407144
 20
327.013962052134616
 30
0.0
 40
0.3520161534390734
 50
268.1044825749921188
 51
272.283048596626486
  0
ARC
  5
2301B
  8
0
 10
4653.920059967567795
 20
326.6836958279204168
 30
0.0
 40
0.021569110850666
 50
246.6032939589840964
 51
268.1044825749921188
  0
ARC
  5
2301C
  8
0
 10
4653.9493491361454289
 20
326.5502373976138983
 30
0.0
 40
0.1207582582585487
 50
99.8388152263729012
 51
105.9937036739148937
  0
ARC
  5
2301D
  8
0
 10
4653.9195494841087566
 20
326.6542042532898904
 30
0.0
 40
0.0126050043055106
 50
105.9937036739148937
 51
129.7167464783478863
  0
ARC
  5
2301E
  8
0
 10
4654.0480084600249029
 20
326.5563818897747979
 30
0.0
 40
0.1212372297537223
 50
79.46549177943632
 51
88.5753049302467872
  0
ARC
  5
2301F
  8
0
 10
4654.0690642678619042
 20
326.6696082380319126
 30
0.0
 40
0.0060697300700706
 50
48.1781750289241018
 51
79.46549177943632
  0
ARC
  5
23020
  8
0
 10
4654.0695580690917268
 20
326.6760262596060898
 30
0.0
 40
0.004027159597649
 50
278.7928779039821734
 51
331.934108513279682
  0
ARC
  5
23021
  8
0
 10
4654.0402465508614114
 20
326.8058276896950929
 30
0.0
 40
0.1370877754097448
 50
275.985950987241722
 51
282.6095719642033259
  0
ARC
  5
23022
  8
0
 10
4671.5902076717347882
 20
328.9280774347981264
 30
0.0
 40
17.77428302428984
 50
181.173870557767799
 51
181.9057286438105905
  0
ARC
  5
23023
  8
0
 10
4658.4452867052896181
 20
328.4768249568068086
 30
0.0
 40
4.6216469212474234
 50
181.7338138342865079
 51
184.0026948489681047
  0
ARC
  5
23024
  8
0
 10
4655.2822442415617843
 20
328.2436684611852229
 30
0.0
 40
1.450092721144749
 50
183.5365817383882074
 51
197.2811236727700077
  0
ARC
  5
23025
  8
0
 10
4653.6370486499072285
 20
328.7054784609841249
 30
0.0
 40
0.1800219501669326
 50
43.0071209730894566
 51
81.2889311852037082
  0
ARC
  5
23026
  8
0
 10
4653.6372975301774204
 20
328.705602406604612
 30
0.0
 40
0.17975542719461
 50
0.8448743217476357
 51
43.032340228826591
  0
ARC
  5
23027
  8
0
 10
4678.4023510468650784
 20
329.0826956567782986
 30
0.0
 40
24.5881689112770907
 50
180.8725666344301999
 51
181.2088913541095963
  0
ARC
  5
23028
  8
0
 10
4653.4314944763873427
 20
327.3638482270342251
 30
0.0
 40
1.537307551243474
 50
81.2892761587347508
 51
98.7107238412652492
  0
ENDSEC
  0
EOF
