  0
SECTION
  2
HEADER
  9
$ACADVER
  1
AC1009
  9
$INSBASE
 10
4648.7439598864466461
 20
318.7112862131871793
 30
0.0
  9
$EXTMIN
 10
4638.454300339517431
 20
316.000632537191791
 30
-0.0015258207003583
  9
$EXTMAX
 10
4659.0702792211177439
 20
318.7223880453963147
 30
0.0000000349246037
  9
$LIMMIN
 10
0.0
 20
0.0
  9
$LIMMAX
 10
11.6929133858000007
 20
8.2677165353999982
  9
$ORTHOMODE
 70
     1
  9
$REGENMODE
 70
     1
  9
$FILLMODE
 70
     1
  9
$QTEXTMODE
 70
     0
  9
$MIRRTEXT
 70
     0
  9
$DRAGMODE
 70
     2
  9
$LTSCALE
 40
0.6431102362
  9
$OSMODE
 70
     7
  9
$ATTMODE
 70
     1
  9
$TEXTSIZE
 40
0.2
  9
$TRACEWID
 40
0.05
  9
$TEXTSTYLE
  7
STANDARD
  9
$CLAYER
  8
0
  9
$CELTYPE
  6
BYLAYER
  9
$CECOLOR
 62
   256
  9
$DIMSCALE
 40
1.0
  9
$DIMASZ
 40
0.1875
  9
$DIMEXO
 40
0.0625
  9
$DIMDLI
 40
0.4443307087
  9
$DIMRND
 40
0.0
  9
$DIMDLE
 40
0.0
  9
$DIMEXE
 40
0.125
  9
$DIMTP
 40
0.01
  9
$DIMTM
 40
0.01
  9
$DIMTXT
 40
2.0
  9
$DIMCEN
 40
0.1052362205
  9
$DIMTSZ
 40
0.0
  9
$DIMTOL
 70
     1
  9
$DIMLIM
 70
     0
  9
$DIMTIH
 70
     1
  9
$DIMTOH
 70
     1
  9
$DIMSE1
 70
     0
  9
$DIMSE2
 70
     0
  9
$DIMTAD
 70
     0
  9
$DIMZIN
 70
     0
  9
$DIMBLK
  1

  9
$DIMASO
 70
     1
  9
$DIMSHO
 70
     1
  9
$DIMPOST
  1
\X
  9
$DIMAPOST
  1

  9
$DIMALT
 70
     1
  9
$DIMALTD
 70
     2
  9
$DIMALTF
 40
25.3999999999999986
  9
$DIMLFAC
 40
1.0
  9
$DIMTOFL
 70
     0
  9
$DIMTVP
 40
0.0
  9
$DIMTIX
 70
     0
  9
$DIMSOXD
 70
     0
  9
$DIMSAH
 70
     0
  9
$DIMBLK1
  1

  9
$DIMBLK2
  1

  9
$DIMSTYLE
  2
STANDARD
  9
$DIMCLRD
 70
     0
  9
$DIMCLRE
 70
     0
  9
$DIMCLRT
 70
     0
  9
$DIMTFAC
 40
1.0
  9
$DIMGAP
 40
0.09
  9
$LUNITS
 70
     2
  9
$LUPREC
 70
     4
  9
$SKETCHINC
 40
0.1
  9
$FILLETRAD
 40
0.0
  9
$AUNITS
 70
     0
  9
$AUPREC
 70
     0
  9
$MENU
  1
.
  9
$ELEVATION
 40
0.0
  9
$PELEVATION
 40
0.0
  9
$THICKNESS
 40
0.0
  9
$LIMCHECK
 70
     0
  9
$BLIPMODE
 70
     0
  9
$CHAMFERA
 40
0.0
  9
$CHAMFERB
 40
0.0
  9
$SKPOLY
 70
     0
  9
$TDCREATE
 40
2458060.468368056230247
  9
$TDUPDATE
 40
2459579.6298263887874782
  9
$TDINDWG
 40
0.6895440972
  9
$TDUSRTIMER
 40
0.6895440972
  9
$USRTIMER
 70
     1
  9
$ANGBASE
 50
0.0
  9
$ANGDIR
 70
     0
  9
$PDMODE
 70
     0
  9
$PDSIZE
 40
0.3125
  9
$PLINEWID
 40
0.0
  9
$COORDS
 70
     1
  9
$SPLFRAME
 70
     0
  9
$SPLINETYPE
 70
     6
  9
$SPLINESEGS
 70
     8
  9
$ATTDIA
 70
     1
  9
$ATTREQ
 70
     1
  9
$HANDLING
 70
     1
  9
$HANDSEED
  5
22FAF
  9
$SURFTAB1
 70
     6
  9
$SURFTAB2
 70
     6
  9
$SURFTYPE
 70
     6
  9
$SURFU
 70
     6
  9
$SURFV
 70
     6
  9
$UCSNAME
  2

  9
$UCSORG
 10
0.0
 20
0.0
 30
0.0
  9
$UCSXDIR
 10
1.0
 20
0.0
 30
0.0
  9
$UCSYDIR
 10
0.0
 20
1.0
 30
0.0
  9
$PUCSNAME
  2

  9
$PUCSORG
 10
0.0
 20
0.0
 30
0.0
  9
$PUCSXDIR
 10
1.0
 20
0.0
 30
0.0
  9
$PUCSYDIR
 10
0.0
 20
1.0
 30
0.0
  9
$USERI1
 70
     0
  9
$USERI2
 70
     0
  9
$USERI3
 70
     0
  9
$USERI4
 70
     0
  9
$USERI5
 70
     0
  9
$USERR1
 40
0.0
  9
$USERR2
 40
0.0
  9
$USERR3
 40
0.0
  9
$USERR4
 40
0.0
  9
$USERR5
 40
0.0
  9
$WORLDVIEW
 70
     1
  9
$SHADEDGE
 70
     3
  9
$SHADEDIF
 70
    70
  9
$TILEMODE
 70
     1
  9
$MAXACTVP
 70
    64
  9
$PLIMCHECK
 70
     0
  9
$PEXTMIN
 10
1.0000000000000000E+20
 20
1.0000000000000000E+20
 30
1.0000000000000000E+20
  9
$PEXTMAX
 10
-1.0000000000000000E+20
 20
-1.0000000000000000E+20
 30
-1.0000000000000000E+20
  9
$PLIMMIN
 10
0.0
 20
0.0
  9
$PLIMMAX
 10
12.0
 20
9.0
  9
$UNITMODE
 70
     0
  9
$VISRETAIN
 70
     1
  9
$PLINEGEN
 70
     0
  9
$PSLTSCALE
 70
     1
  0
ENDSEC
  0
SECTION
  2
TABLES
  0
TABLE
  2
VPORT
 70
     1
  0
VPORT
  2
*ACTIVE
 70
     0
 10
0.0
 20
0.0
 11
1.0
 21
1.0
 12
737.3969333350050874
 22
184.7819051887549904
 13
0.0
 23
0.0
 14
1.0
 24
1.0
 15
0.0
 25
0.0
 16
0.0
 26
0.0
 36
60.4960186965801583
 17
3911.3653564453120453
 27
132.5796051025390057
 37
0.0
 40
9.0579211408599658
 41
2.2831541218637992
 42
50.0
 43
0.0
 44
0.0
 50
0.0
 51
0.0
 71
     0
 72
   100
 73
     1
 74
     1
 75
     0
 76
     0
 77
     0
 78
     0
  0
ENDTAB
  0
TABLE
  2
LTYPE
 70
     2
  0
LTYPE
  2
CONTINUOUS
 70
     0
  3
Solid line
 72
    65
 73
     0
 40
0.0
  0
LTYPE
  2
PHANTOM2
 70
     0
  3
___ _ _ ___ _ _ ___ _ _ ___ _ _
 72
    65
 73
     6
 40
1.25
 49
0.625
 49
-0.125
 49
0.125
 49
-0.125
 49
0.125
 49
-0.125
  0
ENDTAB
  0
TABLE
  2
LAYER
 70
     2
  0
LAYER
  2
0
 70
     0
 62
   255
  6
CONTINUOUS
  0
LAYER
  2
DEFPOINTS
 70
     0
 62
     7
  6
CONTINUOUS
  0
ENDTAB
  0
TABLE
  2
STYLE
 70
     1
  0
STYLE
  2
STANDARD
 70
     0
 40
0.0
 41
0.8
 50
0.0
 71
     0
 42
0.2
  3
txt
  4

  0
ENDTAB
  0
TABLE
  2
VIEW
 70
     0
  0
ENDTAB
  0
TABLE
  2
UCS
 70
     0
  0
ENDTAB
  0
TABLE
  2
APPID
 70
    11
  0
APPID
  2
ACAD
 70
     0
  0
APPID
  2
ACAD_MLEADERVER
 70
     0
  0
APPID
  2
ACAD_EXEMPT_FROM_CAD_STANDARDS
 70
     0
  0
APPID
  2
ACAD_NAV_VCDISPLAY
 70
     0
  0
APPID
  2
ACAECLAYERSTANDARD
 70
     0
  0
APPID
  2
ACCMTRANSPARENCY
 70
     0
  0
APPID
  2
ACAD_DSTYLE_DIMJAG
 70
     0
  0
APPID
  2
ACAD_DSTYLE_DIMTALN
 70
     0
  0
APPID
  2
ACDBATTR
 70
     0
  0
APPID
  2
ACADANNOTATIVE
 70
     0
  0
APPID
  2
DCO15
 70
     0
  0
ENDTAB
  0
TABLE
  2
DIMSTYLE
 70
     1
  0
DIMSTYLE
  2
STANDARD
 70
     0
  3

  4

  5

  6

  7

 40
1.0
 41
0.1875
 42
0.0625
 43
0.38
 44
0.125
 45
0.0
 46
0.0
 47
0.01
 48
0.01
140
0.15625
141
0.09
142
0.0
143
25.3999999999999986
144
1.0
145
0.0
146
1.0
147
0.09
 71
     1
 72
     0
 73
     1
 74
     1
 75
     0
 76
     0
 77
     0
 78
     4
170
     0
171
     2
172
     0
173
     0
174
     0
175
     0
176
     0
177
     0
178
     0
  0
ENDTAB
  0
ENDSEC
  0
SECTION
  2
BLOCKS
  0
BLOCK
  8
0
  2
$MODEL_SPACE
 70
     0
 10
0.0
 20
0.0
 30
0.0
  3
$MODEL_SPACE
  1

  0
ENDBLK
  5
21
  8
0
  0
BLOCK
 67
     1
  8
0
  2
$PAPER_SPACE
 70
     0
 10
0.0
 20
0.0
 30
0.0
  3
$PAPER_SPACE
  1

  0
ENDBLK
  5
1D
 67
     1
  8
0
  0
ENDSEC
  0
SECTION
  2
ENTITIES
  0
ATTDEF
  5
211C4
  8
DEFPOINTS
 10
4648.7439697529825935
 20
318.7146313687729275
 30
0.0
 40
0.001
  1
P34701-00
  3

  2
MODELNUMBER
 70
     0
1001
ACDBATTR
1070
     0
1070
     1
  0
ATTDEF
  5
211C5
  8
DEFPOINTS
 10
4648.7439697529825935
 20
318.7129645283936838
 30
0.0
 40
0.001
  1
PER SE
  3

  2
TRADENAME
 70
     0
1001
ACDBATTR
1070
     0
1070
     1
  0
ATTDEF
  5
211C6
  8
DEFPOINTS
 10
4648.7439697529825935
 20
318.7112980354395972
 30
0.0
 40
0.001
  1
TOWEL BAR
  3

  2
PRODUCT
 70
     0
1001
ACDBATTR
1070
     0
1070
     1
  0
LINE
  5
22E87
  8
0
 10
4638.5949888146960802
 20
318.7112862131871793
 30
0.0
 11
4640.8939709581964053
 21
318.7112862131871793
 31
0.0
  0
LINE
  5
22E88
  8
0
 10
4656.5939488146959775
 20
318.7112862131871793
 30
0.0
 11
4658.8929309581963025
 21
318.7112862131871793
 31
0.0
  0
LINE
  5
22E89
  8
0
 10
4638.5469519796160967
 20
318.6532862131873003
 30
0.0
 11
4640.9420077932763888
 21
318.6532862131873003
 31
0.0
  0
LINE
  5
22E8A
  8
0
 10
4640.9165598864956337
 20
316.0151727131872121
 30
0.0
 11
4656.5713598863949301
 21
316.0151727131872121
 31
0.0
  0
LINE
  5
22E8B
  8
0
 10
4640.9165598864956337
 20
316.4581742078872253
 30
0.0
 11
4656.5713598863949301
 21
316.4581742078872253
 31
0.0
  0
LINE
  5
22E8C
  8
0
 10
4640.9065598864963249
 20
316.025172713187203
 30
0.0
 11
4640.9065598864963249
 21
316.4481742078871775
 31
0.0
  0
LINE
  5
22E8D
  8
0
 10
4640.8653844351465523
 20
316.448411879373225
 30
0.0
 11
4640.8653844351465523
 21
316.0248920253737879
 31
0.0
  0
LINE
  5
22E8E
  8
0
 10
4640.8697589722223711
 20
316.4456742078871798
 30
0.0
 11
4640.8965598844961278
 21
316.4456742078871798
 31
0.0
  0
LINE
  5
22E8F
  8
0
 10
4640.8965598864951971
 20
316.0305381399872999
 30
0.0
 11
4640.8705605505865606
 21
316.0305381399872999
 31
0.0
  0
ARC
  5
22E90
  8
0
 10
4640.8715072012828387
 20
316.024474613779887
 30
0.0
 40
0.0061369778887053
 50
98.8735078404550336
 51
176.0999695033476939
  0
ARC
  5
22E91
  8
0
 10
4640.8506433525999455
 20
316.0311651306603267
 30
0.0
 40
0.0160203422105542
 50
273.3834470950624791
 51
336.9476979875952907
  0
ARC
  5
22E92
  8
0
 10
4640.8965598864951971
 20
316.0405381399871771
 30
0.0
 40
0.009999999999998
 50
270.0
 51
0.0000000000097707
  0
ARC
  5
22E93
  8
0
 10
4640.9165598864956337
 20
316.025172713187203
 30
0.0
 40
0.0099999999999965
 50
179.999999427031895
 51
270.0
  0
ARC
  5
22E94
  8
0
 10
4641.1709810662287055
 20
386.2980485099041061
 30
0.0
 40
70.2836015130869782
 50
269.3258611726262188
 51
269.7396278916054939
  0
ARC
  5
22E95
  8
0
 10
4640.3359555721308425
 20
319.3316703774843859
 30
0.0
 40
3.31236838117167
 50
263.6910529871411768
 51
270.1399679937518954
  0
ARC
  5
22E96
  8
0
 10
4640.0408882402052768
 20
316.6489434841245156
 30
0.0
 40
0.6134656806615336
 50
211.686785657727512
 51
263.5487881628200171
  0
ARC
  5
22E97
  8
0
 10
4640.1754036096253913
 20
316.7021464184251727
 30
0.0
 40
0.7563015006107499
 50
188.3569320884527087
 51
209.7632716695783017
  0
ARC
  5
22E98
  8
0
 10
4644.2024416630920314
 20
317.3510232361247176
 30
0.0
 40
4.8352197074549634
 50
185.2392222714599939
 51
189.0288212157398107
  0
ARC
  5
22E99
  8
0
 10
4527.6557552324111384
 20
306.3828624216711205
 30
0.0
 40
112.2264479999711995
 50
5.3821514862437434
 51
6.012606836955749
  0
LINE
  5
22E9A
  8
0
 10
4639.2703993590057507
 20
318.1547918935871735
 30
0.0
 11
4640.2185604138876442
 21
318.1547918935871735
 31
0.0
  0
ARC
  5
22E9B
  8
0
 10
4639.2797573383022609
 20
318.1397894131824842
 30
0.0
 40
0.0150024804597556
 50
90.0049098582914127
 51
185.7809174590225041
  0
ARC
  5
22E9C
  8
0
 10
4639.2703993590039317
 20
318.1647917877182863
 30
0.0
 40
0.009999894131076
 50
198.4634483614588021
 51
270.0000000163626055
  0
ARC
  5
22E9D
  8
0
 10
4638.8567994570476003
 20
318.0266949833389276
 30
0.0
 40
0.426045523546313
 50
18.4636453955676814
 51
29.4346886902043607
  0
ARC
  5
22E9E
  8
0
 10
4638.9609533903712872
 20
318.0218818128473117
 30
0.0
 40
0.34221168656505
 50
38.7471821307302733
 51
66.9276748477443988
  0
LINE
  5
22E9F
  8
0
 10
4638.7185623268833297
 20
318.3367202930872963
 30
0.0
 11
4640.7703974460091558
 21
318.3367202930872963
 31
0.0
  0
ARC
  5
22EA0
  8
0
 10
4638.7329696688957483
 20
321.8288583961178233
 30
0.0
 40
3.4921678227344422
 50
268.0198029114807809
 51
269.7636189682312988
  0
ARC
  5
22EA1
  8
0
 10
4638.612963368695091
 20
318.3939439559663924
 30
0.0
 40
0.0551719388619306
 50
189.3571595412896045
 51
269.3121434138831205
  0
ARC
  5
22EA2
  8
0
 10
4640.2139219852961105
 20
318.6532862131873003
 30
0.0
 40
1.677000000000276
 50
180.3437079973012942
 51
189.2066389258980053
  0
ARC
  5
22EA3
  8
0
 10
4638.5469519796160967
 20
318.643286213138083
 30
0.0
 40
0.010000000049077
 50
90.0000001169874366
 51
180.3437077084720954
  0
LINE
  5
22EA4
  8
0
 10
4638.5949888146960802
 20
318.7112862131871793
 30
0.0
 11
4638.5949888146960802
 21
318.6932862131872071
 31
0.0
  0
ARC
  5
22EA5
  8
0
 10
4638.5549888146952071
 20
318.6932862131872071
 30
0.0
 40
0.0400000000000173
 50
270.0
 51
359.9999999999836859
  0
ARC
  5
22EA6
  8
0
 10
4640.8698062066087004
 20
316.4506135654921763
 30
0.0
 40
0.0049395834477678
 50
206.4696075289110979
 51
269.4521051622479035
  0
ARC
  5
22EA7
  8
0
 10
4640.850065702559732
 20
316.4413726987107793
 30
0.0
 40
0.0168586367319634
 50
24.6794698481025883
 51
85.2818478805355653
  0
ARC
  5
22EA8
  8
0
 10
4640.720917801521864
 20
320.4327767409250214
 30
0.0
 40
3.9767454754211342
 50
266.5655719812569941
 51
271.8810419622125778
  0
ARC
  5
22EA9
  8
0
 10
4640.503182916591868
 20
317.039327499603985
 30
0.0
 40
0.5765185180069988
 50
245.1583869210448938
 51
267.9625524487352095
  0
ARC
  5
22EAA
  8
0
 10
4640.3816363004971208
 20
316.7283893910532129
 30
0.0
 40
0.2441354130382868
 50
196.7772856830418959
 51
240.3820185908330984
  0
ARC
  5
22EAB
  8
0
 10
4640.9563964815233703
 20
316.8953157016023283
 30
0.0
 40
0.842635982162689
 50
181.0140946422183958
 51
196.3635341936042096
  0
ARC
  5
22EAC
  8
0
 10
4645.8005513338548553
 20
316.8924294691393015
 30
0.0
 40
5.6866715721496011
 50
174.3078343979829015
 51
180.1211780189699994
  0
ARC
  5
22EAD
  8
0
 10
4649.5588741649025906
 20
316.6796436885537105
 30
0.0
 40
9.4489397308570826
 50
171.1245955284711044
 51
175.2843098383146128
  0
ARC
  5
22EAE
  8
0
 10
4640.2082416380226277
 20
318.1397879126553221
 30
0.0
 40
0.015010286022279
 50
351.1759778665809222
 51
88.3392509660836112
  0
ARC
  5
22EAF
  8
0
 10
4640.2185604138876442
 20
318.1647917877182863
 30
0.0
 40
0.009999894131076
 50
269.9999999836373945
 51
341.5365516385410842
  0
ARC
  5
22EB0
  8
0
 10
4640.6321603158439757
 20
318.0266949833389276
 30
0.0
 40
0.426045523546313
 50
150.5653113097955895
 51
161.5363546044322902
  0
ARC
  5
22EB1
  8
0
 10
4640.5280063825202888
 20
318.0218818128473117
 30
0.0
 40
0.34221168656505
 50
113.0723251522556012
 51
141.2528178692697054
  0
ARC
  5
22EB2
  8
0
 10
4640.7559901039958277
 20
321.8288583961178233
 30
0.0
 40
3.4921678227344422
 50
270.2363810317687012
 51
271.9801970885192191
  0
ARC
  5
22EB3
  8
0
 10
4640.8759964041973944
 20
318.3939439559663924
 30
0.0
 40
0.0551719388619306
 50
270.6878565861168795
 51
350.6428404587102818
  0
ARC
  5
22EB4
  8
0
 10
4639.275037787596375
 20
318.6532862131873003
 30
0.0
 40
1.677000000000276
 50
350.7933610741019947
 51
359.6562920026987058
  0
ARC
  5
22EB5
  8
0
 10
4640.9420077932763888
 20
318.643286213138083
 30
0.0
 40
0.010000000049077
 50
359.6562922915277909
 51
89.9999998830125776
  0
LINE
  5
22EB6
  8
0
 10
4640.8939709581964053
 20
318.7112862131871793
 30
0.0
 11
4640.8939709581964053
 21
318.6932862131872071
 31
0.0
  0
ARC
  5
22EB7
  8
0
 10
4640.9339709581963689
 20
318.6932862131872071
 30
0.0
 40
0.0400000000000173
 50
180.0000000000163141
 51
270.0
  0
ARC
  5
22EB8
  8
0
 10
4640.8965211351705875
 20
316.4356262451690895
 30
0.0
 40
0.0100480374349986
 50
2.4634706118708589
 51
89.779043592702422
  0
ARC
  5
22EB9
  8
0
 10
4640.9165598864956337
 20
316.4481742078871775
 30
0.0
 40
0.0099999999999962
 50
90.0
 51
180.0000000000194973
  0
LINE
  5
22EBA
  8
0
 10
4658.9409677932762861
 20
318.6532862131873003
 30
0.0
 11
4656.5459119796159939
 21
318.6532862131873003
 31
0.0
  0
LINE
  5
22EBB
  8
0
 10
4656.5813598863960578
 20
316.025172713187203
 30
0.0
 11
4656.5813598863960578
 21
316.4481742078871775
 31
0.0
  0
LINE
  5
22EBC
  8
0
 10
4656.6225353377458305
 20
316.448411879373225
 30
0.0
 11
4656.6225353377458305
 21
316.0248920253737879
 31
0.0
  0
LINE
  5
22EBD
  8
0
 10
4656.6181608006700117
 20
316.4456742078871798
 30
0.0
 11
4656.5913598883971645
 21
316.4456742078871798
 31
0.0
  0
LINE
  5
22EBE
  8
0
 10
4656.5913598863962761
 20
316.0305381399872999
 30
0.0
 11
4656.6173592223049127
 21
316.0305381399872999
 31
0.0
  0
ARC
  5
22EBF
  8
0
 10
4656.6164125716104536
 20
316.024474613779887
 30
0.0
 40
0.0061369778887053
 50
3.9000304966522901
 51
81.1264921595449806
  0
ARC
  5
22EC0
  8
0
 10
4656.6372764202906183
 20
316.0311651306603267
 30
0.0
 40
0.0160203422105542
 50
203.0523020124047093
 51
266.6165529049375209
  0
ARC
  5
22EC1
  8
0
 10
4656.5913598863962761
 20
316.0405381399871771
 30
0.0
 40
0.009999999999998
 50
179.9999999999901945
 51
270.0
  0
ARC
  5
22EC2
  8
0
 10
4656.5713598863949301
 20
316.025172713187203
 30
0.0
 40
0.0099999999999965
 50
270.0
 51
0.0000005729680203
  0
ARC
  5
22EC3
  8
0
 10
4656.3169387066618583
 20
386.2980485099041061
 30
0.0
 40
70.2836015130869782
 50
270.2603721083945061
 51
270.6741388273737812
  0
ARC
  5
22EC4
  8
0
 10
4657.1519642007597213
 20
319.3316703774843859
 30
0.0
 40
3.31236838117167
 50
269.8600320062481046
 51
276.3089470128587095
  0
ARC
  5
22EC5
  8
0
 10
4657.4470315326871059
 20
316.6489434841245156
 30
0.0
 40
0.6134656806615336
 50
276.4512118371799829
 51
328.3132143422723743
  0
ARC
  5
22EC6
  8
0
 10
4657.312516163266082
 20
316.7021464184251727
 30
0.0
 40
0.7563015006107499
 50
330.2367283304188845
 51
351.643067911544108
  0
ARC
  5
22EC7
  8
0
 10
4653.2854781098003514
 20
317.3510232361247176
 30
0.0
 40
4.8352197074549634
 50
350.9711787842601893
 51
354.7607777285400061
  0
ARC
  5
22EC8
  8
0
 10
4769.8321645404803348
 20
306.3828624216711205
 30
0.0
 40
112.2264479999711995
 50
173.987393163044203
 51
174.6178485137562006
  0
LINE
  5
22EC9
  8
0
 10
4658.217520413884813
 20
318.1547918935871735
 30
0.0
 11
4657.269359359003829
 21
318.1547918935871735
 31
0.0
  0
ARC
  5
22ECA
  8
0
 10
4658.2081624345901218
 20
318.1397894131824842
 30
0.0
 40
0.0150024804597556
 50
354.2190825409775243
 51
89.9950901417085873
  0
ARC
  5
22ECB
  8
0
 10
4658.217520413888451
 20
318.1647917877182863
 30
0.0
 40
0.009999894131076
 50
269.9999999836373945
 51
341.5365516385410842
  0
ARC
  5
22ECC
  8
0
 10
4658.631120315843873
 20
318.0266949833389276
 30
0.0
 40
0.426045523546313
 50
150.5653113097955895
 51
161.5363546044322902
  0
ARC
  5
22ECD
  8
0
 10
4658.526966382520186
 20
318.0218818128473117
 30
0.0
 40
0.34221168656505
 50
113.0723251522556012
 51
141.2528178692697054
  0
LINE
  5
22ECE
  8
0
 10
4658.7693574460090531
 20
318.3367202930872963
 30
0.0
 11
4656.7175223268832269
 21
318.3367202930872963
 31
0.0
  0
ARC
  5
22ECF
  8
0
 10
4658.7549501039957249
 20
321.8288583961178233
 30
0.0
 40
3.4921678227344422
 50
270.2363810317687012
 51
271.9801970885192191
  0
ARC
  5
22ED0
  8
0
 10
4658.8749564041972917
 20
318.3939439559663924
 30
0.0
 40
0.0551719388619306
 50
270.6878565861168795
 51
350.6428404587102818
  0
ARC
  5
22ED1
  8
0
 10
4657.2739977875962722
 20
318.6532862131873003
 30
0.0
 40
1.677000000000276
 50
350.7933610741019947
 51
359.6562920026987058
  0
ARC
  5
22ED2
  8
0
 10
4658.9409677932762861
 20
318.643286213138083
 30
0.0
 40
0.010000000049077
 50
359.6562922915277909
 51
89.9999998830125776
  0
LINE
  5
22ED3
  8
0
 10
4658.8929309581963025
 20
318.7112862131871793
 30
0.0
 11
4658.8929309581963025
 21
318.6932862131872071
 31
0.0
  0
ARC
  5
22ED4
  8
0
 10
4658.9329309581962661
 20
318.6932862131872071
 30
0.0
 40
0.0400000000000173
 50
180.0000000000163141
 51
270.0
  0
ARC
  5
22ED5
  8
0
 10
4656.6181135662836823
 20
316.4506135654921763
 30
0.0
 40
0.0049395834477678
 50
270.5478948377520965
 51
333.5303924710888737
  0
ARC
  5
22ED6
  8
0
 10
4656.6378540703317412
 20
316.4413726987107793
 30
0.0
 40
0.0168586367319634
 50
94.7181521194644205
 51
155.3205301518974011
  0
ARC
  5
22ED7
  8
0
 10
4656.7670019713696092
 20
320.4327767409250214
 30
0.0
 40
3.9767454754211342
 50
268.1189580377874222
 51
273.4344280187430059
  0
ARC
  5
22ED8
  8
0
 10
4656.9847368562986958
 20
317.039327499603985
 30
0.0
 40
0.5765185180069988
 50
272.0374475512647905
 51
294.8416130789551062
  0
ARC
  5
22ED9
  8
0
 10
4657.1062834723952619
 20
316.7283893910532129
 30
0.0
 40
0.2441354130382868
 50
299.6179814091668163
 51
343.2227143169549208
  0
ARC
  5
22EDA
  8
0
 10
4656.5315232913690124
 20
316.8953157016023283
 30
0.0
 40
0.842635982162689
 50
343.6364658063956767
 51
358.9859053577815189
  0
ARC
  5
22EDB
  8
0
 10
4651.6873684390366179
 20
316.8924294691393015
 30
0.0
 40
5.6866715721496011
 50
359.8788219810300006
 51
5.6921656020170461
  0
ARC
  5
22EDC
  8
0
 10
4647.9290456079879732
 20
316.6796436885537105
 30
0.0
 40
9.4489397308570826
 50
4.7156901616853864
 51
8.8754044715288352
  0
ARC
  5
22EDD
  8
0
 10
4657.2796781348688455
 20
318.1397879126553221
 30
0.0
 40
0.015010286022279
 50
91.6607490339164031
 51
188.8240221334191062
  0
ARC
  5
22EDE
  8
0
 10
4657.269359359003829
 20
318.1647917877182863
 30
0.0
 40
0.009999894131076
 50
198.4634483614588021
 51
270.0000000163626055
  0
ARC
  5
22EDF
  8
0
 10
4656.8557594570484071
 20
318.0266949833389276
 30
0.0
 40
0.426045523546313
 50
18.4636453955676814
 51
29.4346886902043607
  0
ARC
  5
22EE0
  8
0
 10
4656.9599133903711845
 20
318.0218818128473117
 30
0.0
 40
0.34221168656505
 50
38.7471821307302733
 51
66.9276748477443988
  0
ARC
  5
22EE1
  8
0
 10
4656.7319296688956456
 20
321.8288583961178233
 30
0.0
 40
3.4921678227344422
 50
268.0198029114807809
 51
269.7636189682312988
  0
ARC
  5
22EE2
  8
0
 10
4656.6119233686949883
 20
318.3939439559663924
 30
0.0
 40
0.0551719388619306
 50
189.3571595412896045
 51
269.3121434138831205
  0
ARC
  5
22EE3
  8
0
 10
4658.2128819852969173
 20
318.6532862131873003
 30
0.0
 40
1.677000000000276
 50
180.3437079973012942
 51
189.2066389258980053
  0
ARC
  5
22EE4
  8
0
 10
4656.5459119796159939
 20
318.643286213138083
 30
0.0
 40
0.010000000049077
 50
90.0000001169874366
 51
180.3437077084720954
  0
LINE
  5
22EE5
  8
0
 10
4656.5939488146959775
 20
318.7112862131871793
 30
0.0
 11
4656.5939488146959775
 21
318.6932862131872071
 31
0.0
  0
ARC
  5
22EE6
  8
0
 10
4656.5539488146951044
 20
318.6932862131872071
 30
0.0
 40
0.0400000000000173
 50
270.0
 51
359.9999999999836859
  0
ARC
  5
22EE7
  8
0
 10
4656.5913986377208857
 20
316.4356262451690895
 30
0.0
 40
0.0100480374349986
 50
90.2209564072975922
 51
177.5365293881291109
  0
ARC
  5
22EE8
  8
0
 10
4656.5713598863949301
 20
316.4481742078871775
 30
0.0
 40
0.0099999999999962
 50
359.9999999999805027
 51
90.0
  0
ENDSEC
  0
EOF
