  0
SECTION
  2
HEADER
  9
$ACADVER
  1
AC1009
  9
$INSBASE
 10
598.538025538885563
 20
21.3178298210244002
 30
0.0
  9
$EXTMIN
 10
596.6272674277486203
 20
20.1915121614950586
 30
-0.0015258207003583
  9
$EXTMAX
 10
598.5764830278505997
 20
22.4438136757060498
 30
0.0000000349246037
  9
$LIMMIN
 10
0.0
 20
0.0
  9
$LIMMAX
 10
11.6929133858000007
 20
8.2677165353999982
  9
$ORTHOMODE
 70
     1
  9
$REGENMODE
 70
     1
  9
$FILLMODE
 70
     1
  9
$QTEXTMODE
 70
     0
  9
$MIRRTEXT
 70
     0
  9
$DRAGMODE
 70
     2
  9
$LTSCALE
 40
0.6431102362
  9
$OSMODE
 70
    23
  9
$ATTMODE
 70
     1
  9
$TEXTSIZE
 40
0.2
  9
$TRACEWID
 40
0.05
  9
$TEXTSTYLE
  7
STANDARD
  9
$CLAYER
  8
0
  9
$CELTYPE
  6
BYLAYER
  9
$CECOLOR
 62
   256
  9
$DIMSCALE
 40
1.0
  9
$DIMASZ
 40
0.1875
  9
$DIMEXO
 40
0.0625
  9
$DIMDLI
 40
0.4443307087
  9
$DIMRND
 40
0.0
  9
$DIMDLE
 40
0.0
  9
$DIMEXE
 40
0.125
  9
$DIMTP
 40
0.01
  9
$DIMTM
 40
0.01
  9
$DIMTXT
 40
2.0
  9
$DIMCEN
 40
0.1052362205
  9
$DIMTSZ
 40
0.0
  9
$DIMTOL
 70
     1
  9
$DIMLIM
 70
     0
  9
$DIMTIH
 70
     1
  9
$DIMTOH
 70
     1
  9
$DIMSE1
 70
     0
  9
$DIMSE2
 70
     0
  9
$DIMTAD
 70
     0
  9
$DIMZIN
 70
     0
  9
$DIMBLK
  1

  9
$DIMASO
 70
     1
  9
$DIMSHO
 70
     1
  9
$DIMPOST
  1
\X
  9
$DIMAPOST
  1

  9
$DIMALT
 70
     1
  9
$DIMALTD
 70
     2
  9
$DIMALTF
 40
25.3999999999999986
  9
$DIMLFAC
 40
1.0
  9
$DIMTOFL
 70
     0
  9
$DIMTVP
 40
0.0
  9
$DIMTIX
 70
     0
  9
$DIMSOXD
 70
     0
  9
$DIMSAH
 70
     0
  9
$DIMBLK1
  1

  9
$DIMBLK2
  1

  9
$DIMSTYLE
  2
STANDARD
  9
$DIMCLRD
 70
     0
  9
$DIMCLRE
 70
     0
  9
$DIMCLRT
 70
     0
  9
$DIMTFAC
 40
1.0
  9
$DIMGAP
 40
0.09
  9
$LUNITS
 70
     2
  9
$LUPREC
 70
     4
  9
$SKETCHINC
 40
0.1
  9
$FILLETRAD
 40
0.0
  9
$AUNITS
 70
     0
  9
$AUPREC
 70
     0
  9
$MENU
  1
.
  9
$ELEVATION
 40
0.0
  9
$PELEVATION
 40
0.0
  9
$THICKNESS
 40
0.0
  9
$LIMCHECK
 70
     0
  9
$BLIPMODE
 70
     0
  9
$CHAMFERA
 40
0.0
  9
$CHAMFERB
 40
0.0
  9
$SKPOLY
 70
     0
  9
$TDCREATE
 40
2458106.4931018520146608
  9
$TDUPDATE
 40
2459720.7729513891972601
  9
$TDINDWG
 40
0.28487125
  9
$TDUSRTIMER
 40
0.28487125
  9
$USRTIMER
 70
     1
  9
$ANGBASE
 50
0.0
  9
$ANGDIR
 70
     0
  9
$PDMODE
 70
     0
  9
$PDSIZE
 40
0.3125
  9
$PLINEWID
 40
0.0
  9
$COORDS
 70
     1
  9
$SPLFRAME
 70
     0
  9
$SPLINETYPE
 70
     6
  9
$SPLINESEGS
 70
     8
  9
$ATTDIA
 70
     1
  9
$ATTREQ
 70
     1
  9
$HANDLING
 70
     1
  9
$HANDSEED
  5
6570
  9
$SURFTAB1
 70
     6
  9
$SURFTAB2
 70
     6
  9
$SURFTYPE
 70
     6
  9
$SURFU
 70
     6
  9
$SURFV
 70
     6
  9
$UCSNAME
  2

  9
$UCSORG
 10
0.0
 20
0.0
 30
0.0
  9
$UCSXDIR
 10
1.0
 20
0.0
 30
0.0
  9
$UCSYDIR
 10
0.0
 20
1.0
 30
0.0
  9
$PUCSNAME
  2

  9
$PUCSORG
 10
0.0
 20
0.0
 30
0.0
  9
$PUCSXDIR
 10
1.0
 20
0.0
 30
0.0
  9
$PUCSYDIR
 10
0.0
 20
1.0
 30
0.0
  9
$USERI1
 70
     0
  9
$USERI2
 70
     0
  9
$USERI3
 70
     0
  9
$USERI4
 70
     0
  9
$USERI5
 70
     0
  9
$USERR1
 40
0.0
  9
$USERR2
 40
0.0
  9
$USERR3
 40
0.0
  9
$USERR4
 40
0.0
  9
$USERR5
 40
0.0
  9
$WORLDVIEW
 70
     1
  9
$SHADEDGE
 70
     3
  9
$SHADEDIF
 70
    70
  9
$TILEMODE
 70
     1
  9
$MAXACTVP
 70
    64
  9
$PLIMCHECK
 70
     0
  9
$PEXTMIN
 10
1.0000000000000000E+20
 20
1.0000000000000000E+20
 30
1.0000000000000000E+20
  9
$PEXTMAX
 10
-1.0000000000000000E+20
 20
-1.0000000000000000E+20
 30
-1.0000000000000000E+20
  9
$PLIMMIN
 10
0.0
 20
0.0
  9
$PLIMMAX
 10
12.0
 20
9.0
  9
$UNITMODE
 70
     0
  9
$VISRETAIN
 70
     1
  9
$PLINEGEN
 70
     0
  9
$PSLTSCALE
 70
     1
  0
ENDSEC
  0
SECTION
  2
TABLES
  0
TABLE
  2
VPORT
 70
     1
  0
VPORT
  2
*ACTIVE
 70
     0
 10
0.0
 20
0.0
 11
1.0
 21
1.0
 12
324.0276736712864931
 22
38.9236236526220267
 13
0.0
 23
0.0
 14
1.0
 24
1.0
 15
0.0
 25
0.0
 16
-0.0000000000000568
 26
0.0
 36
193.9250709296327955
 17
273.5742015565131169
 27
-17.6059607340214797
 37
0.0
 40
2.266681568398528
 41
2.005224660397074
 42
50.0
 43
0.0
 44
0.0
 50
0.0
 51
0.0
 71
     0
 72
   100
 73
     1
 74
     1
 75
     0
 76
     0
 77
     0
 78
     0
  0
ENDTAB
  0
TABLE
  2
LTYPE
 70
     2
  0
LTYPE
  2
CONTINUOUS
 70
     0
  3
Solid line
 72
    65
 73
     0
 40
0.0
  0
LTYPE
  2
PHANTOM2
 70
     0
  3
___ _ _ ___ _ _ ___ _ _ ___ _ _
 72
    65
 73
     6
 40
1.25
 49
0.625
 49
-0.125
 49
0.125
 49
-0.125
 49
0.125
 49
-0.125
  0
ENDTAB
  0
TABLE
  2
LAYER
 70
     2
  0
LAYER
  2
0
 70
     0
 62
   255
  6
CONTINUOUS
  0
LAYER
  2
DEFPOINTS
 70
     0
 62
     7
  6
CONTINUOUS
  0
ENDTAB
  0
TABLE
  2
STYLE
 70
     1
  0
STYLE
  2
STANDARD
 70
     0
 40
0.0
 41
0.8
 50
0.0
 71
     0
 42
0.2
  3
txt
  4

  0
ENDTAB
  0
TABLE
  2
VIEW
 70
     0
  0
ENDTAB
  0
TABLE
  2
UCS
 70
     0
  0
ENDTAB
  0
TABLE
  2
APPID
 70
     9
  0
APPID
  2
ACAD
 70
     0
  0
APPID
  2
ACAD_MLEADERVER
 70
     0
  0
APPID
  2
ACAD_EXEMPT_FROM_CAD_STANDARDS
 70
     0
  0
APPID
  2
ACAD_NAV_VCDISPLAY
 70
     0
  0
APPID
  2
ACAD_DSTYLE_DIMJAG
 70
     0
  0
APPID
  2
ACAD_DSTYLE_DIMTALN
 70
     0
  0
APPID
  2
ACAECLAYERSTANDARD
 70
     0
  0
APPID
  2
ACCMTRANSPARENCY
 70
     0
  0
APPID
  2
ACDBATTR
 70
     0
  0
ENDTAB
  0
TABLE
  2
DIMSTYLE
 70
     1
  0
DIMSTYLE
  2
STANDARD
 70
     0
  3

  4

  5

  6

  7

 40
1.0
 41
0.1875
 42
0.0625
 43
0.38
 44
0.125
 45
0.0
 46
0.0
 47
0.01
 48
0.01
140
0.15625
141
0.09
142
0.0
143
25.3999999999999986
144
1.0
145
0.0
146
1.0
147
0.09
 71
     1
 72
     0
 73
     1
 74
     1
 75
     0
 76
     0
 77
     0
 78
     4
170
     0
171
     2
172
     0
173
     0
174
     0
175
     0
176
     0
177
     0
178
     0
  0
ENDTAB
  0
ENDSEC
  0
SECTION
  2
BLOCKS
  0
BLOCK
  8
0
  2
$MODEL_SPACE
 70
     0
 10
0.0
 20
0.0
 30
0.0
  3
$MODEL_SPACE
  1

  0
ENDBLK
  5
21
  8
0
  0
BLOCK
 67
     1
  8
0
  2
$PAPER_SPACE
 70
     0
 10
0.0
 20
0.0
 30
0.0
  3
$PAPER_SPACE
  1

  0
ENDBLK
  5
1D
 67
     1
  8
0
  0
BLOCK
  8
0
  2
_FILLED
 70
     0
 10
0.0
 20
0.0
 30
0.0
  3
_FILLED
  1

  0
SOLID
  5
5708
  8
0
  6
BYBLOCK
 62
     0
 10
0.0
 20
0.0
 30
0.0
 11
-1.0
 21
0.1666666667
 31
0.0
 12
-1.0
 22
-0.1666666667
 32
0.0
 13
-1.0
 23
-0.1666666667
 33
0.0
  0
ENDBLK
  5
5709
  8
0
  6
BYBLOCK
 62
     0
  0
ENDSEC
  0
SECTION
  2
ENTITIES
  0
ATTDEF
  5
FAA
  8
DEFPOINTS
 10
598.5382816532926427
 20
21.3214924661807004
 30
0.0
 40
0.001
  1
P34407-00
  3

  2
MODELNUMBER
 70
     0
1001
ACDBATTR
1070
     0
1070
     1
  0
ATTDEF
  5
FAB
  8
DEFPOINTS
 10
598.5382816532926427
 20
21.3198257995140317
 30
0.0
 40
0.001
  1
ONE
  3

  2
TRADENAME
 70
     0
1001
ACDBATTR
1070
     0
1070
     1
  0
ATTDEF
  5
FAC
  8
DEFPOINTS
 10
598.5382816532926427
 20
21.3181591328473594
 30
0.0
 40
0.001
  1
ROBE HOOK
  3

  2
PRODUCT
 70
     0
1001
ACDBATTR
1070
     0
1070
     1
  0
LINE
  5
6488
  8
0
 10
598.538025538885563
 20
22.4328298210243986
 30
0.0
 11
598.538025538885563
 21
20.2028298210244017
 31
0.0
  0
LINE
  5
6489
  8
0
 10
598.1380255388855858
 20
22.4278298210243996
 30
0.0
 11
598.1380255388855858
 21
20.2078298210244007
 31
0.0
  0
LINE
  5
648A
  8
0
 10
597.3880255388855858
 20
21.662829821024399
 30
0.0
 11
597.3880255388855858
 21
20.9728298210244013
 31
0.0
  0
LINE
  5
648B
  8
0
 10
597.3480255388856222
 20
21.662829821024399
 30
0.0
 11
597.3480255388856222
 21
20.9728298210244013
 31
0.0
  0
LINE
  5
648C
  8
0
 10
596.8680255388854903
 20
22.1778298210243889
 30
0.0
 11
596.8680255388854903
 21
20.8778298210243989
 31
0.0
  0
LINE
  5
648D
  8
0
 10
596.6480255388856904
 20
22.1778298210243889
 30
0.0
 11
596.6480255388856904
 21
20.8778298210243989
 31
0.0
  0
LINE
  5
648E
  8
0
 10
596.8480255388856222
 20
22.1978298210243992
 30
0.0
 11
596.6680255388855585
 21
22.1978298210243992
 31
0.0
  0
ARC
  5
648F
  8
0
 10
596.8480255388856222
 20
22.1778298210243889
 30
0.0
 40
0.0200000000000014
 50
0.0000000000050889
 51
90.0
  0
LINE
  5
6490
  8
0
 10
596.8780255388855949
 20
21.662829821024399
 30
0.0
 11
597.3480255388856222
 21
21.662829821024399
 31
0.0
  0
LINE
  5
6491
  8
0
 10
597.3880255388855858
 20
21.662829821024399
 30
0.0
 11
598.1280255388854812
 21
21.662829821024399
 31
0.0
  0
ARC
  5
6492
  8
0
 10
596.8780255388855949
 20
21.6528298210244117
 30
0.0
 40
0.0099999999999909
 50
89.9999999999609201
 51
180.0
  0
LINE
  5
6493
  8
0
 10
597.3880255388855858
 20
21.662829821024399
 30
0.0
 11
597.3750966066854744
 21
21.6499008888244013
 31
0.0
  0
LINE
  5
6494
  8
0
 10
597.3480255388856222
 20
21.662829821024399
 30
0.0
 11
597.3609544710856198
 21
21.6499008888244013
 31
0.0
  0
ARC
  5
6495
  8
0
 10
597.368025538885604
 20
21.6569719569085315
 30
0.0
 40
0.0100000001841352
 50
225.0000011511604043
 51
314.9999988488397094
  0
ARC
  5
6496
  8
0
 10
598.1280255388854812
 20
21.6528298210244117
 30
0.0
 40
0.0099999999999927
 50
0.0000000000203555
 51
90.0000000000130314
  0
LINE
  5
6497
  8
0
 10
598.5280255388856858
 20
22.4428298210244002
 30
0.0
 11
598.1530255388855721
 21
22.4428298210244002
 31
0.0
  0
ARC
  5
6498
  8
0
 10
598.5280255388856858
 20
22.4328298210243986
 30
0.0
 40
0.0099999999999971
 50
359.9999999999847091
 51
90.0000000000195257
  0
ARC
  5
6499
  8
0
 10
598.1530255388855721
 20
22.4278298210243996
 30
0.0
 40
0.0149999999999988
 50
89.9999999999804601
 51
180.0000000000032117
  0
ARC
  5
649A
  8
0
 10
596.6680255388855585
 20
22.1778298210243889
 30
0.0
 40
0.0200000000000014
 50
89.9999999999934914
 51
179.9999999999949125
  0
LINE
  5
649B
  8
0
 10
596.8480255388856222
 20
20.8578298210243993
 30
0.0
 11
596.6680255388855585
 21
20.8578298210243993
 31
0.0
  0
ARC
  5
649C
  8
0
 10
596.8480255388856222
 20
20.8778298210243989
 30
0.0
 40
0.0200000000000014
 50
270.0
 51
359.9999999999948841
  0
LINE
  5
649D
  8
0
 10
596.8780255388855949
 20
20.9728298210244013
 30
0.0
 11
597.3480255388856222
 21
20.9728298210244013
 31
0.0
  0
LINE
  5
649E
  8
0
 10
597.3880255388855858
 20
20.9728298210244013
 30
0.0
 11
598.1280255388854812
 21
20.9728298210244013
 31
0.0
  0
ARC
  5
649F
  8
0
 10
596.8780255388855949
 20
20.9828298210243887
 30
0.0
 40
0.0099999999999909
 50
180.0
 51
270.0000000000391083
  0
LINE
  5
64A0
  8
0
 10
597.3880255388855858
 20
20.9728298210244013
 30
0.0
 11
597.3750966066854744
 21
20.985758753224399
 31
0.0
  0
LINE
  5
64A1
  8
0
 10
597.3480255388856222
 20
20.9728298210244013
 30
0.0
 11
597.3609544710856198
 21
20.985758753224399
 31
0.0
  0
ARC
  5
64A2
  8
0
 10
597.368025538885604
 20
20.9786876851402688
 30
0.0
 40
0.0100000001841352
 50
45.0000011511603617
 51
134.9999988488395957
  0
ARC
  5
64A3
  8
0
 10
598.1280255388854812
 20
20.9828298210243887
 30
0.0
 40
0.0099999999999927
 50
269.9999999999869829
 51
359.9999999999797069
  0
LINE
  5
64A4
  8
0
 10
598.5280255388856858
 20
20.1928298210244002
 30
0.0
 11
598.5165116323837537
 21
20.1928298210244002
 31
0.0
  0
LINE
  5
64A5
  8
0
 10
598.3395379643874321
 20
20.1928298210244002
 30
0.0
 11
598.1530255388855721
 21
20.1928298210244002
 31
0.0
  0
ARC
  5
64A6
  8
0
 10
598.5280255388856858
 20
20.2028298210244017
 30
0.0
 40
0.0099999999999971
 50
269.999999999980389
 51
0.0000000000152667
  0
ARC
  5
64A7
  8
0
 10
598.1530255388855721
 20
20.2078298210244007
 30
0.0
 40
0.0149999999999988
 50
179.9999999999967031
 51
270.000000000019611
  0
ARC
  5
64A8
  8
0
 10
596.6680255388855585
 20
20.8778298210243989
 30
0.0
 40
0.0200000000000014
 50
180.0000000000050875
 51
270.0000000000064801
  0
ARC
  5
64AA
  8
0
 10
598.4280247983856498
 20
19.0712022474243987
 30
0.0
 40
1.125112587099999
 50
85.4891951760821911
 51
94.5108048239177947
  0
ENDSEC
  0
EOF
