  0
SECTION
  2
HEADER
  9
$ACADVER
  1
AC1009
  9
$INSBASE
 10
597.613118653993638
 20
13.4988281290673893
 30
0.0
  9
$EXTMIN
 10
594.200807183536881
 20
12.3724167560482208
 30
-0.0015258207003583
  9
$EXTMAX
 10
597.6523166939974772
 20
14.6240693546039306
 30
0.0000000349246037
  9
$LIMMIN
 10
0.0
 20
0.0
  9
$LIMMAX
 10
11.6929133858000007
 20
8.2677165353999982
  9
$ORTHOMODE
 70
     1
  9
$REGENMODE
 70
     1
  9
$FILLMODE
 70
     1
  9
$QTEXTMODE
 70
     0
  9
$MIRRTEXT
 70
     0
  9
$DRAGMODE
 70
     2
  9
$LTSCALE
 40
0.6431102362
  9
$OSMODE
 70
    23
  9
$ATTMODE
 70
     1
  9
$TEXTSIZE
 40
0.2
  9
$TRACEWID
 40
0.05
  9
$TEXTSTYLE
  7
STANDARD
  9
$CLAYER
  8
0
  9
$CELTYPE
  6
BYLAYER
  9
$CECOLOR
 62
   256
  9
$DIMSCALE
 40
1.0
  9
$DIMASZ
 40
0.1875
  9
$DIMEXO
 40
0.0625
  9
$DIMDLI
 40
0.4443307087
  9
$DIMRND
 40
0.0
  9
$DIMDLE
 40
0.0
  9
$DIMEXE
 40
0.125
  9
$DIMTP
 40
0.01
  9
$DIMTM
 40
0.01
  9
$DIMTXT
 40
2.0
  9
$DIMCEN
 40
0.1052362205
  9
$DIMTSZ
 40
0.0
  9
$DIMTOL
 70
     1
  9
$DIMLIM
 70
     0
  9
$DIMTIH
 70
     1
  9
$DIMTOH
 70
     1
  9
$DIMSE1
 70
     0
  9
$DIMSE2
 70
     0
  9
$DIMTAD
 70
     0
  9
$DIMZIN
 70
     0
  9
$DIMBLK
  1

  9
$DIMASO
 70
     1
  9
$DIMSHO
 70
     1
  9
$DIMPOST
  1
\X
  9
$DIMAPOST
  1

  9
$DIMALT
 70
     1
  9
$DIMALTD
 70
     2
  9
$DIMALTF
 40
25.3999999999999986
  9
$DIMLFAC
 40
1.0
  9
$DIMTOFL
 70
     0
  9
$DIMTVP
 40
0.0
  9
$DIMTIX
 70
     0
  9
$DIMSOXD
 70
     0
  9
$DIMSAH
 70
     0
  9
$DIMBLK1
  1

  9
$DIMBLK2
  1

  9
$DIMSTYLE
  2
STANDARD
  9
$DIMCLRD
 70
     0
  9
$DIMCLRE
 70
     0
  9
$DIMCLRT
 70
     0
  9
$DIMTFAC
 40
1.0
  9
$DIMGAP
 40
0.09
  9
$LUNITS
 70
     2
  9
$LUPREC
 70
     4
  9
$SKETCHINC
 40
0.1
  9
$FILLETRAD
 40
0.0
  9
$AUNITS
 70
     0
  9
$AUPREC
 70
     0
  9
$MENU
  1
.
  9
$ELEVATION
 40
0.0
  9
$PELEVATION
 40
0.0
  9
$THICKNESS
 40
0.0
  9
$LIMCHECK
 70
     0
  9
$BLIPMODE
 70
     0
  9
$CHAMFERA
 40
0.0
  9
$CHAMFERB
 40
0.0
  9
$SKPOLY
 70
     0
  9
$TDCREATE
 40
2458106.4931018520146608
  9
$TDUPDATE
 40
2459720.7508217599242926
  9
$TDINDWG
 40
0.2841999537
  9
$TDUSRTIMER
 40
0.2841999537
  9
$USRTIMER
 70
     1
  9
$ANGBASE
 50
0.0
  9
$ANGDIR
 70
     0
  9
$PDMODE
 70
     0
  9
$PDSIZE
 40
0.3125
  9
$PLINEWID
 40
0.0
  9
$COORDS
 70
     1
  9
$SPLFRAME
 70
     0
  9
$SPLINETYPE
 70
     6
  9
$SPLINESEGS
 70
     8
  9
$ATTDIA
 70
     1
  9
$ATTREQ
 70
     1
  9
$HANDLING
 70
     1
  9
$HANDSEED
  5
64EC
  9
$SURFTAB1
 70
     6
  9
$SURFTAB2
 70
     6
  9
$SURFTYPE
 70
     6
  9
$SURFU
 70
     6
  9
$SURFV
 70
     6
  9
$UCSNAME
  2

  9
$UCSORG
 10
0.0
 20
0.0
 30
0.0
  9
$UCSXDIR
 10
1.0
 20
0.0
 30
0.0
  9
$UCSYDIR
 10
0.0
 20
1.0
 30
0.0
  9
$PUCSNAME
  2

  9
$PUCSORG
 10
0.0
 20
0.0
 30
0.0
  9
$PUCSXDIR
 10
1.0
 20
0.0
 30
0.0
  9
$PUCSYDIR
 10
0.0
 20
1.0
 30
0.0
  9
$USERI1
 70
     0
  9
$USERI2
 70
     0
  9
$USERI3
 70
     0
  9
$USERI4
 70
     0
  9
$USERI5
 70
     0
  9
$USERR1
 40
0.0
  9
$USERR2
 40
0.0
  9
$USERR3
 40
0.0
  9
$USERR4
 40
0.0
  9
$USERR5
 40
0.0
  9
$WORLDVIEW
 70
     1
  9
$SHADEDGE
 70
     3
  9
$SHADEDIF
 70
    70
  9
$TILEMODE
 70
     1
  9
$MAXACTVP
 70
    64
  9
$PLIMCHECK
 70
     0
  9
$PEXTMIN
 10
1.0000000000000000E+20
 20
1.0000000000000000E+20
 30
1.0000000000000000E+20
  9
$PEXTMAX
 10
-1.0000000000000000E+20
 20
-1.0000000000000000E+20
 30
-1.0000000000000000E+20
  9
$PLIMMIN
 10
0.0
 20
0.0
  9
$PLIMMAX
 10
12.0
 20
9.0
  9
$UNITMODE
 70
     0
  9
$VISRETAIN
 70
     1
  9
$PLINEGEN
 70
     0
  9
$PSLTSCALE
 70
     1
  0
ENDSEC
  0
SECTION
  2
TABLES
  0
TABLE
  2
VPORT
 70
     1
  0
VPORT
  2
*ACTIVE
 70
     0
 10
0.0
 20
0.0
 11
1.0
 21
1.0
 12
322.352360382254119
 22
31.1042037893475509
 13
0.0
 23
0.0
 14
1.0
 24
1.0
 15
0.0
 25
0.0
 16
-0.0000000000000568
 26
0.0
 36
193.9250709296327955
 17
273.5742015565131169
 27
-17.6059607340214797
 37
0.0
 40
2.2668918528233148
 41
2.005224660397074
 42
50.0
 43
0.0
 44
0.0
 50
0.0
 51
0.0
 71
     0
 72
   100
 73
     1
 74
     1
 75
     0
 76
     0
 77
     0
 78
     0
  0
ENDTAB
  0
TABLE
  2
LTYPE
 70
     2
  0
LTYPE
  2
CONTINUOUS
 70
     0
  3
Solid line
 72
    65
 73
     0
 40
0.0
  0
LTYPE
  2
PHANTOM2
 70
     0
  3
___ _ _ ___ _ _ ___ _ _ ___ _ _
 72
    65
 73
     6
 40
1.25
 49
0.625
 49
-0.125
 49
0.125
 49
-0.125
 49
0.125
 49
-0.125
  0
ENDTAB
  0
TABLE
  2
LAYER
 70
     2
  0
LAYER
  2
0
 70
     0
 62
   255
  6
CONTINUOUS
  0
LAYER
  2
DEFPOINTS
 70
     0
 62
     7
  6
CONTINUOUS
  0
ENDTAB
  0
TABLE
  2
STYLE
 70
     1
  0
STYLE
  2
STANDARD
 70
     0
 40
0.0
 41
0.8
 50
0.0
 71
     0
 42
0.2
  3
txt
  4

  0
ENDTAB
  0
TABLE
  2
VIEW
 70
     0
  0
ENDTAB
  0
TABLE
  2
UCS
 70
     0
  0
ENDTAB
  0
TABLE
  2
APPID
 70
     9
  0
APPID
  2
ACAD
 70
     0
  0
APPID
  2
ACAD_MLEADERVER
 70
     0
  0
APPID
  2
ACAD_EXEMPT_FROM_CAD_STANDARDS
 70
     0
  0
APPID
  2
ACAD_NAV_VCDISPLAY
 70
     0
  0
APPID
  2
ACAD_DSTYLE_DIMJAG
 70
     0
  0
APPID
  2
ACAD_DSTYLE_DIMTALN
 70
     0
  0
APPID
  2
ACAECLAYERSTANDARD
 70
     0
  0
APPID
  2
ACCMTRANSPARENCY
 70
     0
  0
APPID
  2
ACDBATTR
 70
     0
  0
ENDTAB
  0
TABLE
  2
DIMSTYLE
 70
     1
  0
DIMSTYLE
  2
STANDARD
 70
     0
  3

  4

  5

  6

  7

 40
1.0
 41
0.1875
 42
0.0625
 43
0.38
 44
0.125
 45
0.0
 46
0.0
 47
0.01
 48
0.01
140
0.15625
141
0.09
142
0.0
143
25.3999999999999986
144
1.0
145
0.0
146
1.0
147
0.09
 71
     1
 72
     0
 73
     1
 74
     1
 75
     0
 76
     0
 77
     0
 78
     4
170
     0
171
     2
172
     0
173
     0
174
     0
175
     0
176
     0
177
     0
178
     0
  0
ENDTAB
  0
ENDSEC
  0
SECTION
  2
BLOCKS
  0
BLOCK
  8
0
  2
$MODEL_SPACE
 70
     0
 10
0.0
 20
0.0
 30
0.0
  3
$MODEL_SPACE
  1

  0
ENDBLK
  5
21
  8
0
  0
BLOCK
 67
     1
  8
0
  2
$PAPER_SPACE
 70
     0
 10
0.0
 20
0.0
 30
0.0
  3
$PAPER_SPACE
  1

  0
ENDBLK
  5
1D
 67
     1
  8
0
  0
ENDSEC
  0
SECTION
  2
ENTITIES
  0
ATTDEF
  5
FAA
  8
DEFPOINTS
 10
597.6132710158696
 20
13.5023091113393896
 30
0.0
 40
0.001
  1
P34402-00
  3

  2
MODELNUMBER
 70
     0
1001
ACDBATTR
1070
     0
1070
     1
  0
ATTDEF
  5
FAB
  8
DEFPOINTS
 10
597.6132710158696
 20
13.5006424446727298
 30
0.0
 40
0.001
  1
ONE
  3

  2
TRADENAME
 70
     0
1001
ACDBATTR
1070
     0
1070
     1
  0
ATTDEF
  5
FAC
  8
DEFPOINTS
 10
597.6132710158696
 20
13.49897577800607
 30
0.0
 40
0.001
  1
TOWEL BAR
  3

  2
PRODUCT
 70
     0
1001
ACDBATTR
1070
     0
1070
     1
  0
LINE
  5
6410
  8
0
 10
597.613118653993638
 20
14.6138281290673895
 30
0.0
 11
597.613118653993638
 21
12.3838281290673802
 31
0.0
  0
LINE
  5
6411
  8
0
 10
597.213118653993547
 20
14.6088281290673905
 30
0.0
 11
597.213118653993547
 21
12.3888281290673792
 31
0.0
  0
LINE
  5
6412
  8
0
 10
597.6031186539936471
 20
14.6238281290673893
 30
0.0
 11
597.2281186539936471
 21
14.6238281290673893
 31
0.0
  0
ARC
  5
6413
  8
0
 10
597.6031186539936471
 20
14.6138281290673895
 30
0.0
 40
0.009999999999998
 50
359.9999999999797069
 51
90.0000000000130314
  0
ARC
  5
6414
  8
0
 10
597.2281186539936471
 20
14.6088281290673905
 30
0.0
 40
0.0149999999999953
 50
89.9999999999869686
 51
180.0000000000202931
  0
LINE
  5
6415
  8
0
 10
597.2031186539935561
 20
13.8438281290673899
 30
0.0
 11
594.9931186539936334
 21
13.8438281290673899
 31
0.0
  0
LINE
  5
6416
  8
0
 10
594.9731186539936516
 20
13.8438281290673899
 30
0.0
 11
594.2431186539936334
 21
13.8438281290673899
 31
0.0
  0
ARC
  5
6417
  8
0
 10
597.2031186539935561
 20
13.8338281290673795
 30
0.0
 40
0.0099999999999993
 50
0.0
 51
90.0000000000130314
  0
ARC
  5
6418
  8
0
 10
594.9931186539936334
 20
13.8338281290673795
 30
0.0
 40
0.0100000000000064
 50
90.0
 51
179.9999999999641034
  0
ARC
  5
6419
  8
0
 10
594.9731186539936516
 20
13.8338281290673901
 30
0.0
 40
0.0099999999999901
 50
359.9999999999641886
 51
90.0
  0
ARC
  5
641A
  8
0
 10
594.2431186539936334
 20
13.8338281290673901
 30
0.0
 40
0.0099999999999994
 50
90.0
 51
180.0
  0
LINE
  5
641B
  8
0
 10
597.2031186539935561
 20
13.1538281290673904
 30
0.0
 11
594.9931186539936334
 21
13.1538281290673904
 31
0.0
  0
ARC
  5
641C
  8
0
 10
597.2031186539935561
 20
13.1638281290673795
 30
0.0
 40
0.0099999999999993
 50
269.9999999999869829
 51
0.0
  0
ARC
  5
641D
  8
0
 10
594.9931186539936334
 20
13.1638281290673902
 30
0.0
 40
0.0100000000000064
 50
180.0000000000352998
 51
270.0
  0
LINE
  5
641E
  8
0
 10
597.6031186539936471
 20
12.3738281290673893
 30
0.0
 11
597.2281186539936471
 21
12.3738281290673893
 31
0.0
  0
ARC
  5
641F
  8
0
 10
597.6031186539936471
 20
12.3838281290673802
 30
0.0
 40
0.009999999999998
 50
269.9999999999869829
 51
0.0000000000203555
  0
ARC
  5
6420
  8
0
 10
597.2281186539936471
 20
12.3888281290673792
 30
0.0
 40
0.0149999999999953
 50
179.9999999999795932
 51
270.0000000000130171
  0
LINE
  5
6421
  8
0
 10
594.2331186539936425
 20
13.8338281290673901
 30
0.0
 11
594.2331186539936425
 21
13.1638281290673795
 31
0.0
  0
LINE
  5
6422
  8
0
 10
594.9731186539936516
 20
13.1538281290673904
 30
0.0
 11
594.2431186539936334
 21
13.1538281290673904
 31
0.0
  0
ARC
  5
6423
  8
0
 10
594.9731186539936516
 20
13.1638281290673795
 30
0.0
 40
0.0099999999999901
 50
270.0
 51
0.0000000000358258
  0
ARC
  5
6424
  8
0
 10
594.2431186539936334
 20
13.1638281290673795
 30
0.0
 40
0.0099999999999994
 50
180.0
 51
270.0
  0
LINE
  5
6425
  8
0
 10
594.9831186539936425
 20
13.8338281290673901
 30
0.0
 11
594.9831186539936425
 21
13.1638281290673902
 31
0.0
  0
ENDSEC
  0
EOF
