  0
SECTION
  2
HEADER
  9
$ACADVER
  1
AC1009
  9
$INSBASE
 10
4490.0108310923078534
 20
174.2138242589315951
 30
0.0
  9
$EXTMIN
 10
4485.0709199490902392
 20
169.4835752189721063
 30
-0.0000000000000058
  9
$EXTMAX
 10
4491.9248389069625773
 20
175.2736108261709091
 30
0.0000000000000104
  9
$LIMMIN
 10
0.0
 20
0.0
  9
$LIMMAX
 10
11.6929133858000007
 20
8.2677165353999982
  9
$ORTHOMODE
 70
     0
  9
$REGENMODE
 70
     1
  9
$FILLMODE
 70
     1
  9
$QTEXTMODE
 70
     0
  9
$MIRRTEXT
 70
     0
  9
$DRAGMODE
 70
     2
  9
$LTSCALE
 40
0.6431102362
  9
$OSMODE
 70
  3839
  9
$ATTMODE
 70
     1
  9
$TEXTSIZE
 40
0.2
  9
$TRACEWID
 40
0.05
  9
$TEXTSTYLE
  7
STANDARD
  9
$CLAYER
  8
0
  9
$CELTYPE
  6
BYLAYER
  9
$CECOLOR
 62
   256
  9
$DIMSCALE
 40
1.0
  9
$DIMASZ
 40
0.1875
  9
$DIMEXO
 40
0.0625
  9
$DIMDLI
 40
0.4443307087
  9
$DIMRND
 40
0.0
  9
$DIMDLE
 40
0.0
  9
$DIMEXE
 40
0.125
  9
$DIMTP
 40
0.01
  9
$DIMTM
 40
0.01
  9
$DIMTXT
 40
2.0
  9
$DIMCEN
 40
0.1052362205
  9
$DIMTSZ
 40
0.0
  9
$DIMTOL
 70
     1
  9
$DIMLIM
 70
     0
  9
$DIMTIH
 70
     1
  9
$DIMTOH
 70
     1
  9
$DIMSE1
 70
     0
  9
$DIMSE2
 70
     0
  9
$DIMTAD
 70
     0
  9
$DIMZIN
 70
     0
  9
$DIMBLK
  1

  9
$DIMASO
 70
     1
  9
$DIMSHO
 70
     1
  9
$DIMPOST
  1
\X
  9
$DIMAPOST
  1

  9
$DIMALT
 70
     1
  9
$DIMALTD
 70
     2
  9
$DIMALTF
 40
25.3999999999999986
  9
$DIMLFAC
 40
1.0
  9
$DIMTOFL
 70
     0
  9
$DIMTVP
 40
0.0
  9
$DIMTIX
 70
     0
  9
$DIMSOXD
 70
     0
  9
$DIMSAH
 70
     0
  9
$DIMBLK1
  1

  9
$DIMBLK2
  1

  9
$DIMSTYLE
  2
STANDARD
  9
$DIMCLRD
 70
     0
  9
$DIMCLRE
 70
     0
  9
$DIMCLRT
 70
     0
  9
$DIMTFAC
 40
1.0
  9
$DIMGAP
 40
0.09
  9
$LUNITS
 70
     2
  9
$LUPREC
 70
     4
  9
$SKETCHINC
 40
0.1
  9
$FILLETRAD
 40
0.0
  9
$AUNITS
 70
     0
  9
$AUPREC
 70
     0
  9
$MENU
  1
.
  9
$ELEVATION
 40
0.0
  9
$PELEVATION
 40
0.0
  9
$THICKNESS
 40
0.0
  9
$LIMCHECK
 70
     0
  9
$BLIPMODE
 70
     0
  9
$CHAMFERA
 40
0.0
  9
$CHAMFERB
 40
0.0
  9
$SKPOLY
 70
     0
  9
$TDCREATE
 40
2458060.468368056230247
  9
$TDUPDATE
 40
2460269.5729166669771075
  9
$TDINDWG
 40
0.5147871528
  9
$TDUSRTIMER
 40
0.5147871528
  9
$USRTIMER
 70
     1
  9
$ANGBASE
 50
0.0
  9
$ANGDIR
 70
     0
  9
$PDMODE
 70
     0
  9
$PDSIZE
 40
0.3125
  9
$PLINEWID
 40
0.0
  9
$COORDS
 70
     1
  9
$SPLFRAME
 70
     0
  9
$SPLINETYPE
 70
     6
  9
$SPLINESEGS
 70
     8
  9
$ATTDIA
 70
     1
  9
$ATTREQ
 70
     1
  9
$HANDLING
 70
     1
  9
$HANDSEED
  5
11FBE
  9
$SURFTAB1
 70
     6
  9
$SURFTAB2
 70
     6
  9
$SURFTYPE
 70
     6
  9
$SURFU
 70
     6
  9
$SURFV
 70
     6
  9
$UCSNAME
  2

  9
$UCSORG
 10
0.0
 20
0.0
 30
0.0
  9
$UCSXDIR
 10
1.0
 20
0.0
 30
0.0
  9
$UCSYDIR
 10
0.0
 20
1.0
 30
0.0
  9
$PUCSNAME
  2

  9
$PUCSORG
 10
0.0
 20
0.0
 30
0.0
  9
$PUCSXDIR
 10
1.0
 20
0.0
 30
0.0
  9
$PUCSYDIR
 10
0.0
 20
1.0
 30
0.0
  9
$USERI1
 70
     0
  9
$USERI2
 70
     0
  9
$USERI3
 70
     0
  9
$USERI4
 70
     0
  9
$USERI5
 70
     0
  9
$USERR1
 40
0.0
  9
$USERR2
 40
0.0
  9
$USERR3
 40
0.0
  9
$USERR4
 40
0.0
  9
$USERR5
 40
0.0
  9
$WORLDVIEW
 70
     1
  9
$SHADEDGE
 70
     3
  9
$SHADEDIF
 70
    70
  9
$TILEMODE
 70
     1
  9
$MAXACTVP
 70
    64
  9
$PLIMCHECK
 70
     0
  9
$PEXTMIN
 10
1.0000000000000000E+20
 20
1.0000000000000000E+20
 30
1.0000000000000000E+20
  9
$PEXTMAX
 10
-1.0000000000000000E+20
 20
-1.0000000000000000E+20
 30
-1.0000000000000000E+20
  9
$PLIMMIN
 10
0.0
 20
0.0
  9
$PLIMMAX
 10
12.0
 20
9.0
  9
$UNITMODE
 70
     0
  9
$VISRETAIN
 70
     1
  9
$PLINEGEN
 70
     0
  9
$PSLTSCALE
 70
     1
  0
ENDSEC
  0
SECTION
  2
TABLES
  0
TABLE
  2
VPORT
 70
     1
  0
VPORT
  2
*ACTIVE
 70
     0
 10
0.0
 20
0.0
 11
1.0
 21
1.0
 12
684.953812045214363
 22
46.3833308258216022
 13
0.0
 23
0.0
 14
1.0
 24
1.0
 15
0.0
 25
0.0
 16
0.0
 26
0.0
 36
17.1152628219792007
 17
3803.5440673828129547
 27
125.9952621967499056
 37
0.0
 40
5.8314917093984064
 41
2.2831541218637992
 42
50.0
 43
0.0
 44
0.0
 50
0.0
 51
0.0
 71
     0
 72
   100
 73
     1
 74
     1
 75
     0
 76
     0
 77
     0
 78
     2
  0
ENDTAB
  0
TABLE
  2
LTYPE
 70
     2
  0
LTYPE
  2
CONTINUOUS
 70
     0
  3
Solid line
 72
    65
 73
     0
 40
0.0
  0
LTYPE
  2
PHANTOM2
 70
     0
  3
___ _ _ ___ _ _ ___ _ _ ___ _ _
 72
    65
 73
     6
 40
1.25
 49
0.625
 49
-0.125
 49
0.125
 49
-0.125
 49
0.125
 49
-0.125
  0
ENDTAB
  0
TABLE
  2
LAYER
 70
     2
  0
LAYER
  2
0
 70
     0
 62
   255
  6
CONTINUOUS
  0
LAYER
  2
DEFPOINTS
 70
     0
 62
     7
  6
CONTINUOUS
  0
ENDTAB
  0
TABLE
  2
STYLE
 70
     1
  0
STYLE
  2
STANDARD
 70
     0
 40
0.0
 41
0.8
 50
0.0
 71
     0
 42
0.2
  3
txt
  4

  0
ENDTAB
  0
TABLE
  2
VIEW
 70
     0
  0
ENDTAB
  0
TABLE
  2
UCS
 70
     0
  0
ENDTAB
  0
TABLE
  2
APPID
 70
    10
  0
APPID
  2
ACAD
 70
     0
  0
APPID
  2
ACAD_MLEADERVER
 70
     0
  0
APPID
  2
ACAD_EXEMPT_FROM_CAD_STANDARDS
 70
     0
  0
APPID
  2
ACAD_NAV_VCDISPLAY
 70
     0
  0
APPID
  2
ACAECLAYERSTANDARD
 70
     0
  0
APPID
  2
ACCMTRANSPARENCY
 70
     0
  0
APPID
  2
ACAD_DSTYLE_DIMJAG
 70
     0
  0
APPID
  2
ACAD_DSTYLE_DIMTALN
 70
     0
  0
APPID
  2
ACDBATTR
 70
     0
  0
APPID
  2
ACLAYERTOOLS
 70
     0
  0
ENDTAB
  0
TABLE
  2
DIMSTYLE
 70
     1
  0
DIMSTYLE
  2
STANDARD
 70
     0
  3

  4

  5

  6

  7

 40
1.0
 41
0.1875
 42
0.0625
 43
0.38
 44
0.125
 45
0.0
 46
0.0
 47
0.01
 48
0.01
140
0.15625
141
0.09
142
0.0
143
25.3999999999999986
144
1.0
145
0.0
146
1.0
147
0.09
 71
     1
 72
     0
 73
     1
 74
     1
 75
     0
 76
     0
 77
     0
 78
     4
170
     0
171
     2
172
     0
173
     0
174
     0
175
     0
176
     0
177
     0
178
     0
  0
ENDTAB
  0
ENDSEC
  0
SECTION
  2
BLOCKS
  0
BLOCK
  8
0
  2
$MODEL_SPACE
 70
     0
 10
0.0
 20
0.0
 30
0.0
  3
$MODEL_SPACE
  1

  0
ENDBLK
  5
21
  8
0
  0
BLOCK
 67
     1
  8
0
  2
$PAPER_SPACE
 70
     0
 10
0.0
 20
0.0
 30
0.0
  3
$PAPER_SPACE
  1

  0
ENDBLK
  5
1D
 67
     1
  8
0
  0
ENDSEC
  0
SECTION
  2
ENTITIES
  0
ATTDEF
  5
11493
  8
DEFPOINTS
 10
4490.0112800376336963
 20
174.2178546655113962
 30
0.0
 40
0.001
  1
P34247-00
  3

  2
MODELNUMBER
 70
     0
1001
ACDBATTR
1070
     0
1070
     1
  0
ATTDEF
  5
11494
  8
DEFPOINTS
 10
4490.0112800376336963
 20
174.2161879988447026
 30
0.0
 40
0.001
  1
GUISE
  3

  2
TRADENAME
 70
     0
1001
ACDBATTR
1070
     0
1070
     1
  0
ATTDEF
  5
11495
  8
DEFPOINTS
 10
4490.0112800376336963
 20
174.2145213321780943
 30
0.0
 40
0.001
  1
TOWEL RING
  3

  2
PRODUCT
 70
     0
1001
ACDBATTR
1070
     0
1070
     1
  0
LINE
  5
11B80
  8
0
 10
4485.3563232183078071
 20
171.8123281959815927
 30
0.0
 11
4485.1213533770078357
 21
171.8123281959815927
 31
0.0
  0
ARC
  5
11B81
  8
0
 10
4485.1213526562996776
 20
171.7723299359250859
 30
0.0
 40
0.0399982600629776
 50
89.9989676166359232
 51
180.0024923939157873
  0
LINE
  5
11B82
  8
0
 10
4485.0813543962749463
 20
171.7723281959816006
 30
0.0
 11
4485.0813543962749463
 21
170.3101680150815866
 31
0.0
  0
ARC
  5
11B83
  8
0
 10
4485.8963227392796398
 20
170.3101662750871981
 30
0.0
 40
0.8149683430059114
 50
179.9998776709090862
 51
270.0000506773856159
  0
LINE
  5
11B84
  8
0
 10
4485.8963234601087606
 20
169.4951979320815951
 30
0.0
 11
4490.8981342376091561
 21
169.4951979326953904
 31
0.0
  0
ARC
  5
11B85
  8
0
 10
4490.8981342374872838
 20
170.3101680158480065
 30
0.0
 40
0.8149700831526757
 50
270.0000000085461238
 51
359.9999999461181233
  0
LINE
  5
11B86
  8
0
 10
4491.7131043206400136
 20
170.3101680150815866
 30
0.0
 11
4491.7131043206400136
 21
173.5492179596816129
 31
0.0
  0
ARC
  5
11B87
  8
0
 10
4491.6981043254418182
 20
173.5492179644847113
 30
0.0
 40
0.014999995196974
 50
359.9999816537887227
 51
90.0000184640536247
  0
LINE
  5
11B88
  8
0
 10
4491.6981043206078539
 20
173.5642179596815993
 30
0.0
 11
4490.0108310923069439
 21
173.5642179597815868
 31
0.0
  0
ARC
  5
11B89
  8
0
 10
4491.4131342447581119
 20
173.5492179026902875
 30
0.0
 40
0.0150000028499593
 50
90.0000108856139889
 51
179.999782309311712
  0
LINE
  5
11B8A
  8
0
 10
4491.3981342419083376
 20
173.5492179596816129
 30
0.0
 11
4491.3981219353991037
 21
170.3101680133050024
 31
0.0
  0
ARC
  5
11B8B
  8
0
 10
4490.8981200329608328
 20
170.3101699130218947
 30
0.0
 40
0.5000019024421285
 50
270.0016282192457879
 51
359.9997823093116835
  0
LINE
  5
11B8C
  8
0
 10
4490.8981342419083376
 20
169.8101680107816094
 30
0.0
 11
4485.896323220328668
 21
169.8100258703844077
 31
0.0
  0
ARC
  5
11B8D
  8
0
 10
4485.8963090118377295
 20
170.3100116881493875
 30
0.0
 40
0.499985817966943
 50
179.9820862374668877
 51
270.0016282192457879
  0
LINE
  5
11B8E
  8
0
 10
4485.3963232183086802
 20
170.3101680107816094
 30
0.0
 11
4485.3967803687328342
 21
171.7723281245166049
 31
0.0
  0
ARC
  5
11B8F
  8
0
 10
4485.3567593005327581
 20
171.7723094993635016
 30
0.0
 40
0.0400210725333951
 50
0.0266645204819272
 51
90.6243252335026312
  0
ARC
  5
11B90
  8
0
 10
4491.6731043105519348
 20
173.604217965019501
 30
0.0
 40
0.0400000100876005
 50
270.0000144052415862
 51
359.9999924973221255
  0
LINE
  5
11B91
  8
0
 10
4491.7131043206400136
 20
173.6042179597816073
 30
0.0
 11
4491.7131043206400136
 21
174.8234305580816113
 31
0.0
  0
ARC
  5
11B92
  8
0
 10
4491.6731045955712034
 20
174.8234308330135036
 30
0.0
 40
0.0399997250691156
 50
359.999606186442918
 51
90.0003938577579419
  0
LINE
  5
11B93
  8
0
 10
4491.6731043206091272
 20
174.8634305580816033
 30
0.0
 11
4490.0108317393278412
 21
174.8634574281252014
 31
0.0
  0
ARC
  5
11B94
  8
0
 10
4490.8922214378017088
 20
174.9832141515612136
 30
0.0
 40
0.1199325983840502
 50
221.5024232688265045
 51
272.8258881621094929
  0
ARC
  5
11B95
  8
0
 10
4490.0108401749339464
 20
174.2138484707180908
 30
0.0
 40
1.0500090750484641
 50
41.0740935306706518
 51
318.8917990550514787
  0
ARC
  5
11B96
  8
0
 10
4490.892235674573385
 20
173.4443059285499089
 30
0.0
 40
0.1200570210639882
 50
87.1838454248502899
 51
138.7371595144298055
  0
ARC
  5
11B97
  8
0
 10
4491.438132605080682
 20
174.8234312360781928
 30
0.0
 40
0.0399983631772685
 50
89.9976553199545179
 51
180.0009710550232001
  0
LINE
  5
11B98
  8
0
 10
4491.3981342419083376
 20
174.8234305581815988
 30
0.0
 11
4491.398154905255069
 21
173.6042179597457107
 31
0.0
  0
ARC
  5
11B99
  8
0
 10
4491.4381555889440278
 20
173.6042186376816119
 30
0.0
 40
0.0400006836960679
 50
180.0009710550249054
 51
269.9694231439697774
  0
ARC
  5
11B9A
  8
0
 10
4490.0108310923078534
 20
174.2138242589815889
 30
0.0
 40
0.6496062992000003
 50
90.0000004330879335
 51
269.999999999791612
  0
ENDSEC
  0
EOF
