  0
SECTION
  2
HEADER
  9
$ACADVER
  1
AC1009
  9
$INSBASE
 10
6096.0694373082160382
 20
181.1688322197846901
 30
0.0
  9
$EXTMIN
 10
6082.2704275454379967
 20
177.5104683095844962
 30
-0.0000000000112498
  9
$EXTMAX
 10
6109.7738658465641493
 20
181.1735843762473053
 30
0.0000000000002956
  9
$LIMMIN
 10
0.0
 20
0.0
  9
$LIMMAX
 10
11.6929133858000007
 20
8.2677165353999982
  9
$ORTHOMODE
 70
     0
  9
$REGENMODE
 70
     1
  9
$FILLMODE
 70
     1
  9
$QTEXTMODE
 70
     0
  9
$MIRRTEXT
 70
     0
  9
$DRAGMODE
 70
     2
  9
$LTSCALE
 40
0.6431102362
  9
$OSMODE
 70
  4095
  9
$ATTMODE
 70
     1
  9
$TEXTSIZE
 40
0.2
  9
$TRACEWID
 40
0.05
  9
$TEXTSTYLE
  7
STANDARD
  9
$CLAYER
  8
0
  9
$CELTYPE
  6
BYLAYER
  9
$CECOLOR
 62
   256
  9
$DIMSCALE
 40
1.0
  9
$DIMASZ
 40
0.1875
  9
$DIMEXO
 40
0.0625
  9
$DIMDLI
 40
0.4443307087
  9
$DIMRND
 40
0.0
  9
$DIMDLE
 40
0.0
  9
$DIMEXE
 40
0.125
  9
$DIMTP
 40
0.01
  9
$DIMTM
 40
0.01
  9
$DIMTXT
 40
2.0
  9
$DIMCEN
 40
0.1052362205
  9
$DIMTSZ
 40
0.0
  9
$DIMTOL
 70
     1
  9
$DIMLIM
 70
     0
  9
$DIMTIH
 70
     1
  9
$DIMTOH
 70
     1
  9
$DIMSE1
 70
     0
  9
$DIMSE2
 70
     0
  9
$DIMTAD
 70
     0
  9
$DIMZIN
 70
     0
  9
$DIMBLK
  1

  9
$DIMASO
 70
     1
  9
$DIMSHO
 70
     1
  9
$DIMPOST
  1
\X
  9
$DIMAPOST
  1

  9
$DIMALT
 70
     1
  9
$DIMALTD
 70
     2
  9
$DIMALTF
 40
25.3999999999999986
  9
$DIMLFAC
 40
1.0
  9
$DIMTOFL
 70
     0
  9
$DIMTVP
 40
0.0
  9
$DIMTIX
 70
     0
  9
$DIMSOXD
 70
     0
  9
$DIMSAH
 70
     0
  9
$DIMBLK1
  1

  9
$DIMBLK2
  1

  9
$DIMSTYLE
  2
STANDARD
  9
$DIMCLRD
 70
     0
  9
$DIMCLRE
 70
     0
  9
$DIMCLRT
 70
     0
  9
$DIMTFAC
 40
1.0
  9
$DIMGAP
 40
0.09
  9
$LUNITS
 70
     2
  9
$LUPREC
 70
     4
  9
$SKETCHINC
 40
0.1
  9
$FILLETRAD
 40
0.0
  9
$AUNITS
 70
     0
  9
$AUPREC
 70
     0
  9
$MENU
  1
.
  9
$ELEVATION
 40
0.0
  9
$PELEVATION
 40
0.0
  9
$THICKNESS
 40
0.0
  9
$LIMCHECK
 70
     0
  9
$BLIPMODE
 70
     0
  9
$CHAMFERA
 40
0.0
  9
$CHAMFERB
 40
0.0
  9
$SKPOLY
 70
     0
  9
$TDCREATE
 40
2458060.468368056230247
  9
$TDUPDATE
 40
2460256.7688888888806105
  9
$TDINDWG
 40
0.720608912
  9
$TDUSRTIMER
 40
0.720608912
  9
$USRTIMER
 70
     1
  9
$ANGBASE
 50
0.0
  9
$ANGDIR
 70
     0
  9
$PDMODE
 70
     0
  9
$PDSIZE
 40
0.3125
  9
$PLINEWID
 40
0.0
  9
$COORDS
 70
     1
  9
$SPLFRAME
 70
     0
  9
$SPLINETYPE
 70
     6
  9
$SPLINESEGS
 70
     8
  9
$ATTDIA
 70
     1
  9
$ATTREQ
 70
     1
  9
$HANDLING
 70
     1
  9
$HANDSEED
  5
2A329
  9
$SURFTAB1
 70
     6
  9
$SURFTAB2
 70
     6
  9
$SURFTYPE
 70
     6
  9
$SURFU
 70
     6
  9
$SURFV
 70
     6
  9
$UCSNAME
  2

  9
$UCSORG
 10
0.0
 20
0.0
 30
0.0
  9
$UCSXDIR
 10
1.0
 20
0.0
 30
0.0
  9
$UCSYDIR
 10
0.0
 20
1.0
 30
0.0
  9
$PUCSNAME
  2

  9
$PUCSORG
 10
0.0
 20
0.0
 30
0.0
  9
$PUCSXDIR
 10
1.0
 20
0.0
 30
0.0
  9
$PUCSYDIR
 10
0.0
 20
1.0
 30
0.0
  9
$USERI1
 70
     0
  9
$USERI2
 70
     0
  9
$USERI3
 70
     0
  9
$USERI4
 70
     0
  9
$USERI5
 70
     0
  9
$USERR1
 40
0.0
  9
$USERR2
 40
0.0
  9
$USERR3
 40
0.0
  9
$USERR4
 40
0.0
  9
$USERR5
 40
0.0
  9
$WORLDVIEW
 70
     1
  9
$SHADEDGE
 70
     3
  9
$SHADEDIF
 70
    70
  9
$TILEMODE
 70
     1
  9
$MAXACTVP
 70
    64
  9
$PLIMCHECK
 70
     0
  9
$PEXTMIN
 10
1.0000000000000000E+20
 20
1.0000000000000000E+20
 30
1.0000000000000000E+20
  9
$PEXTMAX
 10
-1.0000000000000000E+20
 20
-1.0000000000000000E+20
 30
-1.0000000000000000E+20
  9
$PLIMMIN
 10
0.0
 20
0.0
  9
$PLIMMAX
 10
12.0
 20
9.0
  9
$UNITMODE
 70
     0
  9
$VISRETAIN
 70
     1
  9
$PLINEGEN
 70
     0
  9
$PSLTSCALE
 70
     1
  0
ENDSEC
  0
SECTION
  2
TABLES
  0
TABLE
  2
VPORT
 70
     1
  0
VPORT
  2
*ACTIVE
 70
     0
 10
0.0
 20
0.0
 11
1.0
 21
1.0
 12
2184.6567902506890277
 22
46.7624212403768524
 13
0.0
 23
0.0
 14
1.0
 24
1.0
 15
0.0
 25
0.0
 16
0.0
 26
0.0
 36
60.4960186965801583
 17
3911.3653564453120453
 27
132.5796051025390057
 37
0.0
 40
9.6966752787661257
 41
2.8453453453453448
 42
50.0
 43
0.0
 44
0.0
 50
0.0
 51
0.0
 71
     0
 72
   100
 73
     1
 74
     1
 75
     0
 76
     0
 77
     0
 78
     0
  0
ENDTAB
  0
TABLE
  2
LTYPE
 70
     2
  0
LTYPE
  2
CONTINUOUS
 70
     0
  3
Solid line
 72
    65
 73
     0
 40
0.0
  0
LTYPE
  2
PHANTOM2
 70
     0
  3
___ _ _ ___ _ _ ___ _ _ ___ _ _
 72
    65
 73
     6
 40
1.25
 49
0.625
 49
-0.125
 49
0.125
 49
-0.125
 49
0.125
 49
-0.125
  0
ENDTAB
  0
TABLE
  2
LAYER
 70
     2
  0
LAYER
  2
0
 70
     0
 62
   255
  6
CONTINUOUS
  0
LAYER
  2
DEFPOINTS
 70
     0
 62
     7
  6
CONTINUOUS
  0
ENDTAB
  0
TABLE
  2
STYLE
 70
     1
  0
STYLE
  2
STANDARD
 70
     0
 40
0.0
 41
0.8
 50
0.0
 71
     0
 42
0.2
  3
txt
  4

  0
ENDTAB
  0
TABLE
  2
VIEW
 70
     0
  0
ENDTAB
  0
TABLE
  2
UCS
 70
     0
  0
ENDTAB
  0
TABLE
  2
APPID
 70
    11
  0
APPID
  2
ACAD
 70
     0
  0
APPID
  2
ACAD_MLEADERVER
 70
     0
  0
APPID
  2
ACAD_EXEMPT_FROM_CAD_STANDARDS
 70
     0
  0
APPID
  2
ACAD_NAV_VCDISPLAY
 70
     0
  0
APPID
  2
ACAECLAYERSTANDARD
 70
     0
  0
APPID
  2
ACCMTRANSPARENCY
 70
     0
  0
APPID
  2
ACAD_DSTYLE_DIMJAG
 70
     0
  0
APPID
  2
ACAD_DSTYLE_DIMTALN
 70
     0
  0
APPID
  2
ACDBATTR
 70
     0
  0
APPID
  2
ACADANNOTATIVE
 70
     0
  0
APPID
  2
DCO15
 70
     0
  0
ENDTAB
  0
TABLE
  2
DIMSTYLE
 70
     1
  0
DIMSTYLE
  2
STANDARD
 70
     0
  3

  4

  5

  6

  7

 40
1.0
 41
0.1875
 42
0.0625
 43
0.38
 44
0.125
 45
0.0
 46
0.0
 47
0.01
 48
0.01
140
0.15625
141
0.09
142
0.0
143
25.3999999999999986
144
1.0
145
0.0
146
1.0
147
0.09
 71
     1
 72
     0
 73
     1
 74
     1
 75
     0
 76
     0
 77
     0
 78
     4
170
     0
171
     2
172
     0
173
     0
174
     0
175
     0
176
     0
177
     0
178
     0
  0
ENDTAB
  0
ENDSEC
  0
SECTION
  2
BLOCKS
  0
BLOCK
  8
0
  2
$MODEL_SPACE
 70
     0
 10
0.0
 20
0.0
 30
0.0
  3
$MODEL_SPACE
  1

  0
ENDBLK
  5
21
  8
0
  0
BLOCK
 67
     1
  8
0
  2
$PAPER_SPACE
 70
     0
 10
0.0
 20
0.0
 30
0.0
  3
$PAPER_SPACE
  1

  0
ENDBLK
  5
1D
 67
     1
  8
0
  0
BLOCK
  8
0
  2
_FILLED
 70
     0
 10
0.0
 20
0.0
 30
0.0
  3
_FILLED
  1

  0
SOLID
  5
257AF
  8
0
  6
BYBLOCK
 62
     0
 10
0.0
 20
0.0
 30
0.0
 11
-1.0
 21
0.1666666667
 31
0.0
 12
-1.0
 22
-0.1666666667
 32
0.0
 13
-1.0
 23
-0.1666666667
 33
0.0
  0
ENDBLK
  5
257B0
  8
0
  6
BYBLOCK
 62
     0
  0
ENDSEC
  0
SECTION
  2
ENTITIES
  0
ATTDEF
  5
256E4
  8
DEFPOINTS
 10
6096.059636464167852
 20
181.1723369293762005
 30
0.0
 40
0.001
  1
P34246-00
  3

  2
MODELNUMBER
 70
     0
1001
ACDBATTR
1070
     0
1070
     1
  0
ATTDEF
  5
256E5
  8
DEFPOINTS
 10
6096.0595106545106319
 20
181.1706700889970136
 30
0.0
 40
0.001
  1
GUISE
  3

  2
TRADENAME
 70
     0
1001
ACDBATTR
1070
     0
1070
     1
  0
ATTDEF
  5
256E6
  8
DEFPOINTS
 10
6096.059636464167852
 20
181.1690035960428133
 30
0.0
 40
0.001
  1
TOWEL BAR
  3

  2
PRODUCT
 70
     0
1001
ACDBATTR
1070
     0
1070
     1
  0
LINE
  5
29F1F
  8
0
 10
6082.3671640798647786
 20
178.3313262685846894
 30
0.0
 11
6082.3671640798647786
 21
180.1373361568973905
 31
0.0
  0
LINE
  5
29F20
  8
0
 10
6083.1821341585646223
 20
180.8201314323846987
 30
0.0
 11
6083.1821341585646223
 21
180.9252874754189975
 31
0.0
  0
LINE
  5
29F21
  8
0
 10
6083.1821341585646223
 20
180.637336156884686
 30
0.0
 11
6084.6790436073661112
 21
180.637336156884686
 31
0.0
  0
LINE
  5
29F22
  8
0
 10
6082.6821341585664413
 20
178.3312963472847059
 30
0.0
 11
6082.6821341585664413
 21
180.137336156884686
 31
0.0
  0
LINE
  5
29F23
  8
0
 10
6083.1821341585646223
 20
177.8312963472847059
 30
0.0
 11
6108.9567404578656351
 21
177.8312963472847059
 31
0.0
  0
LINE
  5
29F24
  8
0
 10
6083.1821640798652879
 20
177.5163262685846917
 30
0.0
 11
6108.9567105365649695
 21
177.5163262685846917
 31
0.0
  0
ARC
  5
29F25
  8
0
 10
6083.1821640798652879
 20
178.3313262685846894
 30
0.0
 40
0.8149999999999998
 50
180.0
 51
270.0
  0
ARC
  5
29F26
  8
0
 10
6083.1821341585646223
 20
178.3312963472847059
 30
0.0
 40
0.5
 50
180.0
 51
270.0
  0
ARC
  5
29F27
  8
0
 10
6083.1821341585646223
 20
180.137336156884686
 30
0.0
 40
0.5
 50
90.0
 51
180.0
  0
LINE
  5
29F28
  8
0
 10
6083.0194373081658341
 20
181.1688322197846901
 30
0.0
 11
6083.0194373081658341
 21
181.0270790668920995
 31
0.0
  0
LINE
  5
29F29
  8
0
 10
6085.1194373081652884
 20
181.1688322197846901
 30
0.0
 11
6083.0194373081658341
 21
181.1688322197846901
 31
0.0
  0
LINE
  5
29F2A
  8
0
 10
6085.1194373081652884
 20
180.8151314323847032
 30
0.0
 11
6085.1194373081652884
 21
181.1688322197846901
 31
0.0
  0
LINE
  5
29F2B
  8
0
 10
6085.0794373081662343
 20
180.7751314323847112
 30
0.0
 11
6084.7890436073657838
 21
180.7751314323847112
 31
0.0
  0
ARC
  5
29F2C
  8
0
 10
6085.0794373081662343
 20
180.8151314323847032
 30
0.0
 40
0.04
 50
270.0
 51
0.0
  0
LINE
  5
29F2D
  8
0
 10
6084.7190436073651654
 20
180.6773361568847065
 30
0.0
 11
6084.7190436073651654
 21
180.7051314323846896
 31
0.0
  0
ARC
  5
29F2E
  8
0
 10
6084.6790436073661112
 20
180.6773361568847065
 30
0.0
 40
0.04
 50
270.0
 51
359.9999999999968168
  0
ARC
  5
29F2F
  8
0
 10
6084.7890436073657838
 20
180.7051314323846896
 30
0.0
 40
0.07
 50
90.0
 51
180.0000000000015916
  0
ARC
  5
29F30
  8
0
 10
6083.1821341585373375
 20
180.1373361568973905
 30
0.0
 40
0.8149700786705478
 50
96.1614435325534487
 51
180.0
  0
ARC
  5
29F31
  8
0
 10
6082.9014373081663507
 20
181.0270790668920995
 30
0.0
 40
0.118
 50
287.5094876451739765
 51
359.9999999999984084
  0
LINE
  5
29F32
  8
0
 10
6084.7190436073651654
 20
180.7051314323846896
 30
0.0
 11
6083.2971341585653136
 21
180.7051314323846896
 31
0.0
  0
ARC
  5
29F33
  8
0
 10
6083.2971341585653136
 20
180.8201314323846987
 30
0.0
 40
0.115
 50
180.0000000000032117
 51
270.0
  0
ARC
  5
29F34
  8
0
 10
6083.1075892146791375
 20
180.8156536536687895
 30
0.0
 40
0.1325764818156251
 50
55.786461733137223
 51
95.5951651981435049
  0
LINE
  5
29F35
  8
0
 10
6109.7717105365645693
 20
178.3313262685846894
 30
0.0
 11
6109.7717105365645693
 21
180.1373361568973905
 31
0.0
  0
LINE
  5
29F36
  8
0
 10
6108.9567404578656351
 20
180.8201314323846987
 30
0.0
 11
6108.9567404578656351
 21
180.9252874754189975
 31
0.0
  0
LINE
  5
29F37
  8
0
 10
6108.9567404578656351
 20
180.637336156884686
 30
0.0
 11
6107.4598310090650557
 21
180.637336156884686
 31
0.0
  0
LINE
  5
29F38
  8
0
 10
6109.4567404578647256
 20
178.3312963472847059
 30
0.0
 11
6109.4567404578647256
 21
180.137336156884686
 31
0.0
  0
ARC
  5
29F39
  8
0
 10
6108.9567105365649695
 20
178.3313262685846894
 30
0.0
 40
0.8149999999999998
 50
270.0
 51
0.0
  0
ARC
  5
29F3A
  8
0
 10
6108.9567404578656351
 20
178.3312963472847059
 30
0.0
 40
0.5
 50
270.0
 51
0.0
  0
ARC
  5
29F3B
  8
0
 10
6108.9567404578656351
 20
180.137336156884686
 30
0.0
 40
0.5
 50
0.0
 51
90.0
  0
LINE
  5
29F3C
  8
0
 10
6109.1194373082653328
 20
181.1688322197846901
 30
0.0
 11
6109.1194373082653328
 21
181.0270790668920995
 31
0.0
  0
LINE
  5
29F3D
  8
0
 10
6107.019437308264969
 20
181.1688322197846901
 30
0.0
 11
6109.1194373082653328
 21
181.1688322197846901
 31
0.0
  0
LINE
  5
29F3E
  8
0
 10
6107.019437308264969
 20
180.8151314323847032
 30
0.0
 11
6107.019437308264969
 21
181.1688322197846901
 31
0.0
  0
LINE
  5
29F3F
  8
0
 10
6107.0594373082649327
 20
180.7751314323847112
 30
0.0
 11
6107.3498310090662926
 21
180.7751314323847112
 31
0.0
  0
ARC
  5
29F40
  8
0
 10
6107.0594373082649327
 20
180.8151314323847032
 30
0.0
 40
0.04
 50
180.0
 51
270.0
  0
LINE
  5
29F41
  8
0
 10
6107.4198310090650921
 20
180.6773361568847065
 30
0.0
 11
6107.4198310090650921
 21
180.7051314323846896
 31
0.0
  0
ARC
  5
29F42
  8
0
 10
6107.4598310090650557
 20
180.6773361568847065
 30
0.0
 40
0.04
 50
180.0000000000032117
 51
270.0
  0
ARC
  5
29F43
  8
0
 10
6107.3498310090662926
 20
180.7051314323846896
 30
0.0
 40
0.07
 50
359.9999999999984084
 51
90.0
  0
ARC
  5
29F44
  8
0
 10
6108.9567404578938294
 20
180.1373361568973905
 30
0.0
 40
0.8149700786705478
 50
0.0
 51
83.8385564674465371
  0
ARC
  5
29F45
  8
0
 10
6109.2374373082657257
 20
181.0270790668920995
 30
0.0
 40
0.118
 50
180.0000000000015916
 51
252.4905123548259951
  0
LINE
  5
29F46
  8
0
 10
6107.4198310090650921
 20
180.7051314323846896
 30
0.0
 11
6108.8417404578649439
 21
180.7051314323846896
 31
0.0
  0
ARC
  5
29F47
  8
0
 10
6108.8417404578649439
 20
180.8201314323846987
 30
0.0
 40
0.115
 50
270.0
 51
359.9999999999968168
  0
ARC
  5
29F48
  8
0
 10
6109.0312854017511199
 20
180.8156536536687895
 30
0.0
 40
0.1325764818156251
 50
84.4048348018564951
 51
124.2135382668627983
  0
ENDSEC
  0
EOF
