  0
SECTION
  2
HEADER
  9
$ACADVER
  1
AC1009
  9
$INSBASE
 10
3361.1750332582059855
 20
189.5533331895788933
 30
0.0
  9
$EXTMIN
 10
3352.269500453173805
 20
188.5402688981046992
 30
-0.0000000000112498
  9
$EXTMAX
 10
3361.2454009619400495
 20
191.5358474757400984
 30
0.0000000000002956
  9
$LIMMIN
 10
0.0
 20
0.0
  9
$LIMMAX
 10
11.6929133858000007
 20
8.2677165353999982
  9
$ORTHOMODE
 70
     0
  9
$REGENMODE
 70
     1
  9
$FILLMODE
 70
     1
  9
$QTEXTMODE
 70
     0
  9
$MIRRTEXT
 70
     0
  9
$DRAGMODE
 70
     2
  9
$LTSCALE
 40
0.6431102362
  9
$OSMODE
 70
  4095
  9
$ATTMODE
 70
     1
  9
$TEXTSIZE
 40
0.2
  9
$TRACEWID
 40
0.05
  9
$TEXTSTYLE
  7
STANDARD
  9
$CLAYER
  8
0
  9
$CELTYPE
  6
BYLAYER
  9
$CECOLOR
 62
   256
  9
$DIMSCALE
 40
1.0
  9
$DIMASZ
 40
0.1875
  9
$DIMEXO
 40
0.0625
  9
$DIMDLI
 40
0.4443307087
  9
$DIMRND
 40
0.0
  9
$DIMDLE
 40
0.0
  9
$DIMEXE
 40
0.125
  9
$DIMTP
 40
0.01
  9
$DIMTM
 40
0.01
  9
$DIMTXT
 40
2.0
  9
$DIMCEN
 40
0.1052362205
  9
$DIMTSZ
 40
0.0
  9
$DIMTOL
 70
     1
  9
$DIMLIM
 70
     0
  9
$DIMTIH
 70
     1
  9
$DIMTOH
 70
     1
  9
$DIMSE1
 70
     0
  9
$DIMSE2
 70
     0
  9
$DIMTAD
 70
     0
  9
$DIMZIN
 70
     0
  9
$DIMBLK
  1

  9
$DIMASO
 70
     1
  9
$DIMSHO
 70
     1
  9
$DIMPOST
  1
\X
  9
$DIMAPOST
  1

  9
$DIMALT
 70
     1
  9
$DIMALTD
 70
     2
  9
$DIMALTF
 40
25.3999999999999986
  9
$DIMLFAC
 40
1.0
  9
$DIMTOFL
 70
     0
  9
$DIMTVP
 40
0.0
  9
$DIMTIX
 70
     0
  9
$DIMSOXD
 70
     0
  9
$DIMSAH
 70
     0
  9
$DIMBLK1
  1

  9
$DIMBLK2
  1

  9
$DIMSTYLE
  2
STANDARD
  9
$DIMCLRD
 70
     0
  9
$DIMCLRE
 70
     0
  9
$DIMCLRT
 70
     0
  9
$DIMTFAC
 40
1.0
  9
$DIMGAP
 40
0.09
  9
$LUNITS
 70
     2
  9
$LUPREC
 70
     4
  9
$SKETCHINC
 40
0.1
  9
$FILLETRAD
 40
0.0
  9
$AUNITS
 70
     0
  9
$AUPREC
 70
     0
  9
$MENU
  1
.
  9
$ELEVATION
 40
0.0
  9
$PELEVATION
 40
0.0
  9
$THICKNESS
 40
0.0
  9
$LIMCHECK
 70
     0
  9
$BLIPMODE
 70
     0
  9
$CHAMFERA
 40
0.0
  9
$CHAMFERB
 40
0.0
  9
$SKPOLY
 70
     0
  9
$TDCREATE
 40
2458060.468368056230247
  9
$TDUPDATE
 40
2460301.6089699068106711
  9
$TDINDWG
 40
0.3331436343
  9
$TDUSRTIMER
 40
0.3331436343
  9
$USRTIMER
 70
     1
  9
$ANGBASE
 50
0.0
  9
$ANGDIR
 70
     0
  9
$PDMODE
 70
     0
  9
$PDSIZE
 40
0.3125
  9
$PLINEWID
 40
0.0
  9
$COORDS
 70
     1
  9
$SPLFRAME
 70
     0
  9
$SPLINETYPE
 70
     6
  9
$SPLINESEGS
 70
     8
  9
$ATTDIA
 70
     1
  9
$ATTREQ
 70
     1
  9
$HANDLING
 70
     1
  9
$HANDSEED
  5
B879
  9
$SURFTAB1
 70
     6
  9
$SURFTAB2
 70
     6
  9
$SURFTYPE
 70
     6
  9
$SURFU
 70
     6
  9
$SURFV
 70
     6
  9
$UCSNAME
  2

  9
$UCSORG
 10
0.0
 20
0.0
 30
0.0
  9
$UCSXDIR
 10
1.0
 20
0.0
 30
0.0
  9
$UCSYDIR
 10
0.0
 20
1.0
 30
0.0
  9
$PUCSNAME
  2

  9
$PUCSORG
 10
0.0
 20
0.0
 30
0.0
  9
$PUCSXDIR
 10
1.0
 20
0.0
 30
0.0
  9
$PUCSYDIR
 10
0.0
 20
1.0
 30
0.0
  9
$USERI1
 70
     0
  9
$USERI2
 70
     0
  9
$USERI3
 70
     0
  9
$USERI4
 70
     0
  9
$USERI5
 70
     0
  9
$USERR1
 40
0.0
  9
$USERR2
 40
0.0
  9
$USERR3
 40
0.0
  9
$USERR4
 40
0.0
  9
$USERR5
 40
0.0
  9
$WORLDVIEW
 70
     1
  9
$SHADEDGE
 70
     3
  9
$SHADEDIF
 70
    70
  9
$TILEMODE
 70
     1
  9
$MAXACTVP
 70
    64
  9
$PLIMCHECK
 70
     0
  9
$PEXTMIN
 10
1.0000000000000000E+20
 20
1.0000000000000000E+20
 30
1.0000000000000000E+20
  9
$PEXTMAX
 10
-1.0000000000000000E+20
 20
-1.0000000000000000E+20
 30
-1.0000000000000000E+20
  9
$PLIMMIN
 10
0.0
 20
0.0
  9
$PLIMMAX
 10
12.0
 20
9.0
  9
$UNITMODE
 70
     0
  9
$VISRETAIN
 70
     1
  9
$PLINEGEN
 70
     0
  9
$PSLTSCALE
 70
     1
  0
ENDSEC
  0
SECTION
  2
TABLES
  0
TABLE
  2
VPORT
 70
     1
  0
VPORT
  2
*ACTIVE
 70
     0
 10
0.0
 20
0.0
 11
1.0
 21
1.0
 12
74.447270043494413
 22
-7.2887215329009232
 13
0.0
 23
0.0
 14
1.0
 24
1.0
 15
0.0
 25
0.0
 16
0.0
 26
0.0
 36
110.7576973449536979
 17
3282.3101806640620453
 27
197.3267797198232927
 37
0.0
 40
3.6789832626783441
 41
2.4474358974358972
 42
50.0
 43
0.0
 44
0.0
 50
0.0
 51
0.0
 71
     0
 72
   100
 73
     1
 74
     1
 75
     0
 76
     0
 77
     0
 78
     0
  0
ENDTAB
  0
TABLE
  2
LTYPE
 70
     2
  0
LTYPE
  2
CONTINUOUS
 70
     0
  3
Solid line
 72
    65
 73
     0
 40
0.0
  0
LTYPE
  2
PHANTOM2
 70
     0
  3
___ _ _ ___ _ _ ___ _ _ ___ _ _
 72
    65
 73
     6
 40
1.25
 49
0.625
 49
-0.125
 49
0.125
 49
-0.125
 49
0.125
 49
-0.125
  0
ENDTAB
  0
TABLE
  2
LAYER
 70
     2
  0
LAYER
  2
0
 70
     0
 62
   255
  6
CONTINUOUS
  0
LAYER
  2
DEFPOINTS
 70
     0
 62
     7
  6
CONTINUOUS
  0
ENDTAB
  0
TABLE
  2
STYLE
 70
     1
  0
STYLE
  2
STANDARD
 70
     0
 40
0.0
 41
0.8
 50
0.0
 71
     0
 42
0.2
  3
txt
  4

  0
ENDTAB
  0
TABLE
  2
VIEW
 70
     0
  0
ENDTAB
  0
TABLE
  2
UCS
 70
     0
  0
ENDTAB
  0
TABLE
  2
APPID
 70
     9
  0
APPID
  2
ACAD
 70
     0
  0
APPID
  2
ACAD_MLEADERVER
 70
     0
  0
APPID
  2
ACAD_EXEMPT_FROM_CAD_STANDARDS
 70
     0
  0
APPID
  2
ACAD_NAV_VCDISPLAY
 70
     0
  0
APPID
  2
ACAECLAYERSTANDARD
 70
     0
  0
APPID
  2
ACCMTRANSPARENCY
 70
     0
  0
APPID
  2
ACAD_DSTYLE_DIMJAG
 70
     0
  0
APPID
  2
ACAD_DSTYLE_DIMTALN
 70
     0
  0
APPID
  2
ACDBATTR
 70
     0
  0
ENDTAB
  0
TABLE
  2
DIMSTYLE
 70
     1
  0
DIMSTYLE
  2
STANDARD
 70
     0
  3

  4

  5

  6

  7

 40
1.0
 41
0.1875
 42
0.0625
 43
0.38
 44
0.125
 45
0.0
 46
0.0
 47
0.01
 48
0.01
140
0.15625
141
0.09
142
0.0
143
25.3999999999999986
144
1.0
145
0.0
146
1.0
147
0.09
 71
     1
 72
     0
 73
     1
 74
     1
 75
     0
 76
     0
 77
     0
 78
     4
170
     0
171
     2
172
     0
173
     0
174
     0
175
     0
176
     0
177
     0
178
     0
  0
ENDTAB
  0
ENDSEC
  0
SECTION
  2
BLOCKS
  0
BLOCK
  8
0
  2
$MODEL_SPACE
 70
     0
 10
0.0
 20
0.0
 30
0.0
  3
$MODEL_SPACE
  1

  0
ENDBLK
  5
21
  8
0
  0
BLOCK
 67
     1
  8
0
  2
$PAPER_SPACE
 70
     0
 10
0.0
 20
0.0
 30
0.0
  3
$PAPER_SPACE
  1

  0
ENDBLK
  5
1D
 67
     1
  8
0
  0
BLOCK
  8
0
  2
_FILLED
 70
     0
 10
0.0
 20
0.0
 30
0.0
  3
_FILLED
  1

  0
SOLID
  5
940C
  8
0
  6
BYBLOCK
 62
     0
 10
0.0
 20
0.0
 30
0.0
 11
-1.0
 21
0.1666666667
 31
0.0
 12
-1.0
 22
-0.1666666667
 32
0.0
 13
-1.0
 23
-0.1666666667
 33
0.0
  0
ENDBLK
  5
940D
  8
0
  6
BYBLOCK
 62
     0
  0
BLOCK
  8
0
  2
_CLOSED
 70
     0
 10
0.0
 20
0.0
 30
0.0
  3
_CLOSED
  1

  0
LINE
  5
9E31
  8
0
  6
BYBLOCK
 62
     0
 10
0.0
 20
0.0
 30
0.0
 11
-1.0
 21
0.1666666667
 31
0.0
  0
LINE
  5
9E32
  8
0
  6
BYBLOCK
 62
     0
 10
-1.0
 20
0.1666666667
 30
0.0
 11
-1.0
 21
-0.1666666667
 31
0.0
  0
LINE
  5
9E33
  8
0
  6
BYBLOCK
 62
     0
 10
-1.0
 20
-0.1666666667
 30
0.0
 11
0.0
 21
0.0
 31
0.0
  0
LINE
  5
9E34
  8
0
  6
BYBLOCK
 62
     0
 10
-1.0
 20
0.0
 30
0.0
 11
0.0
 21
0.0
 31
0.0
  0
ENDBLK
  5
9E35
  8
0
  6
BYBLOCK
 62
     0
  0
ENDSEC
  0
SECTION
  2
ENTITIES
  0
ATTDEF
  5
3930
  8
DEFPOINTS
 10
3361.175453539998216
 20
189.5539600391037141
 30
0.0
 40
0.001
  1
P34240-00
  3

  2
MODELNUMBER
 70
     0
1001
ACDBATTR
1070
     0
1070
     1
  0
ATTDEF
  5
3931
  8
DEFPOINTS
 10
3361.175453539998216
 20
189.5522933724371057
 30
0.0
 40
0.001
  1
GUISE
  3

  2
TRADENAME
 70
     0
1001
ACDBATTR
1070
     0
1070
     1
  0
ATTDEF
  5
3932
  8
DEFPOINTS
 10
3361.175453539998216
 20
189.5506267057704122
 30
0.0
 40
0.001
  1
BATH SPOUT
  3

  2
PRODUCT
 70
     0
1001
ACDBATTR
1070
     0
1070
     1
  0
LINE
  5
B711
  8
0
 10
3352.3286064866069864
 20
189.773805630478904
 30
0.0
 11
3352.7616175102061788
 21
189.773805630478904
 31
0.0
  0
LINE
  5
B712
  8
0
 10
3353.2892064866059627
 20
191.5218371265789017
 30
0.0
 11
3359.9506238094058972
 21
191.5218371265789017
 31
0.0
  0
LINE
  5
B713
  8
0
 10
3352.2892064866059627
 20
189.8132056304789046
 30
0.0
 11
3352.2892064866059627
 21
190.5218371265789017
 31
0.0
  0
LINE
  5
B714
  8
0
 10
3352.8010175102058383
 20
189.8132056304789046
 30
0.0
 11
3352.8010175102058383
 21
190.5218261028788902
 31
0.0
  0
LINE
  5
B715
  8
0
 10
3353.2892175102060719
 20
191.0100261028788964
 30
0.0
 11
3359.950612785805788
 21
191.0100261028788964
 31
0.0
  0
ARC
  5
B716
  8
0
 10
3352.3286064866069864
 20
189.8132056304789046
 30
0.0
 40
0.0394
 50
180.0
 51
270.0
  0
ARC
  5
B717
  8
0
 10
3352.7616175102061788
 20
189.8132056304789046
 30
0.0
 40
0.0394
 50
270.0
 51
359.9999999999984084
  0
ARC
  5
B718
  8
0
 10
3353.2892175102060719
 20
190.5218261028788902
 30
0.0
 40
0.4882000000000001
 50
90.0
 51
180.0
  0
ARC
  5
B719
  8
0
 10
3353.2892064866059627
 20
190.5218371265789017
 30
0.0
 40
1.0
 50
90.0
 51
180.0
  0
LINE
  5
B71A
  8
0
 10
3360.4388127858060216
 20
190.5218261028788902
 30
0.0
 11
3360.4388127858060216
 21
188.9431268903788919
 31
0.0
  0
ARC
  5
B71B
  8
0
 10
3359.950612785805788
 20
190.5218261028788902
 30
0.0
 40
0.4882000000000001
 50
0.0
 51
90.0
  0
LINE
  5
B71C
  8
0
 10
3360.7931734157059509
 20
188.5533331895788933
 30
0.0
 11
3361.1750332582059855
 21
188.5533331895788933
 31
0.0
  0
LINE
  5
B71D
  8
0
 10
3360.635673415706151
 20
188.9037268903788913
 30
0.0
 11
3360.4782127858061358
 21
188.9037268903788913
 31
0.0
  0
LINE
  5
B71E
  8
0
 10
3361.1750332582059855
 20
190.5533331895788933
 30
0.0
 11
3361.1750332582059855
 21
188.5533331895788933
 31
0.0
  0
LINE
  5
B71F
  8
0
 10
3360.7537734157058367
 20
188.5927331895788939
 30
0.0
 11
3360.7537734157058367
 21
190.1415852064208138
 31
0.0
  0
ARC
  5
B720
  8
0
 10
3360.7931734157059509
 20
188.5927331895788939
 30
0.0
 40
0.0394
 50
180.0000000000015916
 51
270.0
  0
ARC
  5
B721
  8
0
 10
3360.635673415706151
 20
188.785626890378893
 30
0.0
 40
0.1181
 50
0.0
 51
90.0
  0
ARC
  5
B722
  8
0
 10
3360.4782127858061358
 20
188.9431268903788919
 30
0.0
 40
0.0394
 50
180.0
 51
270.0
  0
LINE
  5
B723
  8
0
 10
3361.1750332582059855
 20
190.5533331895788933
 30
0.0
 11
3361.0586710231718826
 21
190.5533331895788933
 31
0.0
  0
ARC
  5
B724
  8
0
 10
3359.9506238094058972
 20
190.5218371265789017
 30
0.0
 40
0.9999999999999998
 50
346.0256662501528808
 51
90.0
  0
ARC
  5
B725
  8
0
 10
3361.0586710231718826
 20
190.6714331895788916
 30
0.0
 40
0.1181
 50
187.6889398155672097
 51
270.0
  0
ARC
  5
B726
  8
0
 10
3361.3353285691559904
 20
190.1361778941223974
 30
0.0
 40
0.5815802915593919
 50
172.5279914872278084
 51
180.5327220361386082
  0
ARC
  5
B727
  8
0
 10
3360.9498916374709552
 20
190.1867300746594935
 30
0.0
 40
0.1928423962321011
 50
157.6340288583633935
 51
172.5279914872278084
  0
ARC
  5
B728
  8
0
 10
3360.8125427879817835
 20
190.2432457768993004
 30
0.0
 40
0.044320576098915
 50
132.0223217103813909
 51
157.6340288583618872
  0
ARC
  5
B729
  8
0
 10
3360.7937873926721295
 20
190.2640594411184054
 30
0.0
 40
0.016303198072244
 50
92.2634976834574445
 51
132.0223217103813909
  0
ARC
  5
B72A
  8
0
 10
3360.8521986123041643
 20
-66877.1611733016616199
 30
0.0
 40
67067.4415232464525616
 50
89.9999411991540654
 51
90.0000504508364827
  0
ENDSEC
  0
EOF
