  0
SECTION
  2
HEADER
  9
$ACADVER
  1
AC1009
  9
$INSBASE
 10
3396.736060894484126
 20
198.6995080521062107
 30
0.0
  9
$EXTMIN
 10
3390.086637322909155
 20
197.6869499890242992
 30
-0.0000000000112498
  9
$EXTMAX
 10
3403.328550713129971
 20
199.9447298042057071
 30
0.0000000000002956
  9
$LIMMIN
 10
0.0
 20
0.0
  9
$LIMMAX
 10
11.6929133858000007
 20
8.2677165353999982
  9
$ORTHOMODE
 70
     0
  9
$REGENMODE
 70
     1
  9
$FILLMODE
 70
     1
  9
$QTEXTMODE
 70
     0
  9
$MIRRTEXT
 70
     0
  9
$DRAGMODE
 70
     2
  9
$LTSCALE
 40
0.6431102362
  9
$OSMODE
 70
  4095
  9
$ATTMODE
 70
     1
  9
$TEXTSIZE
 40
0.2
  9
$TRACEWID
 40
0.05
  9
$TEXTSTYLE
  7
STANDARD
  9
$CLAYER
  8
0
  9
$CELTYPE
  6
BYLAYER
  9
$CECOLOR
 62
   256
  9
$DIMSCALE
 40
1.0
  9
$DIMASZ
 40
0.1875
  9
$DIMEXO
 40
0.0625
  9
$DIMDLI
 40
0.4443307087
  9
$DIMRND
 40
0.0
  9
$DIMDLE
 40
0.0
  9
$DIMEXE
 40
0.125
  9
$DIMTP
 40
0.01
  9
$DIMTM
 40
0.01
  9
$DIMTXT
 40
2.0
  9
$DIMCEN
 40
0.1052362205
  9
$DIMTSZ
 40
0.0
  9
$DIMTOL
 70
     1
  9
$DIMLIM
 70
     0
  9
$DIMTIH
 70
     1
  9
$DIMTOH
 70
     1
  9
$DIMSE1
 70
     0
  9
$DIMSE2
 70
     0
  9
$DIMTAD
 70
     0
  9
$DIMZIN
 70
     0
  9
$DIMBLK
  1

  9
$DIMASO
 70
     1
  9
$DIMSHO
 70
     1
  9
$DIMPOST
  1
\X
  9
$DIMAPOST
  1

  9
$DIMALT
 70
     1
  9
$DIMALTD
 70
     2
  9
$DIMALTF
 40
25.3999999999999986
  9
$DIMLFAC
 40
1.0
  9
$DIMTOFL
 70
     0
  9
$DIMTVP
 40
0.0
  9
$DIMTIX
 70
     0
  9
$DIMSOXD
 70
     0
  9
$DIMSAH
 70
     0
  9
$DIMBLK1
  1

  9
$DIMBLK2
  1

  9
$DIMSTYLE
  2
STANDARD
  9
$DIMCLRD
 70
     0
  9
$DIMCLRE
 70
     0
  9
$DIMCLRT
 70
     0
  9
$DIMTFAC
 40
1.0
  9
$DIMGAP
 40
0.09
  9
$LUNITS
 70
     2
  9
$LUPREC
 70
     4
  9
$SKETCHINC
 40
0.1
  9
$FILLETRAD
 40
0.0
  9
$AUNITS
 70
     0
  9
$AUPREC
 70
     0
  9
$MENU
  1
.
  9
$ELEVATION
 40
0.0
  9
$PELEVATION
 40
0.0
  9
$THICKNESS
 40
0.0
  9
$LIMCHECK
 70
     0
  9
$BLIPMODE
 70
     0
  9
$CHAMFERA
 40
0.0
  9
$CHAMFERB
 40
0.0
  9
$SKPOLY
 70
     0
  9
$TDCREATE
 40
2458060.468368056230247
  9
$TDUPDATE
 40
2460294.5925462967716157
  9
$TDINDWG
 40
0.3380163194
  9
$TDUSRTIMER
 40
0.3380163194
  9
$USRTIMER
 70
     1
  9
$ANGBASE
 50
0.0
  9
$ANGDIR
 70
     0
  9
$PDMODE
 70
     0
  9
$PDSIZE
 40
0.3125
  9
$PLINEWID
 40
0.0
  9
$COORDS
 70
     1
  9
$SPLFRAME
 70
     0
  9
$SPLINETYPE
 70
     6
  9
$SPLINESEGS
 70
     8
  9
$ATTDIA
 70
     1
  9
$ATTREQ
 70
     1
  9
$HANDLING
 70
     1
  9
$HANDSEED
  5
B98D
  9
$SURFTAB1
 70
     6
  9
$SURFTAB2
 70
     6
  9
$SURFTYPE
 70
     6
  9
$SURFU
 70
     6
  9
$SURFV
 70
     6
  9
$UCSNAME
  2

  9
$UCSORG
 10
0.0
 20
0.0
 30
0.0
  9
$UCSXDIR
 10
1.0
 20
0.0
 30
0.0
  9
$UCSYDIR
 10
0.0
 20
1.0
 30
0.0
  9
$PUCSNAME
  2

  9
$PUCSORG
 10
0.0
 20
0.0
 30
0.0
  9
$PUCSXDIR
 10
1.0
 20
0.0
 30
0.0
  9
$PUCSYDIR
 10
0.0
 20
1.0
 30
0.0
  9
$USERI1
 70
     0
  9
$USERI2
 70
     0
  9
$USERI3
 70
     0
  9
$USERI4
 70
     0
  9
$USERI5
 70
     0
  9
$USERR1
 40
0.0
  9
$USERR2
 40
0.0
  9
$USERR3
 40
0.0
  9
$USERR4
 40
0.0
  9
$USERR5
 40
0.0
  9
$WORLDVIEW
 70
     1
  9
$SHADEDGE
 70
     3
  9
$SHADEDIF
 70
    70
  9
$TILEMODE
 70
     1
  9
$MAXACTVP
 70
    64
  9
$PLIMCHECK
 70
     0
  9
$PEXTMIN
 10
1.0000000000000000E+20
 20
1.0000000000000000E+20
 30
1.0000000000000000E+20
  9
$PEXTMAX
 10
-1.0000000000000000E+20
 20
-1.0000000000000000E+20
 30
-1.0000000000000000E+20
  9
$PLIMMIN
 10
0.0
 20
0.0
  9
$PLIMMAX
 10
12.0
 20
9.0
  9
$UNITMODE
 70
     0
  9
$VISRETAIN
 70
     1
  9
$PLINEGEN
 70
     0
  9
$PSLTSCALE
 70
     1
  0
ENDSEC
  0
SECTION
  2
TABLES
  0
TABLE
  2
VPORT
 70
     1
  0
VPORT
  2
*ACTIVE
 70
     0
 10
0.0
 20
0.0
 11
1.0
 21
1.0
 12
114.397413353956793
 22
1.4890601767917251
 13
0.0
 23
0.0
 14
1.0
 24
1.0
 15
0.0
 25
0.0
 16
0.0
 26
0.0
 36
110.7576973449536979
 17
3282.3101806640620453
 27
197.3267797198232927
 37
0.0
 40
5.260507722931635
 41
2.5251322751322749
 42
50.0
 43
0.0
 44
0.0
 50
0.0
 51
0.0
 71
     0
 72
   100
 73
     1
 74
     1
 75
     0
 76
     0
 77
     0
 78
     0
  0
ENDTAB
  0
TABLE
  2
LTYPE
 70
     2
  0
LTYPE
  2
CONTINUOUS
 70
     0
  3
Solid line
 72
    65
 73
     0
 40
0.0
  0
LTYPE
  2
PHANTOM2
 70
     0
  3
___ _ _ ___ _ _ ___ _ _ ___ _ _
 72
    65
 73
     6
 40
1.25
 49
0.625
 49
-0.125
 49
0.125
 49
-0.125
 49
0.125
 49
-0.125
  0
ENDTAB
  0
TABLE
  2
LAYER
 70
     2
  0
LAYER
  2
0
 70
     0
 62
   255
  6
CONTINUOUS
  0
LAYER
  2
DEFPOINTS
 70
     0
 62
     7
  6
CONTINUOUS
  0
ENDTAB
  0
TABLE
  2
STYLE
 70
     1
  0
STYLE
  2
STANDARD
 70
     0
 40
0.0
 41
0.8
 50
0.0
 71
     0
 42
0.2
  3
txt
  4

  0
ENDTAB
  0
TABLE
  2
VIEW
 70
     0
  0
ENDTAB
  0
TABLE
  2
UCS
 70
     0
  0
ENDTAB
  0
TABLE
  2
APPID
 70
     9
  0
APPID
  2
ACAD
 70
     0
  0
APPID
  2
ACAD_MLEADERVER
 70
     0
  0
APPID
  2
ACAD_EXEMPT_FROM_CAD_STANDARDS
 70
     0
  0
APPID
  2
ACAD_NAV_VCDISPLAY
 70
     0
  0
APPID
  2
ACAECLAYERSTANDARD
 70
     0
  0
APPID
  2
ACCMTRANSPARENCY
 70
     0
  0
APPID
  2
ACAD_DSTYLE_DIMJAG
 70
     0
  0
APPID
  2
ACAD_DSTYLE_DIMTALN
 70
     0
  0
APPID
  2
ACDBATTR
 70
     0
  0
ENDTAB
  0
TABLE
  2
DIMSTYLE
 70
     1
  0
DIMSTYLE
  2
STANDARD
 70
     0
  3

  4

  5

  6

  7

 40
1.0
 41
0.1875
 42
0.0625
 43
0.38
 44
0.125
 45
0.0
 46
0.0
 47
0.01
 48
0.01
140
0.15625
141
0.09
142
0.0
143
25.3999999999999986
144
1.0
145
0.0
146
1.0
147
0.09
 71
     1
 72
     0
 73
     1
 74
     1
 75
     0
 76
     0
 77
     0
 78
     4
170
     0
171
     2
172
     0
173
     0
174
     0
175
     0
176
     0
177
     0
178
     0
  0
ENDTAB
  0
ENDSEC
  0
SECTION
  2
BLOCKS
  0
BLOCK
  8
0
  2
$MODEL_SPACE
 70
     0
 10
0.0
 20
0.0
 30
0.0
  3
$MODEL_SPACE
  1

  0
ENDBLK
  5
21
  8
0
  0
BLOCK
 67
     1
  8
0
  2
$PAPER_SPACE
 70
     0
 10
0.0
 20
0.0
 30
0.0
  3
$PAPER_SPACE
  1

  0
ENDBLK
  5
1D
 67
     1
  8
0
  0
BLOCK
  8
0
  2
_FILLED
 70
     0
 10
0.0
 20
0.0
 30
0.0
  3
_FILLED
  1

  0
SOLID
  5
940C
  8
0
  6
BYBLOCK
 62
     0
 10
0.0
 20
0.0
 30
0.0
 11
-1.0
 21
0.1666666667
 31
0.0
 12
-1.0
 22
-0.1666666667
 32
0.0
 13
-1.0
 23
-0.1666666667
 33
0.0
  0
ENDBLK
  5
940D
  8
0
  6
BYBLOCK
 62
     0
  0
BLOCK
  8
0
  2
_CLOSED
 70
     0
 10
0.0
 20
0.0
 30
0.0
  3
_CLOSED
  1

  0
LINE
  5
9E31
  8
0
  6
BYBLOCK
 62
     0
 10
0.0
 20
0.0
 30
0.0
 11
-1.0
 21
0.1666666667
 31
0.0
  0
LINE
  5
9E32
  8
0
  6
BYBLOCK
 62
     0
 10
-1.0
 20
0.1666666667
 30
0.0
 11
-1.0
 21
-0.1666666667
 31
0.0
  0
LINE
  5
9E33
  8
0
  6
BYBLOCK
 62
     0
 10
-1.0
 20
-0.1666666667
 30
0.0
 11
0.0
 21
0.0
 31
0.0
  0
LINE
  5
9E34
  8
0
  6
BYBLOCK
 62
     0
 10
-1.0
 20
0.0
 30
0.0
 11
0.0
 21
0.0
 31
0.0
  0
ENDBLK
  5
9E35
  8
0
  6
BYBLOCK
 62
     0
  0
ENDSEC
  0
SECTION
  2
ENTITIES
  0
ATTDEF
  5
3930
  8
DEFPOINTS
 10
3396.7314189223438916
 20
198.7041507083081058
 30
0.0
 40
0.001
  1
P34239-LV
  3

  2
MODELNUMBER
 70
     0
1001
ACDBATTR
1070
     0
1070
     1
  0
ATTDEF
  5
3931
  8
DEFPOINTS
 10
3396.7314189223438916
 20
198.7024840416414975
 30
0.0
 40
0.001
  1
GUISE
  3

  2
TRADENAME
 70
     0
1001
ACDBATTR
1070
     0
1070
     1
  0
ATTDEF
  5
3932
  8
DEFPOINTS
 10
3396.7314189223438916
 20
198.7008173749748039
 30
0.0
 40
0.001
  1
BATH FAUCET HANDLES
  3

  2
PRODUCT
 70
     0
1001
ACDBATTR
1070
     0
1070
     1
  0
ARC
  5
B8AA
  8
0
 10
3392.736060894484126
 20
198.6995080521062107
 30
0.0
 40
0.6299212598000002
 50
180.0
 51
0.0
  0
ARC
  5
B8AB
  8
0
 10
3392.736060894484126
 20
198.6995080521062107
 30
0.0
 40
1.0
 50
131.9907833132598114
 51
48.0092166798398097
  0
LINE
  5
B8AC
  8
0
 10
3392.1061396346840411
 20
198.6995080521062107
 30
0.0
 11
3392.1061396346840411
 21
199.6247049025062097
 31
0.0
  0
LINE
  5
B8AD
  8
0
 10
3393.3659821543838007
 20
198.6995080521062107
 30
0.0
 11
3393.3659821543838007
 21
199.9002655324061948
 31
0.0
  0
LINE
  5
B8AE
  8
0
 10
3393.3265821543827769
 20
199.6247049025062097
 30
0.0
 11
3390.3738860913840654
 21
199.6247049025062097
 31
0.0
  0
ARC
  5
B8AF
  8
0
 10
3391.9880396346839007
 20
199.5305386200681994
 30
0.0
 40
0.1181
 50
311.990783313259783
 51
0.0
  0
ARC
  5
B8B0
  8
0
 10
3393.4840821543839411
 20
199.5305386199781879
 30
0.0
 40
0.1181
 50
180.0
 51
228.0092166798397955
  0
LINE
  5
B8B1
  8
0
 10
3393.3265821543827769
 20
199.9396655324061953
 30
0.0
 11
3390.3738860913840654
 21
199.9396655324061953
 31
0.0
  0
LINE
  5
B8B2
  8
0
 10
3390.3344860913839511
 20
199.9002655324061948
 30
0.0
 11
3390.3344860913839511
 21
199.6641049025062102
 31
0.0
  0
ARC
  5
B8B3
  8
0
 10
3393.3265821543827769
 20
199.9002655324061948
 30
0.0
 40
0.0394
 50
0.0
 51
90.0
  0
ARC
  5
B8B4
  8
0
 10
3393.3265821543827769
 20
199.6641049025062102
 30
0.0
 40
0.0394
 50
270.0
 51
0.0
  0
ARC
  5
B8B5
  8
0
 10
3390.3738860913840654
 20
199.6641049025062102
 30
0.0
 40
0.0394
 50
180.0
 51
270.0
  0
ARC
  5
B8B6
  8
0
 10
3390.3738860913840654
 20
199.9002655324061948
 30
0.0
 40
0.0394
 50
90.0
 51
180.0
  0
ARC
  5
B8B7
  8
0
 10
3400.736060894484126
 20
198.6995080521062107
 30
0.0
 40
0.6299212598000002
 50
180.0
 51
0.0
  0
ARC
  5
B8B8
  8
0
 10
3400.736060894484126
 20
198.6995080521062107
 30
0.0
 40
1.0
 50
131.9907833201602045
 51
48.0092166867401176
  0
LINE
  5
B8B9
  8
0
 10
3401.365982154284211
 20
198.6995080521062107
 30
0.0
 11
3401.365982154284211
 21
199.6247049025062097
 31
0.0
  0
LINE
  5
B8BA
  8
0
 10
3400.1061396345839967
 20
198.6995080521062107
 30
0.0
 11
3400.1061396345839967
 21
199.9002655324061948
 31
0.0
  0
LINE
  5
B8BB
  8
0
 10
3400.1455396345841109
 20
199.6247049025062097
 30
0.0
 11
3403.0982356975841867
 21
199.6247049025062097
 31
0.0
  0
ARC
  5
B8BC
  8
0
 10
3401.4840821542838967
 20
199.5305386200681994
 30
0.0
 40
0.1181
 50
180.0
 51
228.0092166867401033
  0
ARC
  5
B8BD
  8
0
 10
3399.9880396345838562
 20
199.5305386199781879
 30
0.0
 40
0.1181
 50
311.9907833201601761
 51
0.0
  0
LINE
  5
B8BE
  8
0
 10
3400.1455396345841109
 20
199.9396655324061953
 30
0.0
 11
3403.0982356975841867
 21
199.9396655324061953
 31
0.0
  0
LINE
  5
B8BF
  8
0
 10
3403.1376356975838462
 20
199.9002655324061948
 30
0.0
 11
3403.1376356975838462
 21
199.6641049025062102
 31
0.0
  0
ARC
  5
B8C0
  8
0
 10
3400.1455396345841109
 20
199.9002655324061948
 30
0.0
 40
0.0394
 50
90.0
 51
180.0
  0
ARC
  5
B8C1
  8
0
 10
3400.1455396345841109
 20
199.6641049025062102
 30
0.0
 40
0.0394
 50
180.0
 51
270.0
  0
ARC
  5
B8C2
  8
0
 10
3403.0982356975841867
 20
199.6641049025062102
 30
0.0
 40
0.0394
 50
270.0
 51
0.0
  0
ARC
  5
B8C3
  8
0
 10
3403.0982356975841867
 20
199.9002655324061948
 30
0.0
 40
0.0394
 50
0.0
 51
90.0
  0
ENDSEC
  0
EOF
