  0
SECTION
  2
HEADER
  9
$ACADVER
  1
AC1009
  9
$INSBASE
 10
6575.2938596629546737
 20
297.9067959222364834
 30
0.0
  9
$EXTMIN
 10
6568.9552769858046304
 20
297.9017931296882011
 30
0.0
  9
$EXTMAX
 10
6576.8686628125551579
 20
306.5767959221365118
 30
0.0
  9
$LIMMIN
 10
0.0
 20
0.0
  9
$LIMMAX
 10
11.6929133858000007
 20
8.2677165353999982
  9
$ORTHOMODE
 70
     0
  9
$REGENMODE
 70
     1
  9
$FILLMODE
 70
     1
  9
$QTEXTMODE
 70
     0
  9
$MIRRTEXT
 70
     0
  9
$DRAGMODE
 70
     2
  9
$LTSCALE
 40
0.6431102362
  9
$OSMODE
 70
  4095
  9
$ATTMODE
 70
     1
  9
$TEXTSIZE
 40
0.2
  9
$TRACEWID
 40
0.05
  9
$TEXTSTYLE
  7
STANDARD
  9
$CLAYER
  8
0
  9
$CELTYPE
  6
BYLAYER
  9
$CECOLOR
 62
   256
  9
$DIMSCALE
 40
1.0
  9
$DIMASZ
 40
0.1875
  9
$DIMEXO
 40
0.0625
  9
$DIMDLI
 40
0.4443307087
  9
$DIMRND
 40
0.0
  9
$DIMDLE
 40
0.0
  9
$DIMEXE
 40
0.125
  9
$DIMTP
 40
0.01
  9
$DIMTM
 40
0.01
  9
$DIMTXT
 40
2.0
  9
$DIMCEN
 40
0.1052362205
  9
$DIMTSZ
 40
0.0
  9
$DIMTOL
 70
     1
  9
$DIMLIM
 70
     0
  9
$DIMTIH
 70
     1
  9
$DIMTOH
 70
     1
  9
$DIMSE1
 70
     0
  9
$DIMSE2
 70
     0
  9
$DIMTAD
 70
     0
  9
$DIMZIN
 70
     0
  9
$DIMBLK
  1

  9
$DIMASO
 70
     1
  9
$DIMSHO
 70
     1
  9
$DIMPOST
  1
\X
  9
$DIMAPOST
  1

  9
$DIMALT
 70
     1
  9
$DIMALTD
 70
     2
  9
$DIMALTF
 40
25.3999999999999986
  9
$DIMLFAC
 40
1.0
  9
$DIMTOFL
 70
     0
  9
$DIMTVP
 40
0.0
  9
$DIMTIX
 70
     0
  9
$DIMSOXD
 70
     0
  9
$DIMSAH
 70
     0
  9
$DIMBLK1
  1

  9
$DIMBLK2
  1

  9
$DIMSTYLE
  2
STANDARD
  9
$DIMCLRD
 70
     0
  9
$DIMCLRE
 70
     0
  9
$DIMCLRT
 70
     0
  9
$DIMTFAC
 40
1.0
  9
$DIMGAP
 40
0.09
  9
$LUNITS
 70
     2
  9
$LUPREC
 70
     4
  9
$SKETCHINC
 40
0.1
  9
$FILLETRAD
 40
0.0
  9
$AUNITS
 70
     0
  9
$AUPREC
 70
     0
  9
$MENU
  1
.
  9
$ELEVATION
 40
0.0
  9
$PELEVATION
 40
0.0
  9
$THICKNESS
 40
0.0
  9
$LIMCHECK
 70
     0
  9
$BLIPMODE
 70
     0
  9
$CHAMFERA
 40
0.0
  9
$CHAMFERB
 40
0.0
  9
$SKPOLY
 70
     0
  9
$TDCREATE
 40
2458060.468368056230247
  9
$TDUPDATE
 40
2460295.88226851914078
  9
$TDINDWG
 40
0.8668357638999999
  9
$TDUSRTIMER
 40
0.8668357638999999
  9
$USRTIMER
 70
     1
  9
$ANGBASE
 50
0.0
  9
$ANGDIR
 70
     0
  9
$PDMODE
 70
     0
  9
$PDSIZE
 40
0.3125
  9
$PLINEWID
 40
0.0
  9
$COORDS
 70
     1
  9
$SPLFRAME
 70
     0
  9
$SPLINETYPE
 70
     6
  9
$SPLINESEGS
 70
     8
  9
$ATTDIA
 70
     1
  9
$ATTREQ
 70
     1
  9
$HANDLING
 70
     1
  9
$HANDSEED
  5
30CFE
  9
$SURFTAB1
 70
     6
  9
$SURFTAB2
 70
     6
  9
$SURFTYPE
 70
     6
  9
$SURFU
 70
     6
  9
$SURFV
 70
     6
  9
$UCSNAME
  2

  9
$UCSORG
 10
0.0
 20
0.0
 30
0.0
  9
$UCSXDIR
 10
1.0
 20
0.0
 30
0.0
  9
$UCSYDIR
 10
0.0
 20
1.0
 30
0.0
  9
$PUCSNAME
  2

  9
$PUCSORG
 10
0.0
 20
0.0
 30
0.0
  9
$PUCSXDIR
 10
1.0
 20
0.0
 30
0.0
  9
$PUCSYDIR
 10
0.0
 20
1.0
 30
0.0
  9
$USERI1
 70
     0
  9
$USERI2
 70
     0
  9
$USERI3
 70
     0
  9
$USERI4
 70
     0
  9
$USERI5
 70
     0
  9
$USERR1
 40
0.0
  9
$USERR2
 40
0.0
  9
$USERR3
 40
0.0
  9
$USERR4
 40
0.0
  9
$USERR5
 40
0.0
  9
$WORLDVIEW
 70
     1
  9
$SHADEDGE
 70
     3
  9
$SHADEDIF
 70
    70
  9
$TILEMODE
 70
     1
  9
$MAXACTVP
 70
    64
  9
$PLIMCHECK
 70
     0
  9
$PEXTMIN
 10
1.0000000000000000E+20
 20
1.0000000000000000E+20
 30
1.0000000000000000E+20
  9
$PEXTMAX
 10
-1.0000000000000000E+20
 20
-1.0000000000000000E+20
 30
-1.0000000000000000E+20
  9
$PLIMMIN
 10
0.0
 20
0.0
  9
$PLIMMAX
 10
12.0
 20
9.0
  9
$UNITMODE
 70
     0
  9
$VISRETAIN
 70
     1
  9
$PLINEGEN
 70
     0
  9
$PSLTSCALE
 70
     1
  0
ENDSEC
  0
SECTION
  2
TABLES
  0
TABLE
  2
VPORT
 70
     1
  0
VPORT
  2
*ACTIVE
 70
     0
 10
0.0
 20
0.0
 11
1.0
 21
1.0
 12
2661.5466134538678489
 22
169.6596894233732939
 13
0.0
 23
0.0
 14
1.0
 24
1.0
 15
0.0
 25
0.0
 16
0.0
 26
0.0
 36
60.4960186965801583
 17
3911.3653564453120453
 27
132.5796051025390057
 37
0.0
 40
8.7501110417335326
 41
2.7369942196531789
 42
50.0
 43
0.0
 44
0.0
 50
0.0
 51
0.0
 71
     0
 72
   100
 73
     1
 74
     1
 75
     0
 76
     0
 77
     0
 78
     0
  0
ENDTAB
  0
TABLE
  2
LTYPE
 70
     2
  0
LTYPE
  2
CONTINUOUS
 70
     0
  3
Solid line
 72
    65
 73
     0
 40
0.0
  0
LTYPE
  2
PHANTOM2
 70
     0
  3
___ _ _ ___ _ _ ___ _ _ ___ _ _
 72
    65
 73
     6
 40
1.25
 49
0.625
 49
-0.125
 49
0.125
 49
-0.125
 49
0.125
 49
-0.125
  0
ENDTAB
  0
TABLE
  2
LAYER
 70
     2
  0
LAYER
  2
0
 70
     0
 62
   255
  6
CONTINUOUS
  0
LAYER
  2
DEFPOINTS
 70
     0
 62
     7
  6
CONTINUOUS
  0
ENDTAB
  0
TABLE
  2
STYLE
 70
     1
  0
STYLE
  2
STANDARD
 70
     0
 40
0.0
 41
0.8
 50
0.0
 71
     0
 42
0.2
  3
txt
  4

  0
ENDTAB
  0
TABLE
  2
VIEW
 70
     0
  0
ENDTAB
  0
TABLE
  2
UCS
 70
     0
  0
ENDTAB
  0
TABLE
  2
APPID
 70
    11
  0
APPID
  2
ACAD
 70
     0
  0
APPID
  2
ACAD_MLEADERVER
 70
     0
  0
APPID
  2
ACAD_EXEMPT_FROM_CAD_STANDARDS
 70
     0
  0
APPID
  2
ACAD_NAV_VCDISPLAY
 70
     0
  0
APPID
  2
ACAECLAYERSTANDARD
 70
     0
  0
APPID
  2
ACCMTRANSPARENCY
 70
     0
  0
APPID
  2
ACAD_DSTYLE_DIMJAG
 70
     0
  0
APPID
  2
ACAD_DSTYLE_DIMTALN
 70
     0
  0
APPID
  2
ACDBATTR
 70
     0
  0
APPID
  2
ACADANNOTATIVE
 70
     0
  0
APPID
  2
DCO15
 70
     0
  0
ENDTAB
  0
TABLE
  2
DIMSTYLE
 70
     1
  0
DIMSTYLE
  2
STANDARD
 70
     0
  3

  4

  5

  6

  7

 40
1.0
 41
0.1875
 42
0.0625
 43
0.38
 44
0.125
 45
0.0
 46
0.0
 47
0.01
 48
0.01
140
0.15625
141
0.09
142
0.0
143
25.3999999999999986
144
1.0
145
0.0
146
1.0
147
0.09
 71
     1
 72
     0
 73
     1
 74
     1
 75
     0
 76
     0
 77
     0
 78
     4
170
     0
171
     2
172
     0
173
     0
174
     0
175
     0
176
     0
177
     0
178
     0
  0
ENDTAB
  0
ENDSEC
  0
SECTION
  2
BLOCKS
  0
BLOCK
  8
0
  2
$MODEL_SPACE
 70
     0
 10
0.0
 20
0.0
 30
0.0
  3
$MODEL_SPACE
  1

  0
ENDBLK
  5
21
  8
0
  0
BLOCK
 67
     1
  8
0
  2
$PAPER_SPACE
 70
     0
 10
0.0
 20
0.0
 30
0.0
  3
$PAPER_SPACE
  1

  0
ENDBLK
  5
1D
 67
     1
  8
0
  0
BLOCK
  8
0
  2
_FILLED
 70
     0
 10
0.0
 20
0.0
 30
0.0
  3
_FILLED
  1

  0
SOLID
  5
26C2A
  8
0
  6
BYBLOCK
 62
     0
 10
0.0
 20
0.0
 30
0.0
 11
-1.0
 21
0.1666666667
 31
0.0
 12
-1.0
 22
-0.1666666667
 32
0.0
 13
-1.0
 23
-0.1666666667
 33
0.0
  0
ENDBLK
  5
26C2B
  8
0
  6
BYBLOCK
 62
     0
  0
ENDSEC
  0
SECTION
  2
ENTITIES
  0
ATTDEF
  5
26A5B
  8
DEFPOINTS
 10
6575.283112153842012
 20
297.9051264630215883
 30
0.0
 40
0.001
  1
P34234-00
  3

  2
MODELNUMBER
 70
     0
1001
ACDBATTR
1070
     0
1070
     1
  0
ATTDEF
  5
26A5C
  8
DEFPOINTS
 10
6575.2829863441838825
 20
297.9034596226425151
 30
0.0
 40
0.001
  1
GUISE
  3

  2
TRADENAME
 70
     0
1001
ACDBATTR
1070
     0
1070
     1
  0
ATTDEF
  5
26A5D
  8
DEFPOINTS
 10
6575.283112153842012
 20
297.9017931296882011
 30
0.0
 40
0.001
  1
BATHROOM SINK FAUCET
  3

  2
PRODUCT
 70
     0
1001
ACDBATTR
1070
     0
1070
     1
  0
LINE
  5
308BE
  8
0
 10
6575.4866624107553434
 20
306.5767959221365118
 30
0.0
 11
6576.2506624107536481
 21
306.5767959221365118
 31
0.0
  0
ARC
  5
308BF
  8
0
 10
6575.8686624107549505
 20
304.4114415914365281
 30
0.0
 40
0.5
 50
180.0
 51
0.0
  0
LINE
  5
308C0
  8
0
 10
6575.368662410754041
 20
304.4114415914365281
 30
0.0
 11
6575.368662410754041
 21
306.4587959221365168
 31
0.0
  0
LINE
  5
308C1
  8
0
 10
6576.3686624107549505
 20
304.4114415914365281
 30
0.0
 11
6576.3686624107549505
 21
306.4587959221365168
 31
0.0
  0
ARC
  5
308C2
  8
0
 10
6575.4866624107553434
 20
306.4587959221365168
 30
0.0
 40
0.118
 50
90.0
 51
180.0
  0
ARC
  5
308C3
  8
0
 10
6576.2506624107536481
 20
306.4587959221365168
 30
0.0
 40
0.118
 50
0.0
 51
90.0
  0
LINE
  5
308C4
  8
0
 10
6569.9552769858046304
 20
305.4067959222364834
 30
0.0
 11
6575.368662410754041
 21
305.4067959222364834
 31
0.0
  0
LINE
  5
308C5
  8
0
 10
6569.9552179306547259
 20
304.9343549773365112
 30
0.0
 11
6575.0031559108128931
 21
304.9343549773365112
 31
0.0
  0
LINE
  5
308C6
  8
0
 10
6568.9552769858046304
 20
303.9347959222365034
 30
0.0
 11
6568.9552769858046304
 21
304.4067959222364834
 31
0.0
  0
LINE
  5
308C7
  8
0
 10
6568.9832769858039683
 20
303.9067959222364834
 30
0.0
 11
6569.3997179306552425
 21
303.9067959222364834
 31
0.0
  0
LINE
  5
308C8
  8
0
 10
6569.4277179306545804
 20
303.9347959222365034
 30
0.0
 11
6569.4277179306545804
 21
304.4068549773364794
 31
0.0
  0
ARC
  5
308C9
  8
0
 10
6568.9832769858039683
 20
303.9347959222365034
 30
0.0
 40
0.028
 50
180.0000000000032117
 51
270.0
  0
ARC
  5
308CA
  8
0
 10
6569.3997179306552425
 20
303.9347959222365034
 30
0.0
 40
0.028
 50
270.0
 51
359.9999999999968168
  0
ARC
  5
308CB
  8
0
 10
6569.9552179306547259
 20
304.4068549773364794
 30
0.0
 40
0.5275
 50
90.0
 51
180.0
  0
ARC
  5
308CC
  8
0
 10
6569.9552769858046304
 20
304.4067959222364834
 30
0.0
 40
1.0
 50
90.0
 51
180.0
  0
LINE
  5
308CD
  8
0
 10
6576.8686628125551579
 20
304.4067959222364834
 30
0.0
 11
6576.8686628125551579
 21
299.0345964196553155
 31
0.0
  0
LINE
  5
308CE
  8
0
 10
6576.3962218676551856
 20
303.5127237093365125
 30
0.0
 11
6576.3962218676551856
 21
299.1036997630001224
 31
0.0
  0
ARC
  5
308CF
  8
0
 10
6575.8686628125560674
 20
304.4067959222364834
 30
0.0
 40
1.0
 50
0.0
 51
60.0000265828810413
  0
ARC
  5
308D0
  8
0
 10
6574.9706925090404184
 20
304.7363026858814123
 30
0.0
 40
0.2006952480882922
 50
351.0253937642631854
 51
80.6912394090350631
  0
ARC
  5
308D1
  8
0
 10
6575.8687048556548689
 20
304.417467678336493
 30
0.0
 40
0.7565419226760639
 50
133.854580766709887
 51
46.1534961318111172
  0
ARC
  5
308D2
  8
0
 10
6575.2901624107553289
 20
305.0196168725364032
 30
0.0
 40
0.0785
 50
313.8545807667100007
 51
0.0
  0
ARC
  5
308D3
  8
0
 10
6576.4471624107536627
 20
305.0196984227977168
 30
0.0
 40
0.0785
 50
180.0
 51
226.1534961318110959
  0
ARC
  5
308D4
  8
0
 10
6576.1993718676549179
 20
303.5127237093365125
 30
0.0
 40
0.1968499999000048
 50
0.0
 51
96.1884520190801737
  0
ARC
  5
308D5
  8
0
 10
6575.869347470215871
 20
304.3973730287066815
 30
0.0
 40
0.7549882022110763
 50
185.5037036666566905
 51
358.1596155931383123
  0
ARC
  5
308D6
  8
0
 10
6575.8686484887521146
 20
304.456037511699094
 30
0.0
 40
0.8064173074916663
 50
262.2686920903960868
 51
277.7333791386815847
  0
ARC
  5
308D7
  8
0
 10
6575.8686535469578303
 20
304.1761902514464282
 30
0.0
 40
0.5304525733472915
 50
258.1983406021760743
 51
281.8037306268507791
  0
LINE
  5
308D8
  8
0
 10
6574.6131982456536207
 20
298.5760997630001157
 30
0.0
 11
6575.8686218676539283
 21
298.5760997630001157
 31
0.0
  0
LINE
  5
308D9
  8
0
 10
6574.5851982456561018
 20
298.548099762999982
 30
0.0
 11
6574.5851982456561018
 21
298.4974967110056241
 31
0.0
  0
LINE
  5
308DA
  8
0
 10
6574.2478596629525782
 20
298.3004967110056214
 30
0.0
 11
6576.4693231333631047
 21
298.3004967110056214
 31
0.0
  0
LINE
  5
308DB
  8
0
 10
6574.1688596629537642
 20
297.9067959222364834
 30
0.0
 11
6576.4188596629546737
 21
297.9067959222364834
 31
0.0
  0
LINE
  5
308DC
  8
0
 10
6574.1688596629537642
 20
298.2214967110056136
 30
0.0
 11
6574.1688596629537642
 21
297.9067959222364834
 31
0.0
  0
ARC
  5
308DD
  8
0
 10
6575.8686218676539283
 20
299.1036997630001224
 30
0.0
 40
0.5276
 50
270.0
 51
0.0
  0
ARC
  5
308DE
  8
0
 10
6575.8601612633638069
 20
299.1118499795555863
 30
0.0
 40
1.0114561222505121
 50
308.7072956433701734
 51
355.6195649192691803
  0
LINE
  5
308DF
  8
0
 10
6576.4188596629546737
 20
298.1688302935148727
 30
0.0
 11
6576.4188596629546737
 21
297.9067959222364834
 31
0.0
  0
ARC
  5
308E0
  8
0
 10
6576.6158596629547901
 20
298.1688302935148727
 30
0.0
 40
0.197
 50
128.7072956434128912
 51
180.0
  0
ARC
  5
308E1
  8
0
 10
6574.6131982456536207
 20
298.548099762999982
 30
0.0
 40
0.028
 50
90.0
 51
180.0
  0
ARC
  5
308E2
  8
0
 10
6574.3881982456559854
 20
298.4974967110056241
 30
0.0
 40
0.197
 50
270.0
 51
0.0
  0
ARC
  5
308E3
  8
0
 10
6574.2478596629525782
 20
298.2214967110056136
 30
0.0
 40
0.079
 50
90.0
 51
179.9999999999967031
  0
ENDSEC
  0
EOF
