  0
SECTION
  2
HEADER
  9
$ACADVER
  1
AC1009
  9
$INSBASE
 10
6689.4298761423096948
 20
180.2593944142390967
 30
0.0
  9
$EXTMIN
 10
6688.3048761423106043
 20
173.9208117370891102
 30
0.0
  9
$EXTMAX
 10
6692.5123963470095987
 20
181.8341975638390977
 30
0.0
  9
$LIMMIN
 10
0.0
 20
0.0
  9
$LIMMAX
 10
11.6929133858000007
 20
8.2677165353999982
  9
$ORTHOMODE
 70
     0
  9
$REGENMODE
 70
     1
  9
$FILLMODE
 70
     1
  9
$QTEXTMODE
 70
     0
  9
$MIRRTEXT
 70
     0
  9
$DRAGMODE
 70
     2
  9
$LTSCALE
 40
0.6431102362
  9
$OSMODE
 70
  4095
  9
$ATTMODE
 70
     1
  9
$TEXTSIZE
 40
0.2
  9
$TRACEWID
 40
0.05
  9
$TEXTSTYLE
  7
STANDARD
  9
$CLAYER
  8
0
  9
$CELTYPE
  6
BYLAYER
  9
$CECOLOR
 62
   256
  9
$DIMSCALE
 40
1.0
  9
$DIMASZ
 40
0.1875
  9
$DIMEXO
 40
0.0625
  9
$DIMDLI
 40
0.4443307087
  9
$DIMRND
 40
0.0
  9
$DIMDLE
 40
0.0
  9
$DIMEXE
 40
0.125
  9
$DIMTP
 40
0.01
  9
$DIMTM
 40
0.01
  9
$DIMTXT
 40
2.0
  9
$DIMCEN
 40
0.1052362205
  9
$DIMTSZ
 40
0.0
  9
$DIMTOL
 70
     1
  9
$DIMLIM
 70
     0
  9
$DIMTIH
 70
     1
  9
$DIMTOH
 70
     1
  9
$DIMSE1
 70
     0
  9
$DIMSE2
 70
     0
  9
$DIMTAD
 70
     0
  9
$DIMZIN
 70
     0
  9
$DIMBLK
  1

  9
$DIMASO
 70
     1
  9
$DIMSHO
 70
     1
  9
$DIMPOST
  1
\X
  9
$DIMAPOST
  1

  9
$DIMALT
 70
     1
  9
$DIMALTD
 70
     2
  9
$DIMALTF
 40
25.3999999999999986
  9
$DIMLFAC
 40
1.0
  9
$DIMTOFL
 70
     0
  9
$DIMTVP
 40
0.0
  9
$DIMTIX
 70
     0
  9
$DIMSOXD
 70
     0
  9
$DIMSAH
 70
     0
  9
$DIMBLK1
  1

  9
$DIMBLK2
  1

  9
$DIMSTYLE
  2
STANDARD
  9
$DIMCLRD
 70
     0
  9
$DIMCLRE
 70
     0
  9
$DIMCLRT
 70
     0
  9
$DIMTFAC
 40
1.0
  9
$DIMGAP
 40
0.09
  9
$LUNITS
 70
     2
  9
$LUPREC
 70
     4
  9
$SKETCHINC
 40
0.1
  9
$FILLETRAD
 40
0.0
  9
$AUNITS
 70
     0
  9
$AUPREC
 70
     0
  9
$MENU
  1
.
  9
$ELEVATION
 40
0.0
  9
$PELEVATION
 40
0.0
  9
$THICKNESS
 40
0.0
  9
$LIMCHECK
 70
     0
  9
$BLIPMODE
 70
     0
  9
$CHAMFERA
 40
0.0
  9
$CHAMFERB
 40
0.0
  9
$SKPOLY
 70
     0
  9
$TDCREATE
 40
2458060.468368056230247
  9
$TDUPDATE
 40
2460295.8820254630409181
  9
$TDINDWG
 40
0.8590232638999999
  9
$TDUSRTIMER
 40
0.8590232638999999
  9
$USRTIMER
 70
     1
  9
$ANGBASE
 50
0.0
  9
$ANGDIR
 70
     0
  9
$PDMODE
 70
     0
  9
$PDSIZE
 40
0.3125
  9
$PLINEWID
 40
0.0
  9
$COORDS
 70
     1
  9
$SPLFRAME
 70
     0
  9
$SPLINETYPE
 70
     6
  9
$SPLINESEGS
 70
     8
  9
$ATTDIA
 70
     1
  9
$ATTREQ
 70
     1
  9
$HANDLING
 70
     1
  9
$HANDSEED
  5
300C5
  9
$SURFTAB1
 70
     6
  9
$SURFTAB2
 70
     6
  9
$SURFTYPE
 70
     6
  9
$SURFU
 70
     6
  9
$SURFV
 70
     6
  9
$UCSNAME
  2

  9
$UCSORG
 10
0.0
 20
0.0
 30
0.0
  9
$UCSXDIR
 10
1.0
 20
0.0
 30
0.0
  9
$UCSYDIR
 10
0.0
 20
1.0
 30
0.0
  9
$PUCSNAME
  2

  9
$PUCSORG
 10
0.0
 20
0.0
 30
0.0
  9
$PUCSXDIR
 10
1.0
 20
0.0
 30
0.0
  9
$PUCSYDIR
 10
0.0
 20
1.0
 30
0.0
  9
$USERI1
 70
     0
  9
$USERI2
 70
     0
  9
$USERI3
 70
     0
  9
$USERI4
 70
     0
  9
$USERI5
 70
     0
  9
$USERR1
 40
0.0
  9
$USERR2
 40
0.0
  9
$USERR3
 40
0.0
  9
$USERR4
 40
0.0
  9
$USERR5
 40
0.0
  9
$WORLDVIEW
 70
     1
  9
$SHADEDGE
 70
     3
  9
$SHADEDIF
 70
    70
  9
$TILEMODE
 70
     1
  9
$MAXACTVP
 70
    64
  9
$PLIMCHECK
 70
     0
  9
$PEXTMIN
 10
1.0000000000000000E+20
 20
1.0000000000000000E+20
 30
1.0000000000000000E+20
  9
$PEXTMAX
 10
-1.0000000000000000E+20
 20
-1.0000000000000000E+20
 30
-1.0000000000000000E+20
  9
$PLIMMIN
 10
0.0
 20
0.0
  9
$PLIMMAX
 10
12.0
 20
9.0
  9
$UNITMODE
 70
     0
  9
$VISRETAIN
 70
     1
  9
$PLINEGEN
 70
     0
  9
$PSLTSCALE
 70
     1
  0
ENDSEC
  0
SECTION
  2
TABLES
  0
TABLE
  2
VPORT
 70
     1
  0
VPORT
  2
*ACTIVE
 70
     0
 10
0.0
 20
0.0
 11
1.0
 21
1.0
 12
2779.0432797993480563
 22
45.2978995479250699
 13
0.0
 23
0.0
 14
1.0
 24
1.0
 15
0.0
 25
0.0
 16
0.0
 26
0.0
 36
60.4960186965801583
 17
3911.3653564453120453
 27
132.5796051025390057
 37
0.0
 40
7.9818999897521499
 41
2.7369942196531789
 42
50.0
 43
0.0
 44
0.0
 50
0.0
 51
0.0
 71
     0
 72
   100
 73
     1
 74
     1
 75
     0
 76
     0
 77
     0
 78
     0
  0
ENDTAB
  0
TABLE
  2
LTYPE
 70
     2
  0
LTYPE
  2
CONTINUOUS
 70
     0
  3
Solid line
 72
    65
 73
     0
 40
0.0
  0
LTYPE
  2
PHANTOM2
 70
     0
  3
___ _ _ ___ _ _ ___ _ _ ___ _ _
 72
    65
 73
     6
 40
1.25
 49
0.625
 49
-0.125
 49
0.125
 49
-0.125
 49
0.125
 49
-0.125
  0
ENDTAB
  0
TABLE
  2
LAYER
 70
     2
  0
LAYER
  2
0
 70
     0
 62
   255
  6
CONTINUOUS
  0
LAYER
  2
DEFPOINTS
 70
     0
 62
     7
  6
CONTINUOUS
  0
ENDTAB
  0
TABLE
  2
STYLE
 70
     1
  0
STYLE
  2
STANDARD
 70
     0
 40
0.0
 41
0.8
 50
0.0
 71
     0
 42
0.2
  3
txt
  4

  0
ENDTAB
  0
TABLE
  2
VIEW
 70
     0
  0
ENDTAB
  0
TABLE
  2
UCS
 70
     0
  0
ENDTAB
  0
TABLE
  2
APPID
 70
    11
  0
APPID
  2
ACAD
 70
     0
  0
APPID
  2
ACAD_MLEADERVER
 70
     0
  0
APPID
  2
ACAD_EXEMPT_FROM_CAD_STANDARDS
 70
     0
  0
APPID
  2
ACAD_NAV_VCDISPLAY
 70
     0
  0
APPID
  2
ACAECLAYERSTANDARD
 70
     0
  0
APPID
  2
ACCMTRANSPARENCY
 70
     0
  0
APPID
  2
ACAD_DSTYLE_DIMJAG
 70
     0
  0
APPID
  2
ACAD_DSTYLE_DIMTALN
 70
     0
  0
APPID
  2
ACDBATTR
 70
     0
  0
APPID
  2
ACADANNOTATIVE
 70
     0
  0
APPID
  2
DCO15
 70
     0
  0
ENDTAB
  0
TABLE
  2
DIMSTYLE
 70
     1
  0
DIMSTYLE
  2
STANDARD
 70
     0
  3

  4

  5

  6

  7

 40
1.0
 41
0.1875
 42
0.0625
 43
0.38
 44
0.125
 45
0.0
 46
0.0
 47
0.01
 48
0.01
140
0.15625
141
0.09
142
0.0
143
25.3999999999999986
144
1.0
145
0.0
146
1.0
147
0.09
 71
     1
 72
     0
 73
     1
 74
     1
 75
     0
 76
     0
 77
     0
 78
     4
170
     0
171
     2
172
     0
173
     0
174
     0
175
     0
176
     0
177
     0
178
     0
  0
ENDTAB
  0
ENDSEC
  0
SECTION
  2
BLOCKS
  0
BLOCK
  8
0
  2
$MODEL_SPACE
 70
     0
 10
0.0
 20
0.0
 30
0.0
  3
$MODEL_SPACE
  1

  0
ENDBLK
  5
21
  8
0
  0
BLOCK
 67
     1
  8
0
  2
$PAPER_SPACE
 70
     0
 10
0.0
 20
0.0
 30
0.0
  3
$PAPER_SPACE
  1

  0
ENDBLK
  5
1D
 67
     1
  8
0
  0
BLOCK
  8
0
  2
_FILLED
 70
     0
 10
0.0
 20
0.0
 30
0.0
  3
_FILLED
  1

  0
SOLID
  5
257AF
  8
0
  6
BYBLOCK
 62
     0
 10
0.0
 20
0.0
 30
0.0
 11
-1.0
 21
0.1666666667
 31
0.0
 12
-1.0
 22
-0.1666666667
 32
0.0
 13
-1.0
 23
-0.1666666667
 33
0.0
  0
ENDBLK
  5
257B0
  8
0
  6
BYBLOCK
 62
     0
  0
ENDSEC
  0
SECTION
  2
ENTITIES
  0
ATTDEF
  5
256E4
  8
DEFPOINTS
 10
6689.4189510412697928
 20
180.2634366023426935
 30
0.0
 40
0.001
  1
P34234-00
  3

  2
MODELNUMBER
 70
     0
1001
ACDBATTR
1070
     0
1070
     1
  0
ATTDEF
  5
256E5
  8
DEFPOINTS
 10
6689.4188252316116632
 20
180.2617697619635919
 30
0.0
 40
0.001
  1
GUISE
  3

  2
TRADENAME
 70
     0
1001
ACDBATTR
1070
     0
1070
     1
  0
ATTDEF
  5
256E6
  8
DEFPOINTS
 10
6689.4189510412697928
 20
180.2601032690093916
 30
0.0
 40
0.001
  1
BATHROOM SINK FAUCET
  3

  2
PRODUCT
 70
     0
1001
ACDBATTR
1070
     0
1070
     1
  0
LINE
  5
2FCC5
  8
0
 10
6692.2315538273105631
 20
180.359197162039095
 30
0.0
 11
6692.2315538273105631
 21
181.3091971620391121
 31
0.0
  0
LINE
  5
2FCC6
  8
0
 10
6692.5123963470095987
 20
180.6271769034555064
 30
0.0
 11
6692.5123963470095987
 21
181.0412174206227007
 31
0.0
  0
LINE
  5
2FCC7
  8
0
 10
6690.1385375596109952
 20
173.9488117370891018
 30
0.0
 11
6690.1385375596109952
 21
181.8061975638391061
 31
0.0
  0
LINE
  5
2FCC8
  8
0
 10
6688.7212254293099249
 20
173.9488117370891018
 30
0.0
 11
6688.7212254293099249
 21
181.8061975638391061
 31
0.0
  0
LINE
  5
2FCC9
  8
0
 10
6691.5167125169564315
 20
180.0977723669390969
 30
0.0
 11
6691.5167125169564315
 21
181.570622760639111
 31
0.0
  0
LINE
  5
2FCCA
  8
0
 10
6691.6064648546789613
 20
180.1022723669391041
 30
0.0
 11
6691.6064648546789613
 21
181.5661227606391037
 31
0.0
  0
LINE
  5
2FCCB
  8
0
 10
6690.1105375596098384
 20
181.8341975638390977
 30
0.0
 11
6688.7492254293110818
 21
181.8341975638390977
 31
0.0
  0
LINE
  5
2FCCC
  8
0
 10
6688.7492254293110818
 20
173.9208117370891102
 30
0.0
 11
6690.1105375596098384
 21
173.9208117370891102
 31
0.0
  0
ARC
  5
2FCCD
  8
0
 10
6690.1105375596098384
 20
181.8061975638391061
 30
0.0
 40
0.028
 50
0.0
 51
90.0
  0
ARC
  5
2FCCE
  8
0
 10
6688.7492254293110818
 20
181.8061975638391061
 30
0.0
 40
0.028
 50
90.0
 51
180.0000000000065086
  0
ARC
  5
2FCCF
  8
0
 10
6688.7492254293110818
 20
173.9488117370891018
 30
0.0
 40
0.028
 50
180.0
 51
270.0
  0
ARC
  5
2FCD0
  8
0
 10
6690.1105375596098384
 20
173.9488117370891018
 30
0.0
 40
0.028
 50
270.0
 51
0.0000000000032569
  0
ARC
  5
2FCD1
  8
0
 10
6689.4298761423096948
 20
180.2593944142390967
 30
0.0
 40
1.125
 50
129.0436115343235031
 51
230.9563884656764969
  0
ARC
  5
2FCD2
  8
0
 10
6689.4298761423096948
 20
180.2593944142390967
 30
0.0
 40
1.125
 50
309.0443134676268073
 51
350.7094054934469796
  0
LINE
  5
2FCD3
  8
0
 10
6691.4967125169569044
 20
181.5906227606390928
 30
0.0
 11
6690.2565375596113881
 21
181.5906227606390928
 31
0.0
  0
LINE
  5
2FCD4
  8
0
 10
6691.6309648546803146
 20
181.5906227606390928
 30
0.0
 11
6692.3053958273112585
 21
181.5906227606390928
 31
0.0
  0
LINE
  5
2FCD5
  8
0
 10
6691.4967125169569044
 20
180.0777723669390866
 30
0.0
 11
6690.1385375596109952
 21
180.0777723669390866
 31
0.0
  0
LINE
  5
2FCD6
  8
0
 10
6691.6309648546803146
 20
180.0777723669390866
 30
0.0
 11
6692.3049958273113589
 21
180.0777723669390866
 31
0.0
  0
ARC
  5
2FCD7
  8
0
 10
6691.4967125169569044
 20
181.570622760639111
 30
0.0
 40
0.02
 50
0.0
 51
90.0
  0
ARC
  5
2FCD8
  8
0
 10
6691.4967125169569044
 20
180.0977723669390969
 30
0.0
 40
0.02
 50
270.0
 51
359.9999999999902229
  0
ARC
  5
2FCD9
  8
0
 10
6691.3575210333101495
 20
180.834197563739707
 30
0.0
 40
0.7018772542993431
 50
69.2259920619721498
 51
76.8907731251896962
  0
ARC
  5
2FCDA
  8
0
 10
6691.3575210333101495
 20
180.834197563737888
 30
0.0
 40
0.7018772542987481
 50
283.1092268748099059
 51
290.774007938028376
  0
ARC
  5
2FCDB
  8
0
 10
6690.2565375596113881
 20
181.7086227606390878
 30
0.0
 40
0.118
 50
180.0
 51
270.0
  0
ARC
  5
2FCDC
  8
0
 10
6691.6309648546803146
 20
180.1022723669391041
 30
0.0
 40
0.0245
 50
180.0
 51
270.0
  0
ARC
  5
2FCDD
  8
0
 10
6691.6309648546803146
 20
181.5661227606391037
 30
0.0
 40
0.0245
 50
90.0
 51
180.0000000000081002
  0
LINE
  5
2FCDE
  8
0
 10
6692.2565538273120183
 20
181.3341971620390893
 30
0.0
 11
6692.4784960499573572
 21
181.3341971620390893
 31
0.0
  0
LINE
  5
2FCDF
  8
0
 10
6692.3443958273110184
 20
181.5516227606391055
 30
0.0
 11
6692.3443958273110184
 21
181.4131971620390971
 31
0.0
  0
LINE
  5
2FCE0
  8
0
 10
6692.3443958273110184
 20
180.25519716203911
 30
0.0
 11
6692.3443958273110184
 21
180.1171723669390872
 31
0.0
  0
ARC
  5
2FCE1
  8
0
 10
6692.3053958273112585
 20
181.5516227606391055
 30
0.0
 40
0.039
 50
0.0
 51
90.0
  0
ARC
  5
2FCE2
  8
0
 10
6692.4233958273107419
 20
181.4131971620390971
 30
0.0
 40
0.079
 50
179.9999999999967031
 51
270.0
  0
ARC
  5
2FCE3
  8
0
 10
6692.2565538273120183
 20
181.3091971620391121
 30
0.0
 40
0.025
 50
90.0
 51
179.9999999999917861
  0
LINE
  5
2FCE4
  8
0
 10
6692.2565538273120183
 20
180.3341971620390893
 30
0.0
 11
6692.4784960499573572
 21
180.3341971620390893
 31
0.0
  0
ARC
  5
2FCE5
  8
0
 10
6692.2565538273120183
 20
180.359197162039095
 30
0.0
 40
0.025
 50
180.0
 51
270.0
  0
ARC
  5
2FCE6
  8
0
 10
6692.3049958273113589
 20
180.1171723669390872
 30
0.0
 40
0.0394
 50
270.0
 51
0.0000000000097707
  0
ARC
  5
2FCE7
  8
0
 10
6692.4233958273107419
 20
180.25519716203911
 30
0.0
 40
0.079
 50
90.0
 51
179.9999999999967031
  0
LINE
  5
2FCE8
  8
0
 10
6692.5034823153919206
 20
181.3100257389280898
 30
0.0
 11
6692.5123963470095987
 21
181.0412174206227007
 31
0.0
  0
LINE
  5
2FCE9
  8
0
 10
6692.5034823153919206
 20
180.3583685851500888
 30
0.0
 11
6692.5123963470095987
 21
180.6271769034555064
 31
0.0
  0
ARC
  5
2FCEA
  8
0
 10
6692.4784960499573572
 20
180.359197162039095
 30
0.0
 40
0.025
 50
270.0
 51
358.1006938222370763
  0
ARC
  5
2FCEB
  8
0
 10
6692.4784960499573572
 20
181.3091971620391121
 30
0.0
 40
0.025
 50
1.8993061777792091
 51
90.0
  0
ENDSEC
  0
EOF
