  0
SECTION
  2
HEADER
  9
$ACADVER
  1
AC1009
  9
$INSBASE
 10
6593.0515211298670692
 20
328.8082560192779056
 30
0.0
  9
$EXTMIN
 10
6591.9265211298670692
 20
328.8029541107837872
 30
0.0
  9
$EXTMAX
 10
6596.1340413345669731
 20
337.4782560191778202
 30
0.0
  9
$LIMMIN
 10
0.0
 20
0.0
  9
$LIMMAX
 10
11.6929133858000007
 20
8.2677165353999982
  9
$ORTHOMODE
 70
     0
  9
$REGENMODE
 70
     1
  9
$FILLMODE
 70
     1
  9
$QTEXTMODE
 70
     0
  9
$MIRRTEXT
 70
     0
  9
$DRAGMODE
 70
     2
  9
$LTSCALE
 40
0.6431102362
  9
$OSMODE
 70
  4095
  9
$ATTMODE
 70
     1
  9
$TEXTSIZE
 40
0.2
  9
$TRACEWID
 40
0.05
  9
$TEXTSTYLE
  7
STANDARD
  9
$CLAYER
  8
0
  9
$CELTYPE
  6
BYLAYER
  9
$CECOLOR
 62
   256
  9
$DIMSCALE
 40
1.0
  9
$DIMASZ
 40
0.1875
  9
$DIMEXO
 40
0.0625
  9
$DIMDLI
 40
0.4443307087
  9
$DIMRND
 40
0.0
  9
$DIMDLE
 40
0.0
  9
$DIMEXE
 40
0.125
  9
$DIMTP
 40
0.01
  9
$DIMTM
 40
0.01
  9
$DIMTXT
 40
2.0
  9
$DIMCEN
 40
0.1052362205
  9
$DIMTSZ
 40
0.0
  9
$DIMTOL
 70
     1
  9
$DIMLIM
 70
     0
  9
$DIMTIH
 70
     1
  9
$DIMTOH
 70
     1
  9
$DIMSE1
 70
     0
  9
$DIMSE2
 70
     0
  9
$DIMTAD
 70
     0
  9
$DIMZIN
 70
     0
  9
$DIMBLK
  1

  9
$DIMASO
 70
     1
  9
$DIMSHO
 70
     1
  9
$DIMPOST
  1
\X
  9
$DIMAPOST
  1

  9
$DIMALT
 70
     1
  9
$DIMALTD
 70
     2
  9
$DIMALTF
 40
25.3999999999999986
  9
$DIMLFAC
 40
1.0
  9
$DIMTOFL
 70
     0
  9
$DIMTVP
 40
0.0
  9
$DIMTIX
 70
     0
  9
$DIMSOXD
 70
     0
  9
$DIMSAH
 70
     0
  9
$DIMBLK1
  1

  9
$DIMBLK2
  1

  9
$DIMSTYLE
  2
STANDARD
  9
$DIMCLRD
 70
     0
  9
$DIMCLRE
 70
     0
  9
$DIMCLRT
 70
     0
  9
$DIMTFAC
 40
1.0
  9
$DIMGAP
 40
0.09
  9
$LUNITS
 70
     2
  9
$LUPREC
 70
     4
  9
$SKETCHINC
 40
0.1
  9
$FILLETRAD
 40
0.08
  9
$AUNITS
 70
     0
  9
$AUPREC
 70
     0
  9
$MENU
  1
.
  9
$ELEVATION
 40
0.0
  9
$PELEVATION
 40
0.0
  9
$THICKNESS
 40
0.0
  9
$LIMCHECK
 70
     0
  9
$BLIPMODE
 70
     0
  9
$CHAMFERA
 40
0.0
  9
$CHAMFERB
 40
0.0
  9
$SKPOLY
 70
     0
  9
$TDCREATE
 40
2458060.468368056230247
  9
$TDUPDATE
 40
2460295.8817824069410563
  9
$TDINDWG
 40
0.8484329861
  9
$TDUSRTIMER
 40
0.8484329861
  9
$USRTIMER
 70
     1
  9
$ANGBASE
 50
0.0
  9
$ANGDIR
 70
     0
  9
$PDMODE
 70
     0
  9
$PDSIZE
 40
0.3125
  9
$PLINEWID
 40
0.0
  9
$COORDS
 70
     1
  9
$SPLFRAME
 70
     0
  9
$SPLINETYPE
 70
     6
  9
$SPLINESEGS
 70
     8
  9
$ATTDIA
 70
     1
  9
$ATTREQ
 70
     1
  9
$HANDLING
 70
     1
  9
$HANDSEED
  5
373B9
  9
$SURFTAB1
 70
     6
  9
$SURFTAB2
 70
     6
  9
$SURFTYPE
 70
     6
  9
$SURFU
 70
     6
  9
$SURFV
 70
     6
  9
$UCSNAME
  2

  9
$UCSORG
 10
0.0
 20
0.0
 30
0.0
  9
$UCSXDIR
 10
1.0
 20
0.0
 30
0.0
  9
$UCSYDIR
 10
0.0
 20
1.0
 30
0.0
  9
$PUCSNAME
  2

  9
$PUCSORG
 10
0.0
 20
0.0
 30
0.0
  9
$PUCSXDIR
 10
1.0
 20
0.0
 30
0.0
  9
$PUCSYDIR
 10
0.0
 20
1.0
 30
0.0
  9
$USERI1
 70
     0
  9
$USERI2
 70
     0
  9
$USERI3
 70
     0
  9
$USERI4
 70
     0
  9
$USERI5
 70
     0
  9
$USERR1
 40
0.0
  9
$USERR2
 40
0.0
  9
$USERR3
 40
0.0
  9
$USERR4
 40
0.0
  9
$USERR5
 40
0.0
  9
$WORLDVIEW
 70
     1
  9
$SHADEDGE
 70
     3
  9
$SHADEDIF
 70
    70
  9
$TILEMODE
 70
     1
  9
$MAXACTVP
 70
    64
  9
$PLIMCHECK
 70
     0
  9
$PEXTMIN
 10
1.0000000000000000E+20
 20
1.0000000000000000E+20
 30
1.0000000000000000E+20
  9
$PEXTMAX
 10
-1.0000000000000000E+20
 20
-1.0000000000000000E+20
 30
-1.0000000000000000E+20
  9
$PLIMMIN
 10
0.0
 20
0.0
  9
$PLIMMAX
 10
12.0
 20
9.0
  9
$UNITMODE
 70
     0
  9
$VISRETAIN
 70
     1
  9
$PLINEGEN
 70
     0
  9
$PSLTSCALE
 70
     1
  0
ENDSEC
  0
SECTION
  2
TABLES
  0
TABLE
  2
VPORT
 70
     1
  0
VPORT
  2
*ACTIVE
 70
     0
 10
0.0
 20
0.0
 11
1.0
 21
1.0
 12
2682.6649247869040664
 22
200.5609999624417981
 13
0.0
 23
0.0
 14
1.0
 24
1.0
 15
0.0
 25
0.0
 16
0.0
 26
0.0
 36
60.4960186965801583
 17
3911.3653564453120453
 27
132.5796051025390057
 37
0.0
 40
8.7504127474276743
 41
2.7369942196531789
 42
50.0
 43
0.0
 44
0.0
 50
0.0
 51
0.0
 71
     0
 72
   100
 73
     1
 74
     1
 75
     0
 76
     0
 77
     0
 78
     0
  0
ENDTAB
  0
TABLE
  2
LTYPE
 70
     2
  0
LTYPE
  2
CONTINUOUS
 70
     0
  3
Solid line
 72
    65
 73
     0
 40
0.0
  0
LTYPE
  2
PHANTOM2
 70
     0
  3
___ _ _ ___ _ _ ___ _ _ ___ _ _
 72
    65
 73
     6
 40
1.25
 49
0.625
 49
-0.125
 49
0.125
 49
-0.125
 49
0.125
 49
-0.125
  0
ENDTAB
  0
TABLE
  2
LAYER
 70
     2
  0
LAYER
  2
0
 70
     0
 62
   255
  6
CONTINUOUS
  0
LAYER
  2
DEFPOINTS
 70
     0
 62
     7
  6
CONTINUOUS
  0
ENDTAB
  0
TABLE
  2
STYLE
 70
     1
  0
STYLE
  2
STANDARD
 70
     0
 40
0.0
 41
0.8
 50
0.0
 71
     0
 42
0.2
  3
txt
  4

  0
ENDTAB
  0
TABLE
  2
VIEW
 70
     0
  0
ENDTAB
  0
TABLE
  2
UCS
 70
     0
  0
ENDTAB
  0
TABLE
  2
APPID
 70
    11
  0
APPID
  2
ACAD
 70
     0
  0
APPID
  2
ACAD_MLEADERVER
 70
     0
  0
APPID
  2
ACAD_EXEMPT_FROM_CAD_STANDARDS
 70
     0
  0
APPID
  2
ACAD_NAV_VCDISPLAY
 70
     0
  0
APPID
  2
ACAECLAYERSTANDARD
 70
     0
  0
APPID
  2
ACCMTRANSPARENCY
 70
     0
  0
APPID
  2
ACAD_DSTYLE_DIMJAG
 70
     0
  0
APPID
  2
ACAD_DSTYLE_DIMTALN
 70
     0
  0
APPID
  2
ACDBATTR
 70
     0
  0
APPID
  2
ACADANNOTATIVE
 70
     0
  0
APPID
  2
DCO15
 70
     0
  0
ENDTAB
  0
TABLE
  2
DIMSTYLE
 70
     1
  0
DIMSTYLE
  2
STANDARD
 70
     0
  3

  4

  5

  6

  7

 40
1.0
 41
0.1875
 42
0.0625
 43
0.38
 44
0.125
 45
0.0
 46
0.0
 47
0.01
 48
0.01
140
0.15625
141
0.09
142
0.0
143
25.3999999999999986
144
1.0
145
0.0
146
1.0
147
0.09
 71
     1
 72
     0
 73
     1
 74
     1
 75
     0
 76
     0
 77
     0
 78
     4
170
     0
171
     2
172
     0
173
     0
174
     0
175
     0
176
     0
177
     0
178
     0
  0
ENDTAB
  0
ENDSEC
  0
SECTION
  2
BLOCKS
  0
BLOCK
  8
0
  2
$MODEL_SPACE
 70
     0
 10
0.0
 20
0.0
 30
0.0
  3
$MODEL_SPACE
  1

  0
ENDBLK
  5
21
  8
0
  0
BLOCK
 67
     1
  8
0
  2
$PAPER_SPACE
 70
     0
 10
0.0
 20
0.0
 30
0.0
  3
$PAPER_SPACE
  1

  0
ENDBLK
  5
1D
 67
     1
  8
0
  0
BLOCK
  8
0
  2
_FILLED
 70
     0
 10
0.0
 20
0.0
 30
0.0
  3
_FILLED
  1

  0
SOLID
  5
2853B
  8
0
  6
BYBLOCK
 62
     0
 10
0.0
 20
0.0
 30
0.0
 11
-1.0
 21
0.1666666667
 31
0.0
 12
-1.0
 22
-0.1666666667
 32
0.0
 13
-1.0
 23
-0.1666666667
 33
0.0
  0
ENDBLK
  5
2853C
  8
0
  6
BYBLOCK
 62
     0
  0
ENDSEC
  0
SECTION
  2
ENTITIES
  0
ATTDEF
  5
2842F
  8
DEFPOINTS
 10
6593.05171079390675
 20
328.8062874441171743
 30
0.0
 40
0.001
  1
P34234-00
  3

  2
MODELNUMBER
 70
     0
1001
ACDBATTR
1070
     0
1070
     1
  0
ATTDEF
  5
28430
  8
DEFPOINTS
 10
6593.0515849842486205
 20
328.8046206037379875
 30
0.0
 40
0.001
  1
GUISE
  3

  2
TRADENAME
 70
     0
1001
ACDBATTR
1070
     0
1070
     1
  0
ATTDEF
  5
28431
  8
DEFPOINTS
 10
6593.05171079390675
 20
328.8029541107837872
 30
0.0
 40
0.001
  1
BATHROOM SINK FAUCET
  3

  2
PRODUCT
 70
     0
1001
ACDBATTR
1070
     0
1070
     1
  0
LINE
  5
370EA
  8
0
 10
6596.1090413345664274
 20
337.4782560191778202
 30
0.0
 11
6595.8781988148648452
 21
337.4782560191778202
 31
0.0
  0
LINE
  5
370EB
  8
0
 10
6596.1090413345664274
 20
334.8129016884778935
 30
0.0
 11
6596.045040809513921
 21
334.8129016884778935
 31
0.0
  0
LINE
  5
370EC
  8
0
 10
6593.7321825471672128
 20
336.3082560192779056
 30
0.0
 11
6592.3708704168657277
 21
336.3082560192779056
 31
0.0
  0
LINE
  5
370ED
  8
0
 10
6593.6811825471659176
 20
334.8082560192779056
 30
0.0
 11
6592.4218704168670229
 21
334.8082560192779056
 31
0.0
  0
LINE
  5
370EE
  8
0
 10
6593.7321825471672128
 20
329.4775598600414241
 30
0.0
 11
6592.3708704168657277
 21
329.4775598600414241
 31
0.0
  0
LINE
  5
370EF
  8
0
 10
6594.0975211298664362
 20
329.2019568080469867
 30
0.0
 11
6592.0055211298658833
 21
329.2019568080469867
 31
0.0
  0
ARC
  5
370F0
  8
0
 10
6593.9571825471657576
 20
329.3989568080469894
 30
0.0
 40
0.197
 50
180.0
 51
270.0
  0
ARC
  5
370F1
  8
0
 10
6592.1458704168662734
 20
329.3989568080469894
 30
0.0
 40
0.197
 50
270.0
 51
0.0
  0
LINE
  5
370F2
  8
0
 10
6594.1765211298661598
 20
328.8082560192779056
 30
0.0
 11
6591.9265211298670692
 21
328.8082560192779056
 31
0.0
  0
LINE
  5
370F3
  8
0
 10
6595.8531988148661185
 20
337.4532560191778998
 30
0.0
 11
6595.8531988148661185
 21
335.8670210488497787
 31
0.0
  0
LINE
  5
370F4
  8
0
 10
6596.1340413345669731
 20
337.4532560191778998
 30
0.0
 11
6596.1340413345669731
 21
334.8379016884778139
 31
0.0
  0
ARC
  5
370F5
  8
0
 10
6595.8781988148648452
 20
337.4532560191778998
 30
0.0
 40
0.025
 50
90.0
 51
180.0000000000065086
  0
ARC
  5
370F6
  8
0
 10
6596.1090413345664274
 20
337.4532560191778998
 30
0.0
 40
0.025
 50
359.9999999999902229
 51
90.0
  0
ARC
  5
370F7
  8
0
 10
6596.1090413345664274
 20
334.8379016884778139
 30
0.0
 40
0.025
 50
270.0
 51
0.0000000000032569
  0
LINE
  5
370F8
  8
0
 10
6595.9660408095141975
 20
335.7658520550115213
 30
0.0
 11
6595.9660408095141975
 21
334.5904672934344717
 31
0.0
  0
ARC
  5
370F9
  8
0
 10
6596.045040809513921
 20
334.733901688477772
 30
0.0
 40
0.079
 50
90.0
 51
180.0
  0
LINE
  5
370FA
  8
0
 10
6595.4930408148647984
 20
334.5638449235369762
 30
0.0
 11
6595.4930408148647984
 21
334.9560314688031895
 31
0.0
  0
LINE
  5
370FB
  8
0
 10
6595.5133898629928808
 20
334.5438479696338732
 30
0.0
 11
6595.7029640306709553
 21
334.5471569990268108
 31
0.0
  0
ARC
  5
370FC
  8
0
 10
6595.5130408148661445
 20
334.5638449235369762
 30
0.0
 40
0.02
 50
179.9999999999934914
 51
270.9999999962232096
  0
ARC
  5
370FD
  8
0
 10
6595.9266408095154475
 20
334.5904672934344717
 30
0.0
 40
0.0394
 50
270.9999999962232096
 51
0.0000000000032569
  0
ARC
  5
370FE
  8
0
 10
6595.8268340009608437
 20
333.8795233373239739
 30
0.0
 40
0.6790275957413141
 50
81.4890994694568462
 51
100.5109005229616059
  0
LINE
  5
370FF
  8
0
 10
6593.7601825471656412
 20
336.2802560192777719
 30
0.0
 11
6593.7601825471656412
 21
334.8872560192777996
 31
0.0
  0
LINE
  5
37100
  8
0
 10
6593.7601825471656412
 20
334.5518308223777808
 30
0.0
 11
6593.7601825471656412
 21
329.3989568080469894
 31
0.0
  0
ARC
  5
37101
  8
0
 10
6593.7321825471672128
 20
329.4495598600414041
 30
0.0
 40
0.028
 50
0.0
 51
90.0
  0
LINE
  5
37102
  8
0
 10
6592.3428704168672994
 20
336.2802560192777719
 30
0.0
 11
6592.3428704168672994
 21
329.3989568080469894
 31
0.0
  0
ARC
  5
37103
  8
0
 10
6593.7321825471672128
 20
336.2802560192777719
 30
0.0
 40
0.028
 50
0.0
 51
90.0
  0
ARC
  5
37104
  8
0
 10
6592.3708704168657277
 20
336.2802560192777719
 30
0.0
 40
0.028
 50
90.0
 51
180.0
  0
ARC
  5
37105
  8
0
 10
6592.4218704168670229
 20
334.8872560192777996
 30
0.0
 40
0.079
 50
180.0
 51
270.0
  0
ARC
  5
37106
  8
0
 10
6593.6811825471659176
 20
334.8872560192777996
 30
0.0
 40
0.079
 50
270.0
 51
0.0
  0
LINE
  5
37107
  8
0
 10
6591.9265211298670692
 20
329.1229568080469221
 30
0.0
 11
6591.9265211298670692
 21
328.8082560192779056
 31
0.0
  0
ARC
  5
37108
  8
0
 10
6592.0055211298658833
 20
329.1229568080469221
 30
0.0
 40
0.079
 50
90.0
 51
180.0
  0
LINE
  5
37109
  8
0
 10
6594.1765211298661598
 20
329.1229568080469221
 30
0.0
 11
6594.1765211298661598
 21
328.8082560192779056
 31
0.0
  0
ARC
  5
3710A
  8
0
 10
6594.0975211298664362
 20
329.1229568080469221
 30
0.0
 40
0.079
 50
0.0
 51
90.0
  0
ARC
  5
3710B
  8
0
 10
6592.3708704168657277
 20
329.4495598600414041
 30
0.0
 40
0.028
 50
90.0
 51
180.0
  0
LINE
  5
3710C
  8
0
 10
6595.1183575045097314
 20
334.5518308223777808
 30
0.0
 11
6592.5303399487656861
 21
334.5518308223777808
 31
0.0
  0
LINE
  5
3710D
  8
0
 10
6595.1383575045110774
 20
336.0446812160777768
 30
0.0
 11
6595.1383575045110774
 21
334.5718308223778195
 31
0.0
  0
ARC
  5
3710E
  8
0
 10
6595.1183575045097314
 20
334.5718308223778195
 30
0.0
 40
0.02
 50
270.0
 51
359.9999999999968168
  0
LINE
  5
3710F
  8
0
 10
6592.4503399487657589
 20
334.6318308223778217
 30
0.0
 11
6592.4503399487657589
 21
334.8082560192779056
 31
0.0
  0
ARC
  5
37110
  8
0
 10
6592.5303399487656861
 20
334.6318308223778217
 30
0.0
 40
0.08
 50
180.0
 51
270.0
  0
LINE
  5
37111
  8
0
 10
6595.1183575045097314
 20
336.0646812160778154
 30
0.0
 11
6593.8781825471660341
 21
336.0646812160778154
 31
0.0
  0
ARC
  5
37112
  8
0
 10
6595.1183575045097314
 20
336.0446812160777768
 30
0.0
 40
0.02
 50
0.0
 51
90.0
  0
ARC
  5
37113
  8
0
 10
6593.8781825471660341
 20
336.1826812160778104
 30
0.0
 40
0.118
 50
179.9999999999967031
 51
270.0
  0
LINE
  5
37114
  8
0
 10
6595.2281098422363357
 20
336.0435672418611261
 30
0.0
 11
6595.2281098422363357
 21
335.3866478664830879
 31
0.0
  0
LINE
  5
37115
  8
0
 10
6595.2477607941082169
 20
336.0635641957641724
 30
0.0
 11
6595.7760688287689845
 21
336.0727858467953979
 31
0.0
  0
ARC
  5
37116
  8
0
 10
6595.2481098422349532
 20
336.0435672418611261
 30
0.0
 40
0.02
 50
90.9999999982558165
 51
179.9999999999934914
  0
LINE
  5
37117
  8
0
 10
6595.4344621711516083
 20
335.097452824992672
 30
0.0
 11
6595.2866884859504353
 21
335.2452265102936053
 31
0.0
  0
ARC
  5
37118
  8
0
 10
6595.2930408148658898
 20
334.9560314688031895
 30
0.0
 40
0.2
 50
0.0
 51
44.9999999806159181
  0
ARC
  5
37119
  8
0
 10
6595.4281098422352443
 20
335.3866478664830879
 30
0.0
 40
0.2
 50
180.0
 51
224.999999980615911
  0
LINE
  5
3711A
  8
0
 10
6595.430741602265698
 20
334.7746772081100062
 30
0.0
 11
6595.430741602265698
 21
335.1011733938804014
 31
0.0
  0
ARC
  5
3711B
  8
0
 10
6594.9791660208657049
 20
335.3082560191778043
 30
0.0
 40
0.7018772542999765
 50
283.1092268748103038
 51
309.7374785946668112
  0
ARC
  5
3711C
  8
0
 10
6595.4227416022658872
 20
334.7746772081100062
 30
0.0
 40
0.008
 50
309.7374785947338864
 51
359.9999999999869829
  0
ARC
  5
3711D
  8
0
 10
6594.9791660208657049
 20
335.3082560191776906
 30
0.0
 40
0.70187725430015
 50
69.2259920620214473
 51
76.8907731251896962
  0
ARC
  5
3711E
  8
0
 10
6595.7746988148674063
 20
336.1512738908651841
 30
0.0
 40
0.0785
 50
270.9999999982558165
 51
0.0
  0
LINE
  5
3711F
  8
0
 10
6595.7756815992670454
 20
335.9675927254314161
 30
0.0
 11
6595.7756815992670454
 21
336.0727790876792938
 31
0.0
  0
LINE
  5
37120
  8
0
 10
6595.8814966495647241
 20
335.863608565135678
 30
0.0
 11
6595.9304738009232096
 21
335.8644634645066276
 31
0.0
  0
ARC
  5
37121
  8
0
 10
6595.8796815992673146
 20
335.9675927254314161
 30
0.0
 40
0.104
 50
180.0
 51
271.000000016392903
  0
ARC
  5
37122
  8
0
 10
6595.9130464891077281
 20
335.8277440055758234
 30
0.0
 40
0.0406451702080391
 50
20.9101440082571983
 51
64.6106572853993697
  0
ARC
  5
37123
  8
0
 10
6595.749539175360951
 20
335.7652734620596107
 30
0.0
 40
0.2156800537483611
 50
8.985434127020957
 51
20.9101440082571983
  0
ARC
  5
37124
  8
0
 10
6595.5312022567122767
 20
335.7370323178708986
 30
0.0
 40
0.4357925472663419
 50
3.7918392344016221
 51
8.1694701736870918
  0
ENDSEC
  0
EOF
