  0
SECTION
  2
HEADER
  9
$ACADVER
  1
AC1009
  9
$INSBASE
 10
6586.4681685781797569
 20
334.4819818953823187
 30
0.0
  9
$EXTMIN
 10
6580.367588042196985
 20
328.2809932108854127
 30
-0.0000000349181948
  9
$EXTMAX
 10
6592.4392497406506664
 20
335.7875741695960983
 30
0.0000000814935746
  9
$LIMMIN
 10
0.0
 20
0.0
  9
$LIMMAX
 10
11.6929133858000007
 20
8.2677165353999982
  9
$ORTHOMODE
 70
     0
  9
$REGENMODE
 70
     1
  9
$FILLMODE
 70
     1
  9
$QTEXTMODE
 70
     0
  9
$MIRRTEXT
 70
     0
  9
$DRAGMODE
 70
     2
  9
$LTSCALE
 40
0.6431102362
  9
$OSMODE
 70
  4095
  9
$ATTMODE
 70
     1
  9
$TEXTSIZE
 40
0.2
  9
$TRACEWID
 40
0.05
  9
$TEXTSTYLE
  7
STANDARD
  9
$CLAYER
  8
0
  9
$CELTYPE
  6
BYLAYER
  9
$CECOLOR
 62
   256
  9
$DIMSCALE
 40
1.0
  9
$DIMASZ
 40
0.1875
  9
$DIMEXO
 40
0.0625
  9
$DIMDLI
 40
0.4443307087
  9
$DIMRND
 40
0.0
  9
$DIMDLE
 40
0.0
  9
$DIMEXE
 40
0.125
  9
$DIMTP
 40
0.01
  9
$DIMTM
 40
0.01
  9
$DIMTXT
 40
2.0
  9
$DIMCEN
 40
0.1052362205
  9
$DIMTSZ
 40
0.0
  9
$DIMTOL
 70
     1
  9
$DIMLIM
 70
     0
  9
$DIMTIH
 70
     1
  9
$DIMTOH
 70
     1
  9
$DIMSE1
 70
     0
  9
$DIMSE2
 70
     0
  9
$DIMTAD
 70
     0
  9
$DIMZIN
 70
     0
  9
$DIMBLK
  1

  9
$DIMASO
 70
     1
  9
$DIMSHO
 70
     1
  9
$DIMPOST
  1
\X
  9
$DIMAPOST
  1

  9
$DIMALT
 70
     1
  9
$DIMALTD
 70
     2
  9
$DIMALTF
 40
25.3999999999999986
  9
$DIMLFAC
 40
1.0
  9
$DIMTOFL
 70
     0
  9
$DIMTVP
 40
0.0
  9
$DIMTIX
 70
     0
  9
$DIMSOXD
 70
     0
  9
$DIMSAH
 70
     0
  9
$DIMBLK1
  1

  9
$DIMBLK2
  1

  9
$DIMSTYLE
  2
STANDARD
  9
$DIMCLRD
 70
     0
  9
$DIMCLRE
 70
     0
  9
$DIMCLRT
 70
     0
  9
$DIMTFAC
 40
1.0
  9
$DIMGAP
 40
0.09
  9
$LUNITS
 70
     2
  9
$LUPREC
 70
     4
  9
$SKETCHINC
 40
0.1
  9
$FILLETRAD
 40
0.0
  9
$AUNITS
 70
     0
  9
$AUPREC
 70
     0
  9
$MENU
  1
.
  9
$ELEVATION
 40
0.0
  9
$PELEVATION
 40
0.0
  9
$THICKNESS
 40
0.0
  9
$LIMCHECK
 70
     0
  9
$BLIPMODE
 70
     0
  9
$CHAMFERA
 40
0.0
  9
$CHAMFERB
 40
0.0
  9
$SKPOLY
 70
     0
  9
$TDCREATE
 40
2458060.468368056230247
  9
$TDUPDATE
 40
2460383.8519675931893289
  9
$TDINDWG
 40
0.8693704861
  9
$TDUSRTIMER
 40
0.8693704861
  9
$USRTIMER
 70
     1
  9
$ANGBASE
 50
0.0
  9
$ANGDIR
 70
     0
  9
$PDMODE
 70
     0
  9
$PDSIZE
 40
0.3125
  9
$PLINEWID
 40
0.0
  9
$COORDS
 70
     1
  9
$SPLFRAME
 70
     0
  9
$SPLINETYPE
 70
     6
  9
$SPLINESEGS
 70
     8
  9
$ATTDIA
 70
     1
  9
$ATTREQ
 70
     1
  9
$HANDLING
 70
     1
  9
$HANDSEED
  5
36D35
  9
$SURFTAB1
 70
     6
  9
$SURFTAB2
 70
     6
  9
$SURFTYPE
 70
     6
  9
$SURFU
 70
     6
  9
$SURFV
 70
     6
  9
$UCSNAME
  2

  9
$UCSORG
 10
0.0
 20
0.0
 30
0.0
  9
$UCSXDIR
 10
1.0
 20
0.0
 30
0.0
  9
$UCSYDIR
 10
0.0
 20
1.0
 30
0.0
  9
$PUCSNAME
  2

  9
$PUCSORG
 10
0.0
 20
0.0
 30
0.0
  9
$PUCSXDIR
 10
1.0
 20
0.0
 30
0.0
  9
$PUCSYDIR
 10
0.0
 20
1.0
 30
0.0
  9
$USERI1
 70
     0
  9
$USERI2
 70
     0
  9
$USERI3
 70
     0
  9
$USERI4
 70
     0
  9
$USERI5
 70
     0
  9
$USERR1
 40
0.0
  9
$USERR2
 40
0.0
  9
$USERR3
 40
0.0
  9
$USERR4
 40
0.0
  9
$USERR5
 40
0.0
  9
$WORLDVIEW
 70
     1
  9
$SHADEDGE
 70
     3
  9
$SHADEDIF
 70
    70
  9
$TILEMODE
 70
     1
  9
$MAXACTVP
 70
    64
  9
$PLIMCHECK
 70
     0
  9
$PEXTMIN
 10
1.0000000000000000E+20
 20
1.0000000000000000E+20
 30
1.0000000000000000E+20
  9
$PEXTMAX
 10
-1.0000000000000000E+20
 20
-1.0000000000000000E+20
 30
-1.0000000000000000E+20
  9
$PLIMMIN
 10
0.0
 20
0.0
  9
$PLIMMAX
 10
12.0
 20
9.0
  9
$UNITMODE
 70
     0
  9
$VISRETAIN
 70
     1
  9
$PLINEGEN
 70
     0
  9
$PSLTSCALE
 70
     1
  0
ENDSEC
  0
SECTION
  2
TABLES
  0
TABLE
  2
VPORT
 70
     1
  0
VPORT
  2
*ACTIVE
 70
     0
 10
0.0
 20
0.0
 11
1.0
 21
1.0
 12
2675.0380624461117804
 22
199.454678587701693
 13
0.0
 23
0.0
 14
1.0
 24
1.0
 15
0.0
 25
0.0
 16
0.0
 26
0.0
 36
60.4960186965801583
 17
3911.3653564453120453
 27
132.5796051025390057
 37
0.0
 40
7.5660782978815169
 41
2.5251322751322749
 42
50.0
 43
0.0
 44
0.0
 50
0.0
 51
0.0
 71
     0
 72
   100
 73
     1
 74
     1
 75
     0
 76
     0
 77
     0
 78
     0
  0
ENDTAB
  0
TABLE
  2
LTYPE
 70
     2
  0
LTYPE
  2
CONTINUOUS
 70
     0
  3
Solid line
 72
    65
 73
     0
 40
0.0
  0
LTYPE
  2
PHANTOM2
 70
     0
  3
___ _ _ ___ _ _ ___ _ _ ___ _ _
 72
    65
 73
     6
 40
1.25
 49
0.625
 49
-0.125
 49
0.125
 49
-0.125
 49
0.125
 49
-0.125
  0
ENDTAB
  0
TABLE
  2
LAYER
 70
     2
  0
LAYER
  2
0
 70
     0
 62
   255
  6
CONTINUOUS
  0
LAYER
  2
DEFPOINTS
 70
     0
 62
     7
  6
CONTINUOUS
  0
ENDTAB
  0
TABLE
  2
STYLE
 70
     1
  0
STYLE
  2
STANDARD
 70
     0
 40
0.0
 41
0.8
 50
0.0
 71
     0
 42
0.2
  3
txt
  4

  0
ENDTAB
  0
TABLE
  2
VIEW
 70
     0
  0
ENDTAB
  0
TABLE
  2
UCS
 70
     0
  0
ENDTAB
  0
TABLE
  2
APPID
 70
    11
  0
APPID
  2
ACAD
 70
     0
  0
APPID
  2
ACAD_MLEADERVER
 70
     0
  0
APPID
  2
ACAD_EXEMPT_FROM_CAD_STANDARDS
 70
     0
  0
APPID
  2
ACAD_NAV_VCDISPLAY
 70
     0
  0
APPID
  2
ACAECLAYERSTANDARD
 70
     0
  0
APPID
  2
ACCMTRANSPARENCY
 70
     0
  0
APPID
  2
ACAD_DSTYLE_DIMJAG
 70
     0
  0
APPID
  2
ACAD_DSTYLE_DIMTALN
 70
     0
  0
APPID
  2
ACDBATTR
 70
     0
  0
APPID
  2
ACADANNOTATIVE
 70
     0
  0
APPID
  2
DCO15
 70
     0
  0
ENDTAB
  0
TABLE
  2
DIMSTYLE
 70
     1
  0
DIMSTYLE
  2
STANDARD
 70
     0
  3

  4

  5

  6

  7

 40
1.0
 41
0.1875
 42
0.0625
 43
0.38
 44
0.125
 45
0.0
 46
0.0
 47
0.01
 48
0.01
140
0.15625
141
0.09
142
0.0
143
25.3999999999999986
144
1.0
145
0.0
146
1.0
147
0.09
 71
     1
 72
     0
 73
     1
 74
     1
 75
     0
 76
     0
 77
     0
 78
     4
170
     0
171
     2
172
     0
173
     0
174
     0
175
     0
176
     0
177
     0
178
     0
  0
ENDTAB
  0
ENDSEC
  0
SECTION
  2
BLOCKS
  0
BLOCK
  8
0
  2
$MODEL_SPACE
 70
     0
 10
0.0
 20
0.0
 30
0.0
  3
$MODEL_SPACE
  1

  0
ENDBLK
  5
21
  8
0
  0
BLOCK
 67
     1
  8
0
  2
$PAPER_SPACE
 70
     0
 10
0.0
 20
0.0
 30
0.0
  3
$PAPER_SPACE
  1

  0
ENDBLK
  5
1D
 67
     1
  8
0
  0
BLOCK
  8
0
  2
_FILLED
 70
     0
 10
0.0
 20
0.0
 30
0.0
  3
_FILLED
  1

  0
SOLID
  5
2853B
  8
0
  6
BYBLOCK
 62
     0
 10
0.0
 20
0.0
 30
0.0
 11
-1.0
 21
0.1666666667
 31
0.0
 12
-1.0
 22
-0.1666666667
 32
0.0
 13
-1.0
 23
-0.1666666667
 33
0.0
  0
ENDBLK
  5
2853C
  8
0
  6
BYBLOCK
 62
     0
  0
ENDSEC
  0
SECTION
  2
ENTITIES
  0
ATTDEF
  5
2842F
  8
DEFPOINTS
 10
6586.4603360097253244
 20
334.4793650097062141
 30
0.0
 40
0.001
  1
P34232-SGW
  3

  2
MODELNUMBER
 70
     0
1001
ACDBATTR
1070
     0
1070
     1
  0
ATTDEF
  5
28430
  8
DEFPOINTS
 10
6586.4602102000671948
 20
334.4776981693270272
 30
0.0
 40
0.001
  1
GUISE
  3

  2
TRADENAME
 70
     0
1001
ACDBATTR
1070
     0
1070
     1
  0
ATTDEF
  5
28431
  8
DEFPOINTS
 10
6586.4603360097253244
 20
334.476031676372827
 30
0.0
 40
0.001
  1
BATHROOM SINK FAUCET
  3

  2
PRODUCT
 70
     0
1001
ACDBATTR
1070
     0
1070
     1
  0
LINE
  5
36AB4
  8
0
 10
6585.8185635781810561
 20
328.3401333353132259
 30
0.0
 11
6585.8185635781810561
 21
335.7420937058823256
 31
0.0
  0
LINE
  5
36AB5
  8
0
 10
6580.5403494618403784
 20
335.5052338638823244
 30
0.0
 11
6580.5403494618403784
 21
335.7027944938823225
 31
0.0
  0
LINE
  5
36AB6
  8
0
 10
6582.9755336393618563
 20
335.7417944938823098
 30
0.0
 11
6580.5793494618401382
 21
335.7417944938823098
 31
0.0
  0
LINE
  5
36AB7
  8
0
 10
6585.8579635781807156
 20
335.7814937058823261
 30
0.0
 11
6587.0783735781806172
 21
335.7814937058823261
 31
0.0
  0
LINE
  5
36AB8
  8
0
 10
6585.8579635781807156
 20
328.3007333353132253
 30
0.0
 11
6587.0783735781806172
 21
328.3007333353132253
 31
0.0
  0
ARC
  5
36AB9
  8
0
 10
6582.4681685781806664
 20
334.4819818953823187
 30
0.0
 40
1.0024050425
 50
125.4076764539380946
 51
54.5923235460618912
  0
LINE
  5
36ABA
  8
0
 10
6581.9176686350474483
 20
334.4819818953823187
 30
0.0
 11
6581.9176686350474483
 21
335.4662338638822803
 31
0.0
  0
ARC
  5
36ABB
  8
0
 10
6581.8456686350473319
 20
335.3576759150881799
 30
0.0
 40
0.072
 50
305.4076764539399846
 51
359.9999999999902229
  0
ARC
  5
36ABC
  8
0
 10
6582.4681685781806664
 20
334.4819818953823187
 30
0.0
 40
0.5504999431331014
 50
180.0
 51
0.0
  0
LINE
  5
36ABD
  8
0
 10
6583.0186685213129749
 20
334.4819818953823187
 30
0.0
 11
6583.0186685213129749
 21
335.3576759150881799
 31
0.0
  0
ARC
  5
36ABE
  8
0
 10
6583.0906685213140008
 20
335.3576759150881799
 30
0.0
 40
0.072
 50
180.0000000000032117
 51
234.5923235460581111
  0
LINE
  5
36ABF
  8
0
 10
6583.0145308443079557
 20
335.7032614053779866
 30
0.0
 11
6583.0186685213129749
 21
335.3576759150881799
 31
0.0
  0
ARC
  5
36AC0
  8
0
 10
6582.9755336393618563
 20
335.7027944938823225
 30
0.0
 40
0.039
 50
0.6859665954626687
 51
90.0
  0
LINE
  5
36AC1
  8
0
 10
6582.9778990224558584
 20
335.4662338638822803
 30
0.0
 11
6580.5793494618401382
 21
335.4662338638822803
 31
0.0
  0
ARC
  5
36AC2
  8
0
 10
6582.9778990224558584
 20
335.5052338638823244
 30
0.0
 40
0.039
 50
270.0
 51
0.6859665954594121
  0
ARC
  5
36AC3
  8
0
 10
6580.5793494618401382
 20
335.5052338638823244
 30
0.0
 40
0.039
 50
179.9999999999934914
 51
270.0
  0
ARC
  5
36AC4
  8
0
 10
6580.5793494618401382
 20
335.7027944938823225
 30
0.0
 40
0.039
 50
90.0
 51
180.0
  0
ARC
  5
36AC5
  8
0
 10
6585.8579635781807156
 20
328.3401333353132259
 30
0.0
 40
0.0394
 50
179.9999999999967031
 51
270.0
  0
ARC
  5
36AC6
  8
0
 10
6585.8579635781807156
 20
335.7420937058823256
 30
0.0
 40
0.0394
 50
90.0
 51
180.0000000000065086
  0
ARC
  5
36AC7
  8
0
 10
6586.4681685781797569
 20
334.4819818953823187
 30
0.0
 40
1.05
 50
128.2191799279150928
 51
231.7808200720849925
  0
LINE
  5
36AC8
  8
0
 10
6587.1177735781802767
 20
328.3401333353132259
 30
0.0
 11
6587.1177735781802767
 21
335.7420937058823256
 31
0.0
  0
LINE
  5
36AC9
  8
0
 10
6592.3959876945200449
 20
335.5052338638823244
 30
0.0
 11
6592.3959876945200449
 21
335.7027944938823225
 31
0.0
  0
LINE
  5
36ACA
  8
0
 10
6589.9608035170003859
 20
335.7417944938823098
 30
0.0
 11
6592.3569876945211945
 21
335.7417944938823098
 31
0.0
  0
ARC
  5
36ACB
  8
0
 10
6590.4681685781806664
 20
334.4819818953823187
 30
0.0
 40
1.0024050425
 50
125.4076764539380946
 51
54.5923235460618912
  0
LINE
  5
36ACC
  8
0
 10
6591.0186685213129749
 20
334.4819818953823187
 30
0.0
 11
6591.0186685213129749
 21
335.4662338638822803
 31
0.0
  0
ARC
  5
36ACD
  8
0
 10
6591.0906685213140008
 20
335.3576759150881799
 30
0.0
 40
0.072
 50
180.0000000000098055
 51
234.5923235460599869
  0
ARC
  5
36ACE
  8
0
 10
6590.4681685781806664
 20
334.4819818953823187
 30
0.0
 40
0.5504999431331014
 50
180.0
 51
0.0
  0
LINE
  5
36ACF
  8
0
 10
6589.9176686350474483
 20
334.4819818953823187
 30
0.0
 11
6589.9176686350474483
 21
335.3576759150881799
 31
0.0
  0
ARC
  5
36AD0
  8
0
 10
6589.8456686350473319
 20
335.3576759150881799
 30
0.0
 40
0.072
 50
305.4076764539419173
 51
359.9999999999968168
  0
LINE
  5
36AD1
  8
0
 10
6589.921806312053377
 20
335.7032614053779866
 30
0.0
 11
6589.9176686350474483
 21
335.3576759150881799
 31
0.0
  0
ARC
  5
36AD2
  8
0
 10
6589.9608035170003859
 20
335.7027944938823225
 30
0.0
 40
0.039
 50
90.0
 51
179.3140334045372981
  0
LINE
  5
36AD3
  8
0
 10
6589.9584381339072934
 20
335.4662338638822803
 30
0.0
 11
6592.3569876945211945
 21
335.4662338638822803
 31
0.0
  0
ARC
  5
36AD4
  8
0
 10
6589.9584381339072934
 20
335.5052338638823244
 30
0.0
 40
0.039
 50
179.314033404540595
 51
270.0
  0
ARC
  5
36AD5
  8
0
 10
6592.3569876945211945
 20
335.5052338638823244
 30
0.0
 40
0.039
 50
270.0
 51
0.0000000000065138
  0
ARC
  5
36AD6
  8
0
 10
6592.3569876945211945
 20
335.7027944938823225
 30
0.0
 40
0.039
 50
0.0
 51
90.0
  0
ARC
  5
36AD7
  8
0
 10
6587.0783735781806172
 20
328.3401333353132259
 30
0.0
 40
0.0394
 50
270.0
 51
0.0000000000032569
  0
ARC
  5
36AD8
  8
0
 10
6587.0783735781806172
 20
335.7420937058823256
 30
0.0
 40
0.0394
 50
359.9999999999935199
 51
90.0
  0
ARC
  5
36AD9
  8
0
 10
6586.4681685781797569
 20
334.4819818953823187
 30
0.0
 40
1.05
 50
308.2191799279150928
 51
51.7808200720849214
  0
ENDSEC
  0
EOF
