  0
SECTION
  2
HEADER
  9
$ACADVER
  1
AC1009
  9
$INSBASE
 10
6560.0602725912413007
 20
327.8858815508638145
 30
0.0
  9
$EXTMIN
 10
6553.8029741036853011
 20
327.8736097264983869
 30
-0.0015258207003583
  9
$EXTMAX
 10
6566.3268588030014143
 20
336.5791729042809948
 30
0.0000000349246037
  9
$LIMMIN
 10
0.0
 20
0.0
  9
$LIMMAX
 10
11.6929133858000007
 20
8.2677165353999982
  9
$ORTHOMODE
 70
     0
  9
$REGENMODE
 70
     1
  9
$FILLMODE
 70
     1
  9
$QTEXTMODE
 70
     0
  9
$MIRRTEXT
 70
     0
  9
$DRAGMODE
 70
     2
  9
$LTSCALE
 40
0.6431102362
  9
$OSMODE
 70
  4095
  9
$ATTMODE
 70
     1
  9
$TEXTSIZE
 40
0.2
  9
$TRACEWID
 40
0.05
  9
$TEXTSTYLE
  7
STANDARD
  9
$CLAYER
  8
0
  9
$CELTYPE
  6
BYLAYER
  9
$CECOLOR
 62
   256
  9
$DIMSCALE
 40
1.0
  9
$DIMASZ
 40
0.1875
  9
$DIMEXO
 40
0.0625
  9
$DIMDLI
 40
0.4443307087
  9
$DIMRND
 40
0.0
  9
$DIMDLE
 40
0.0
  9
$DIMEXE
 40
0.125
  9
$DIMTP
 40
0.01
  9
$DIMTM
 40
0.01
  9
$DIMTXT
 40
2.0
  9
$DIMCEN
 40
0.1052362205
  9
$DIMTSZ
 40
0.0
  9
$DIMTOL
 70
     1
  9
$DIMLIM
 70
     0
  9
$DIMTIH
 70
     1
  9
$DIMTOH
 70
     1
  9
$DIMSE1
 70
     0
  9
$DIMSE2
 70
     0
  9
$DIMTAD
 70
     0
  9
$DIMZIN
 70
     0
  9
$DIMBLK
  1

  9
$DIMASO
 70
     1
  9
$DIMSHO
 70
     1
  9
$DIMPOST
  1
\X
  9
$DIMAPOST
  1

  9
$DIMALT
 70
     1
  9
$DIMALTD
 70
     2
  9
$DIMALTF
 40
25.3999999999999986
  9
$DIMLFAC
 40
1.0
  9
$DIMTOFL
 70
     0
  9
$DIMTVP
 40
0.0
  9
$DIMTIX
 70
     0
  9
$DIMSOXD
 70
     0
  9
$DIMSAH
 70
     0
  9
$DIMBLK1
  1

  9
$DIMBLK2
  1

  9
$DIMSTYLE
  2
STANDARD
  9
$DIMCLRD
 70
     0
  9
$DIMCLRE
 70
     0
  9
$DIMCLRT
 70
     0
  9
$DIMTFAC
 40
1.0
  9
$DIMGAP
 40
0.09
  9
$LUNITS
 70
     2
  9
$LUPREC
 70
     4
  9
$SKETCHINC
 40
0.1
  9
$FILLETRAD
 40
0.0
  9
$AUNITS
 70
     0
  9
$AUPREC
 70
     0
  9
$MENU
  1
.
  9
$ELEVATION
 40
0.0
  9
$PELEVATION
 40
0.0
  9
$THICKNESS
 40
0.0
  9
$LIMCHECK
 70
     0
  9
$BLIPMODE
 70
     0
  9
$CHAMFERA
 40
0.0
  9
$CHAMFERB
 40
0.0
  9
$SKPOLY
 70
     0
  9
$TDCREATE
 40
2458060.468368056230247
  9
$TDUPDATE
 40
2460383.852083332836628
  9
$TDINDWG
 40
0.8712917824
  9
$TDUSRTIMER
 40
0.8712917824
  9
$USRTIMER
 70
     1
  9
$ANGBASE
 50
0.0
  9
$ANGDIR
 70
     0
  9
$PDMODE
 70
     0
  9
$PDSIZE
 40
0.3125
  9
$PLINEWID
 40
0.0
  9
$COORDS
 70
     1
  9
$SPLFRAME
 70
     0
  9
$SPLINETYPE
 70
     6
  9
$SPLINESEGS
 70
     8
  9
$ATTDIA
 70
     1
  9
$ATTREQ
 70
     1
  9
$HANDLING
 70
     1
  9
$HANDSEED
  5
36BF3
  9
$SURFTAB1
 70
     6
  9
$SURFTAB2
 70
     6
  9
$SURFTYPE
 70
     6
  9
$SURFU
 70
     6
  9
$SURFV
 70
     6
  9
$UCSNAME
  2

  9
$UCSORG
 10
0.0
 20
0.0
 30
0.0
  9
$UCSXDIR
 10
1.0
 20
0.0
 30
0.0
  9
$UCSYDIR
 10
0.0
 20
1.0
 30
0.0
  9
$PUCSNAME
  2

  9
$PUCSORG
 10
0.0
 20
0.0
 30
0.0
  9
$PUCSXDIR
 10
1.0
 20
0.0
 30
0.0
  9
$PUCSYDIR
 10
0.0
 20
1.0
 30
0.0
  9
$USERI1
 70
     0
  9
$USERI2
 70
     0
  9
$USERI3
 70
     0
  9
$USERI4
 70
     0
  9
$USERI5
 70
     0
  9
$USERR1
 40
0.0
  9
$USERR2
 40
0.0
  9
$USERR3
 40
0.0
  9
$USERR4
 40
0.0
  9
$USERR5
 40
0.0
  9
$WORLDVIEW
 70
     1
  9
$SHADEDGE
 70
     3
  9
$SHADEDIF
 70
    70
  9
$TILEMODE
 70
     1
  9
$MAXACTVP
 70
    64
  9
$PLIMCHECK
 70
     0
  9
$PEXTMIN
 10
1.0000000000000000E+20
 20
1.0000000000000000E+20
 30
1.0000000000000000E+20
  9
$PEXTMAX
 10
-1.0000000000000000E+20
 20
-1.0000000000000000E+20
 30
-1.0000000000000000E+20
  9
$PLIMMIN
 10
0.0
 20
0.0
  9
$PLIMMAX
 10
12.0
 20
9.0
  9
$UNITMODE
 70
     0
  9
$VISRETAIN
 70
     1
  9
$PLINEGEN
 70
     0
  9
$PSLTSCALE
 70
     1
  0
ENDSEC
  0
SECTION
  2
TABLES
  0
TABLE
  2
VPORT
 70
     1
  0
VPORT
  2
*ACTIVE
 70
     0
 10
0.0
 20
0.0
 11
1.0
 21
1.0
 12
2648.6995600080299482
 22
199.6467862128505999
 13
0.0
 23
0.0
 14
1.0
 24
1.0
 15
0.0
 25
0.0
 16
0.0
 26
0.0
 36
60.4960186965801583
 17
3911.3653564453120453
 27
132.5796051025390057
 37
0.0
 40
8.7786924002248732
 41
2.5251322751322749
 42
50.0
 43
0.0
 44
0.0
 50
0.0
 51
0.0
 71
     0
 72
   100
 73
     1
 74
     1
 75
     0
 76
     0
 77
     0
 78
     0
  0
ENDTAB
  0
TABLE
  2
LTYPE
 70
     2
  0
LTYPE
  2
CONTINUOUS
 70
     0
  3
Solid line
 72
    65
 73
     0
 40
0.0
  0
LTYPE
  2
PHANTOM2
 70
     0
  3
___ _ _ ___ _ _ ___ _ _ ___ _ _
 72
    65
 73
     6
 40
1.25
 49
0.625
 49
-0.125
 49
0.125
 49
-0.125
 49
0.125
 49
-0.125
  0
ENDTAB
  0
TABLE
  2
LAYER
 70
     2
  0
LAYER
  2
0
 70
     0
 62
   255
  6
CONTINUOUS
  0
LAYER
  2
DEFPOINTS
 70
     0
 62
     7
  6
CONTINUOUS
  0
ENDTAB
  0
TABLE
  2
STYLE
 70
     1
  0
STYLE
  2
STANDARD
 70
     0
 40
0.0
 41
0.8
 50
0.0
 71
     0
 42
0.2
  3
txt
  4

  0
ENDTAB
  0
TABLE
  2
VIEW
 70
     0
  0
ENDTAB
  0
TABLE
  2
UCS
 70
     0
  0
ENDTAB
  0
TABLE
  2
APPID
 70
    11
  0
APPID
  2
ACAD
 70
     0
  0
APPID
  2
ACAD_MLEADERVER
 70
     0
  0
APPID
  2
ACAD_EXEMPT_FROM_CAD_STANDARDS
 70
     0
  0
APPID
  2
ACAD_NAV_VCDISPLAY
 70
     0
  0
APPID
  2
ACAECLAYERSTANDARD
 70
     0
  0
APPID
  2
ACCMTRANSPARENCY
 70
     0
  0
APPID
  2
ACAD_DSTYLE_DIMJAG
 70
     0
  0
APPID
  2
ACAD_DSTYLE_DIMTALN
 70
     0
  0
APPID
  2
ACDBATTR
 70
     0
  0
APPID
  2
ACADANNOTATIVE
 70
     0
  0
APPID
  2
DCO15
 70
     0
  0
ENDTAB
  0
TABLE
  2
DIMSTYLE
 70
     1
  0
DIMSTYLE
  2
STANDARD
 70
     0
  3

  4

  5

  6

  7

 40
1.0
 41
0.1875
 42
0.0625
 43
0.38
 44
0.125
 45
0.0
 46
0.0
 47
0.01
 48
0.01
140
0.15625
141
0.09
142
0.0
143
25.3999999999999986
144
1.0
145
0.0
146
1.0
147
0.09
 71
     1
 72
     0
 73
     1
 74
     1
 75
     0
 76
     0
 77
     0
 78
     4
170
     0
171
     2
172
     0
173
     0
174
     0
175
     0
176
     0
177
     0
178
     0
  0
ENDTAB
  0
ENDSEC
  0
SECTION
  2
BLOCKS
  0
BLOCK
  8
0
  2
$MODEL_SPACE
 70
     0
 10
0.0
 20
0.0
 30
0.0
  3
$MODEL_SPACE
  1

  0
ENDBLK
  5
21
  8
0
  0
BLOCK
 67
     1
  8
0
  2
$PAPER_SPACE
 70
     0
 10
0.0
 20
0.0
 30
0.0
  3
$PAPER_SPACE
  1

  0
ENDBLK
  5
1D
 67
     1
  8
0
  0
BLOCK
  8
0
  2
_FILLED
 70
     0
 10
0.0
 20
0.0
 30
0.0
  3
_FILLED
  1

  0
SOLID
  5
2853B
  8
0
  6
BYBLOCK
 62
     0
 10
0.0
 20
0.0
 30
0.0
 11
-1.0
 21
0.1666666667
 31
0.0
 12
-1.0
 22
-0.1666666667
 32
0.0
 13
-1.0
 23
-0.1666666667
 33
0.0
  0
ENDBLK
  5
2853C
  8
0
  6
BYBLOCK
 62
     0
  0
ENDSEC
  0
SECTION
  2
ENTITIES
  0
ATTDEF
  5
2842F
  8
DEFPOINTS
 10
6560.0539076836039385
 20
327.8837904611272052
 30
0.0
 40
0.001
  1
P34232-SGW
  3

  2
MODELNUMBER
 70
     0
1001
ACDBATTR
1070
     0
1070
     1
  0
ATTDEF
  5
28430
  8
DEFPOINTS
 10
6560.0537818739458089
 20
327.8821236207480752
 30
0.0
 40
0.001
  1
GUISE
  3

  2
TRADENAME
 70
     0
1001
ACDBATTR
1070
     0
1070
     1
  0
ATTDEF
  5
28431
  8
DEFPOINTS
 10
6560.0539076836039385
 20
327.8804571277938749
 30
0.0
 40
0.001
  1
BATHROOM SINK FAUCET
  3

  2
PRODUCT
 70
     0
1001
ACDBATTR
1070
     0
1070
     1
  0
LINE
  5
3695F
  8
0
 10
6561.0708725912400041
 20
327.8858815508638145
 30
0.0
 11
6559.0496725912398688
 21
327.8858815508638145
 31
0.0
  0
LINE
  5
36960
  8
0
 10
6557.0626776337412593
 20
327.8858815508638145
 30
0.0
 11
6555.0578675487404325
 21
327.8858815508638145
 31
0.0
  0
LINE
  5
36961
  8
0
 10
6557.0212149345679791
 20
328.1614715508637801
 30
0.0
 11
6555.0993302479137128
 21
328.1614715508637801
 31
0.0
  0
LINE
  5
36962
  8
0
 10
6561.0708725912400041
 20
328.2658815508638099
 30
0.0
 11
6559.0496725912398688
 21
328.2658815508638099
 31
0.0
  0
LINE
  5
36963
  8
0
 10
6556.5706819928436744
 20
328.3578815508639082
 30
0.0
 11
6555.549863189637108
 21
328.3578815508639082
 31
0.0
  0
LINE
  5
36964
  8
0
 10
6560.6704775912412515
 20
328.5018815779607735
 30
0.0
 11
6559.4500675912404404
 21
328.5018815779607735
 31
0.0
  0
LINE
  5
36965
  8
0
 10
6556.4483267925406835
 20
329.8150115508639146
 30
0.0
 11
6554.2875658736593323
 21
329.8150115508639146
 31
0.0
  0
LINE
  5
36966
  8
0
 10
6560.6704775912412515
 20
336.5729315508638138
 30
0.0
 11
6559.4500675912404404
 21
336.5729315508638138
 31
0.0
  0
LINE
  5
36967
  8
0
 10
6560.7098775912400015
 20
335.0719315508637806
 30
0.0
 11
6559.4106675912407809
 21
335.0719315508637806
 31
0.0
  0
LINE
  5
36968
  8
0
 10
6559.4106675912407809
 20
336.5335315508638132
 30
0.0
 11
6559.4106675912407809
 21
328.2658815508638099
 31
0.0
  0
ARC
  5
36969
  8
0
 10
6559.4500675912404404
 20
336.5335315508638132
 30
0.0
 40
0.0394
 50
90.0
 51
180.0
  0
ARC
  5
3696A
  8
0
 10
6559.4500675912404404
 20
328.4624815779607729
 30
0.0
 40
0.0394
 50
90.0
 51
180.0
  0
LINE
  5
3696B
  8
0
 10
6559.0102725912402093
 20
328.2264815508638094
 30
0.0
 11
6559.0102725912402093
 21
327.925281550863815
 31
0.0
  0
ARC
  5
3696C
  8
0
 10
6559.0496725912398688
 20
328.2264815508638094
 30
0.0
 40
0.0394
 50
90.0
 51
180.0
  0
ARC
  5
3696D
  8
0
 10
6559.0496725912398688
 20
327.925281550863815
 30
0.0
 40
0.0394
 50
180.0
 51
270.0
  0
LINE
  5
3696E
  8
0
 10
6555.0599317481455728
 20
328.1224153763594131
 30
0.0
 11
6555.0578675487404325
 21
327.8858815508638145
 31
0.0
  0
ARC
  5
3696F
  8
0
 10
6555.0993302479137128
 20
328.1220715508637795
 30
0.0
 40
0.0394
 50
90.0
 51
179.5000000044672959
  0
LINE
  5
36970
  8
0
 10
6555.5144707961026143
 20
328.7778796996894926
 30
0.0
 11
6555.5097748901489467
 21
328.2397821545860097
 31
0.0
  0
ARC
  5
36971
  8
0
 10
6555.549863189637108
 20
328.3184815508639076
 30
0.0
 40
0.0394
 50
90.0
 51
179.5000000192640925
  0
ARC
  5
36972
  8
0
 10
6555.4307778982265518
 20
328.2404715508639015
 30
0.0
 40
0.079
 50
270.0
 51
359.500000019264121
  0
LINE
  5
36973
  8
0
 10
6555.3644765076433032
 20
328.929188679963886
 30
0.0
 11
6554.2824534748997394
 21
328.929188679963886
 31
0.0
  0
LINE
  5
36974
  8
0
 10
6557.0606134343361191
 20
328.1224153763594131
 30
0.0
 11
6557.0626776337412593
 21
327.8858815508638145
 31
0.0
  0
ARC
  5
36975
  8
0
 10
6557.0212149345679791
 20
328.1220715508637795
 30
0.0
 40
0.0394
 50
0.4999999955327242
 51
90.0
  0
LINE
  5
36976
  8
0
 10
6556.5983210810009041
 20
329.666320531138183
 30
0.0
 11
6556.6107702923318357
 21
328.2397821545860097
 31
0.0
  0
ARC
  5
36977
  8
0
 10
6556.5706819928436744
 20
328.3184815508639076
 30
0.0
 40
0.0394
 50
0.4999999807358812
 51
90.0
  0
ARC
  5
36978
  8
0
 10
6556.6897672842542306
 20
328.2404715508639015
 30
0.0
 40
0.079
 50
180.4999999807359075
 51
270.0
  0
ARC
  5
36979
  8
0
 10
6555.3644765076433032
 20
328.779188679963795
 30
0.0
 40
0.15
 50
359.500000019264121
 51
90.0
  0
ARC
  5
3697A
  8
0
 10
6556.4483267925406835
 20
329.6650115508638237
 30
0.0
 40
0.15
 50
0.4999999807358812
 51
90.0
  0
LINE
  5
3697B
  8
0
 10
6554.1375715852000212
 20
329.6663205311925253
 30
0.0
 11
6554.1324591864404283
 21
329.0804976602923944
 31
0.0
  0
ARC
  5
3697C
  8
0
 10
6554.2875658736593323
 20
329.6650115508638237
 30
0.0
 40
0.15
 50
90.0
 51
179.499999998523208
  0
ARC
  5
3697D
  8
0
 10
6554.2824534748997394
 20
329.0791886799638064
 30
0.0
 40
0.15
 50
179.499999998523208
 51
270.0
  0
LINE
  5
3697E
  8
0
 10
6563.0578675487404325
 20
327.8858815508638145
 30
0.0
 11
6565.0626776337403498
 21
327.8858815508638145
 31
0.0
  0
LINE
  5
3697F
  8
0
 10
6563.0993302479137128
 20
328.1614715508637801
 30
0.0
 11
6565.0212149345670696
 21
328.1614715508637801
 31
0.0
  0
LINE
  5
36980
  8
0
 10
6563.549863189637108
 20
328.3578815508639082
 30
0.0
 11
6564.5706819928436744
 21
328.3578815508639082
 31
0.0
  0
LINE
  5
36981
  8
0
 10
6563.6722183899410084
 20
329.8150115508639146
 30
0.0
 11
6565.8329793088223596
 21
329.8150115508639146
 31
0.0
  0
LINE
  5
36982
  8
0
 10
6560.7098775912400015
 20
336.5335315508638132
 30
0.0
 11
6560.7098775912400015
 21
328.2658815508638099
 31
0.0
  0
ARC
  5
36983
  8
0
 10
6560.6704775912412515
 20
336.5335315508638132
 30
0.0
 40
0.0394
 50
0.0
 51
90.0
  0
ARC
  5
36984
  8
0
 10
6560.6704775912412515
 20
328.4624815779607729
 30
0.0
 40
0.0394
 50
0.0
 51
90.0
  0
LINE
  5
36985
  8
0
 10
6561.1102725912396636
 20
328.2264815508638094
 30
0.0
 11
6561.1102725912396636
 21
327.925281550863815
 31
0.0
  0
ARC
  5
36986
  8
0
 10
6561.0708725912400041
 20
328.2264815508638094
 30
0.0
 40
0.0394
 50
0.0
 51
90.0
  0
ARC
  5
36987
  8
0
 10
6561.0708725912400041
 20
327.925281550863815
 30
0.0
 40
0.0394
 50
270.0
 51
0.0
  0
LINE
  5
36988
  8
0
 10
6565.0606134343370286
 20
328.1224153763594131
 30
0.0
 11
6565.0626776337403498
 21
327.8858815508638145
 31
0.0
  0
ARC
  5
36989
  8
0
 10
6565.0212149345670696
 20
328.1220715508637795
 30
0.0
 40
0.0394
 50
0.4999999955327242
 51
90.0
  0
LINE
  5
3698A
  8
0
 10
6564.6060743863790776
 20
328.7778796996894926
 30
0.0
 11
6564.6107702923318357
 21
328.2397821545860097
 31
0.0
  0
ARC
  5
3698B
  8
0
 10
6564.5706819928436744
 20
328.3184815508639076
 30
0.0
 40
0.0394
 50
0.4999999807358812
 51
90.0
  0
ARC
  5
3698C
  8
0
 10
6564.6897672842542306
 20
328.2404715508639015
 30
0.0
 40
0.079
 50
180.4999999807359075
 51
270.0
  0
LINE
  5
3698D
  8
0
 10
6564.7560686748392982
 20
328.929188679963886
 30
0.0
 11
6565.8380917075819525
 21
328.929188679963886
 31
0.0
  0
LINE
  5
3698E
  8
0
 10
6563.0599317481455728
 20
328.1224153763594131
 30
0.0
 11
6563.0578675487404325
 21
327.8858815508638145
 31
0.0
  0
ARC
  5
3698F
  8
0
 10
6563.0993302479137128
 20
328.1220715508637795
 30
0.0
 40
0.0394
 50
90.0
 51
179.5000000044672959
  0
LINE
  5
36990
  8
0
 10
6563.5222241014798783
 20
329.666320531138183
 30
0.0
 11
6563.5097748901489467
 21
328.2397821545860097
 31
0.0
  0
ARC
  5
36991
  8
0
 10
6563.549863189637108
 20
328.3184815508639076
 30
0.0
 40
0.0394
 50
90.0
 51
179.5000000192640925
  0
ARC
  5
36992
  8
0
 10
6563.4307778982256423
 20
328.2404715508639015
 30
0.0
 40
0.079
 50
270.0
 51
359.500000019264121
  0
ARC
  5
36993
  8
0
 10
6564.7560686748392982
 20
328.779188679963795
 30
0.0
 40
0.15
 50
90.0
 51
180.4999999807359075
  0
ARC
  5
36994
  8
0
 10
6563.6722183899410084
 20
329.6650115508638237
 30
0.0
 40
0.15
 50
90.0
 51
179.5000000192640925
  0
LINE
  5
36995
  8
0
 10
6565.9829735972816707
 20
329.6663205311925253
 30
0.0
 11
6565.9880859960412636
 21
329.0804976602923944
 31
0.0
  0
ARC
  5
36996
  8
0
 10
6565.8329793088223596
 20
329.6650115508638237
 30
0.0
 40
0.15
 50
0.5000000014767731
 51
90.0
  0
ARC
  5
36997
  8
0
 10
6565.8380917075819525
 20
329.0791886799638064
 30
0.0
 40
0.15
 50
270.0
 51
0.5000000014767731
  0
ENDSEC
  0
EOF
