  0
SECTION
  2
HEADER
  9
$ACADVER
  1
AC1009
  9
$INSBASE
 10
3083.742928605256111
 20
82.6477587990892744
 30
0.0
  9
$EXTMIN
 10
3077.585025073190991
 20
82.6453389377193162
 30
-0.0000000000112498
  9
$EXTMAX
 10
3089.8429353928631826
 20
89.7609630616604051
 30
0.0000000000002956
  9
$LIMMIN
 10
0.0
 20
0.0
  9
$LIMMAX
 10
11.6929133858000007
 20
8.2677165353999982
  9
$ORTHOMODE
 70
     0
  9
$REGENMODE
 70
     1
  9
$FILLMODE
 70
     1
  9
$QTEXTMODE
 70
     0
  9
$MIRRTEXT
 70
     0
  9
$DRAGMODE
 70
     2
  9
$LTSCALE
 40
0.6431102362
  9
$OSMODE
 70
  3839
  9
$ATTMODE
 70
     1
  9
$TEXTSIZE
 40
0.2
  9
$TRACEWID
 40
0.05
  9
$TEXTSTYLE
  7
STANDARD
  9
$CLAYER
  8
0
  9
$CELTYPE
  6
BYLAYER
  9
$CECOLOR
 62
   256
  9
$DIMSCALE
 40
1.0
  9
$DIMASZ
 40
0.1875
  9
$DIMEXO
 40
0.0625
  9
$DIMDLI
 40
0.4443307087
  9
$DIMRND
 40
0.0
  9
$DIMDLE
 40
0.0
  9
$DIMEXE
 40
0.125
  9
$DIMTP
 40
0.01
  9
$DIMTM
 40
0.01
  9
$DIMTXT
 40
2.0
  9
$DIMCEN
 40
0.1052362205
  9
$DIMTSZ
 40
0.0
  9
$DIMTOL
 70
     1
  9
$DIMLIM
 70
     0
  9
$DIMTIH
 70
     1
  9
$DIMTOH
 70
     1
  9
$DIMSE1
 70
     0
  9
$DIMSE2
 70
     0
  9
$DIMTAD
 70
     0
  9
$DIMZIN
 70
     0
  9
$DIMBLK
  1

  9
$DIMASO
 70
     1
  9
$DIMSHO
 70
     1
  9
$DIMPOST
  1
\X
  9
$DIMAPOST
  1

  9
$DIMALT
 70
     1
  9
$DIMALTD
 70
     2
  9
$DIMALTF
 40
25.3999999999999986
  9
$DIMLFAC
 40
1.0
  9
$DIMTOFL
 70
     0
  9
$DIMTVP
 40
0.0
  9
$DIMTIX
 70
     0
  9
$DIMSOXD
 70
     0
  9
$DIMSAH
 70
     0
  9
$DIMBLK1
  1

  9
$DIMBLK2
  1

  9
$DIMSTYLE
  2
STANDARD
  9
$DIMCLRD
 70
     0
  9
$DIMCLRE
 70
     0
  9
$DIMCLRT
 70
     0
  9
$DIMTFAC
 40
1.0
  9
$DIMGAP
 40
0.09
  9
$LUNITS
 70
     2
  9
$LUPREC
 70
     4
  9
$SKETCHINC
 40
0.1
  9
$FILLETRAD
 40
0.0
  9
$AUNITS
 70
     0
  9
$AUPREC
 70
     0
  9
$MENU
  1
.
  9
$ELEVATION
 40
0.0
  9
$PELEVATION
 40
0.0
  9
$THICKNESS
 40
0.0
  9
$LIMCHECK
 70
     0
  9
$BLIPMODE
 70
     0
  9
$CHAMFERA
 40
0.0
  9
$CHAMFERB
 40
0.0
  9
$SKPOLY
 70
     0
  9
$TDCREATE
 40
2458060.468368056230247
  9
$TDUPDATE
 40
2460381.7025115741416812
  9
$TDINDWG
 40
0.4761991898
  9
$TDUSRTIMER
 40
0.4761991898
  9
$USRTIMER
 70
     1
  9
$ANGBASE
 50
0.0
  9
$ANGDIR
 70
     0
  9
$PDMODE
 70
     0
  9
$PDSIZE
 40
0.3125
  9
$PLINEWID
 40
0.0
  9
$COORDS
 70
     1
  9
$SPLFRAME
 70
     0
  9
$SPLINETYPE
 70
     6
  9
$SPLINESEGS
 70
     8
  9
$ATTDIA
 70
     1
  9
$ATTREQ
 70
     1
  9
$HANDLING
 70
     1
  9
$HANDSEED
  5
302D2
  9
$SURFTAB1
 70
     6
  9
$SURFTAB2
 70
     6
  9
$SURFTYPE
 70
     6
  9
$SURFU
 70
     6
  9
$SURFV
 70
     6
  9
$UCSNAME
  2

  9
$UCSORG
 10
0.0
 20
0.0
 30
0.0
  9
$UCSXDIR
 10
1.0
 20
0.0
 30
0.0
  9
$UCSYDIR
 10
0.0
 20
1.0
 30
0.0
  9
$PUCSNAME
  2

  9
$PUCSORG
 10
0.0
 20
0.0
 30
0.0
  9
$PUCSXDIR
 10
1.0
 20
0.0
 30
0.0
  9
$PUCSYDIR
 10
0.0
 20
1.0
 30
0.0
  9
$USERI1
 70
     0
  9
$USERI2
 70
     0
  9
$USERI3
 70
     0
  9
$USERI4
 70
     0
  9
$USERI5
 70
     0
  9
$USERR1
 40
0.0
  9
$USERR2
 40
0.0
  9
$USERR3
 40
0.0
  9
$USERR4
 40
0.0
  9
$USERR5
 40
0.0
  9
$WORLDVIEW
 70
     1
  9
$SHADEDGE
 70
     3
  9
$SHADEDIF
 70
    70
  9
$TILEMODE
 70
     1
  9
$MAXACTVP
 70
    64
  9
$PLIMCHECK
 70
     0
  9
$PEXTMIN
 10
1.0000000000000000E+20
 20
1.0000000000000000E+20
 30
1.0000000000000000E+20
  9
$PEXTMAX
 10
-1.0000000000000000E+20
 20
-1.0000000000000000E+20
 30
-1.0000000000000000E+20
  9
$PLIMMIN
 10
0.0
 20
0.0
  9
$PLIMMAX
 10
12.0
 20
9.0
  9
$UNITMODE
 70
     0
  9
$VISRETAIN
 70
     1
  9
$PLINEGEN
 70
     0
  9
$PSLTSCALE
 70
     1
  0
ENDSEC
  0
SECTION
  2
TABLES
  0
TABLE
  2
VPORT
 70
     1
  0
VPORT
  2
*ACTIVE
 70
     0
 10
0.0
 20
0.0
 11
1.0
 21
1.0
 12
-719.8300871497857543
 22
-39.7921111970600734
 13
0.0
 23
0.0
 14
1.0
 24
1.0
 15
0.0
 25
0.0
 16
0.0
 26
0.0
 36
17.1152628219792007
 17
3803.5440673828129547
 27
125.9952621967499056
 37
0.0
 40
7.1630089682736431
 41
2.1211111111111101
 42
50.0
 43
0.0
 44
0.0
 50
0.0
 51
0.0
 71
     0
 72
   100
 73
     1
 74
     1
 75
     0
 76
     0
 77
     0
 78
     0
  0
ENDTAB
  0
TABLE
  2
LTYPE
 70
     2
  0
LTYPE
  2
CONTINUOUS
 70
     0
  3
Solid line
 72
    65
 73
     0
 40
0.0
  0
LTYPE
  2
PHANTOM2
 70
     0
  3
___ _ _ ___ _ _ ___ _ _ ___ _ _
 72
    65
 73
     6
 40
1.25
 49
0.625
 49
-0.125
 49
0.125
 49
-0.125
 49
0.125
 49
-0.125
  0
ENDTAB
  0
TABLE
  2
LAYER
 70
     2
  0
LAYER
  2
0
 70
     0
 62
   255
  6
CONTINUOUS
  0
LAYER
  2
DEFPOINTS
 70
     0
 62
     7
  6
CONTINUOUS
  0
ENDTAB
  0
TABLE
  2
STYLE
 70
     1
  0
STYLE
  2
STANDARD
 70
     0
 40
0.0
 41
0.8
 50
0.0
 71
     0
 42
0.2
  3
txt
  4

  0
ENDTAB
  0
TABLE
  2
VIEW
 70
     0
  0
ENDTAB
  0
TABLE
  2
UCS
 70
     0
  0
ENDTAB
  0
TABLE
  2
APPID
 70
    10
  0
APPID
  2
ACAD
 70
     0
  0
APPID
  2
ACAD_MLEADERVER
 70
     0
  0
APPID
  2
ACAD_EXEMPT_FROM_CAD_STANDARDS
 70
     0
  0
APPID
  2
ACAD_NAV_VCDISPLAY
 70
     0
  0
APPID
  2
ACAECLAYERSTANDARD
 70
     0
  0
APPID
  2
ACCMTRANSPARENCY
 70
     0
  0
APPID
  2
ACAD_DSTYLE_DIMJAG
 70
     0
  0
APPID
  2
ACAD_DSTYLE_DIMTALN
 70
     0
  0
APPID
  2
ACDBATTR
 70
     0
  0
APPID
  2
DCO15
 70
     0
  0
ENDTAB
  0
TABLE
  2
DIMSTYLE
 70
     1
  0
DIMSTYLE
  2
STANDARD
 70
     0
  3

  4

  5

  6

  7

 40
1.0
 41
0.1875
 42
0.0625
 43
0.38
 44
0.125
 45
0.0
 46
0.0
 47
0.01
 48
0.01
140
0.15625
141
0.09
142
0.0
143
25.3999999999999986
144
1.0
145
0.0
146
1.0
147
0.09
 71
     1
 72
     0
 73
     1
 74
     1
 75
     0
 76
     0
 77
     0
 78
     4
170
     0
171
     2
172
     0
173
     0
174
     0
175
     0
176
     0
177
     0
178
     0
  0
ENDTAB
  0
ENDSEC
  0
SECTION
  2
BLOCKS
  0
BLOCK
  8
0
  2
$MODEL_SPACE
 70
     0
 10
0.0
 20
0.0
 30
0.0
  3
$MODEL_SPACE
  1

  0
ENDBLK
  5
21
  8
0
  0
BLOCK
 67
     1
  8
0
  2
$PAPER_SPACE
 70
     0
 10
0.0
 20
0.0
 30
0.0
  3
$PAPER_SPACE
  1

  0
ENDBLK
  5
1D
 67
     1
  8
0
  0
BLOCK
  8
0
  2
_FILLED
 70
     0
 10
0.0
 20
0.0
 30
0.0
  3
_FILLED
  1

  0
SOLID
  5
2F622
  8
0
  6
BYBLOCK
 62
     0
 10
0.0
 20
0.0
 30
0.0
 11
-1.0
 21
0.1666666667
 31
0.0
 12
-1.0
 22
-0.1666666667
 32
0.0
 13
-1.0
 23
-0.1666666667
 33
0.0
  0
ENDBLK
  5
2F623
  8
0
  6
BYBLOCK
 62
     0
  0
ENDSEC
  0
SECTION
  2
ENTITIES
  0
ATTDEF
  5
2913F
  8
DEFPOINTS
 10
3083.7429204542700063
 20
82.6516681117596761
 30
0.0
 40
0.001
  1
P34231-TWW
  3

  2
MODELNUMBER
 70
     0
1001
ACDBATTR
1070
     0
1070
     1
  0
ATTDEF
  5
29140
  8
DEFPOINTS
 10
3083.7429204542700063
 20
82.6500014450930109
 30
0.0
 40
0.001
  1
BRASSWARE
  3

  2
TRADENAME
 70
     0
1001
ACDBATTR
1070
     0
1070
     1
  0
ATTDEF
  5
29141
  8
DEFPOINTS
 10
3083.7429204542700063
 20
82.6483347784263458
 30
0.0
 40
0.001
  1
BATHROOM SINK FAUCET
  3

  2
PRODUCT
 70
     0
1001
ACDBATTR
1070
     0
1070
     1
  0
LINE
  5
30095
  8
0
 10
3082.7323286052551339
 20
82.6477587990892744
 30
0.0
 11
3084.7535286052561787
 21
82.6477587990892744
 31
0.0
  0
ARC
  5
30096
  8
0
 10
3084.7535286052561787
 20
82.6871587990892749
 30
0.0
 40
0.0393999999999997
 50
270.0
 51
0.0000000000008142
  0
LINE
  5
30097
  8
0
 10
3084.7929286052558382
 20
82.6871587990892749
 30
0.0
 11
3084.7929286052558382
 21
82.9883587990892551
 31
0.0
  0
ARC
  5
30098
  8
0
 10
3084.7535286052561787
 20
82.9883587990892551
 30
0.0
 40
0.0394000000000006
 50
0.0
 51
90.0
  0
LINE
  5
30099
  8
0
 10
3084.7535286052561787
 20
83.0277587990892556
 30
0.0
 11
3082.7323286052551339
 21
83.0277587990894546
 31
0.0
  0
ARC
  5
3009A
  8
0
 10
3082.7323286052551339
 20
82.9883587990894682
 30
0.0
 40
0.039399999999997
 50
90.0
 51
180.0000000002694946
  0
LINE
  5
3009B
  8
0
 10
3082.6929286052550196
 20
82.9883587990892551
 30
0.0
 11
3082.6929286052568386
 21
82.6871587990892749
 31
0.0
  0
ARC
  5
3009C
  8
0
 10
3082.7323286052569529
 20
82.6871587990891896
 30
0.0
 40
0.0393999999999135
 50
179.9999999998738076
 51
269.9999999980719281
  0
LINE
  5
3009D
  8
0
 10
3083.0933236053169821
 20
83.0277587990894261
 30
0.0
 11
3083.0933236053169821
 21
89.7213587990892734
 31
0.0
  0
ARC
  5
3009E
  8
0
 10
3083.1327236052120497
 20
89.7213587991931263
 30
0.0
 40
0.0393999998961698
 50
89.9999999374677344
 51
180.000000150990104
  0
LINE
  5
3009F
  8
0
 10
3083.132723605254796
 20
89.7607587990892739
 30
0.0
 11
3084.3531336052551524
 21
89.7607587990892739
 31
0.0
  0
ARC
  5
300A0
  8
0
 10
3084.3531336052551524
 20
89.7213587990892734
 30
0.0
 40
0.0394000000000014
 50
0.0000000000024427
 51
90.0
  0
LINE
  5
300A1
  8
0
 10
3084.3925336052548118
 20
89.7213587990892734
 30
0.0
 11
3084.3925336052561761
 21
83.0277587990893124
 31
0.0
  0
ARC
  5
300A2
  8
0
 10
3084.3531336052551524
 20
83.2243587990892735
 30
0.0
 40
0.0393999999999988
 50
359.9999999999984084
 51
90.0
  0
LINE
  5
300A3
  8
0
 10
3084.3531336052551524
 20
83.263758799089274
 30
0.0
 11
3083.132723605254796
 21
83.2637587990892456
 31
0.0
  0
ARC
  5
300A4
  8
0
 10
3083.132723605254796
 20
83.2243587990892451
 30
0.0
 40
0.0394000000000003
 50
90.0
 51
179.9999999999608917
  0
LINE
  5
300A5
  8
0
 10
3078.7405235627561524
 20
82.6477587990892744
 30
0.0
 11
3080.7453336477551602
 21
82.6477587990892744
 31
0.0
  0
LINE
  5
300A6
  8
0
 10
3080.7453336477551602
 20
82.6477587990892744
 30
0.0
 11
3080.7432694433550751
 21
82.8842931970849577
 31
0.0
  0
ARC
  5
300A7
  8
0
 10
3080.703870943586935
 20
82.8839493715895514
 30
0.0
 40
0.0393999999997247
 50
0.4999999953218487
 51
90.0000009184163616
  0
LINE
  5
300A8
  8
0
 10
3080.7038709429548362
 20
82.923349371589282
 30
0.0
 11
3078.7819862669548456
 21
82.9233493407827211
 31
0.0
  0
ARC
  5
300A9
  8
0
 10
3078.7819862675869445
 20
82.8839493398744196
 30
0.0
 40
0.0394000009083059
 50
90.0000009184163616
 51
179.4999538897872924
  0
LINE
  5
300AA
  8
0
 10
3078.7425877671871604
 20
82.8842931970879135
 30
0.0
 11
3078.7405235627561524
 21
82.6477587990892744
 31
0.0
  0
ARC
  5
300AB
  8
0
 10
3079.1136914995549887
 20
83.0020895315892631
 30
0.0
 40
0.07874016
 50
270.0000166035108009
 51
359.5000000010099939
  0
LINE
  5
300AC
  8
0
 10
3079.1924286613721051
 20
83.0014024027892816
 30
0.0
 11
3079.1971268103011425
 21
83.5397569478897424
 31
0.0
  0
ARC
  5
300AD
  8
0
 10
3079.0471325217649792
 20
83.5410659282125323
 30
0.0
 40
0.1500000000767476
 50
359.5000000010099939
 51
89.9999999655290992
  0
LINE
  5
300AE
  8
0
 10
3079.0471325218550191
 20
83.6910659282892766
 30
0.0
 11
3077.965109488959115
 21
83.6910659289402474
 31
0.0
  0
ARC
  5
300AF
  8
0
 10
3077.9650882051078042
 20
83.8410145450537243
 30
0.0
 40
0.1499486176239963
 50
179.9803663238834872
 51
270.0081326181849022
  0
LINE
  5
300B0
  8
0
 10
3077.8151395962881907
 20
83.8410659282892823
 30
0.0
 11
3077.8202276332549445
 21
84.4282016802184643
 31
0.0
  0
ARC
  5
300B1
  8
0
 10
3077.9702219217551828
 20
84.4268926998892795
 30
0.0
 40
0.1499999999999999
 50
89.9999999986972483
 51
179.5000000095905932
  0
LINE
  5
300B2
  8
0
 10
3077.9702219217588208
 20
84.5768926998892709
 30
0.0
 11
3080.1309827720551766
 21
84.5768926998402435
 31
0.0
  0
ARC
  5
300B3
  8
0
 10
3080.1309827720519934
 20
84.4268926998363867
 30
0.0
 40
0.1500000000038648
 50
0.5000000109342837
 51
89.9999999986972483
  0
LINE
  5
300B4
  8
0
 10
3080.2809770605149424
 20
84.4282016801898152
 30
0.0
 11
3080.2934285494447977
 21
83.00140240278823
 31
0.0
  0
ARC
  5
300B5
  8
0
 10
3080.3721657112760113
 20
83.0020895316047813
 30
0.0
 40
0.0787401600155038
 50
180.5000000109342864
 51
269.9999458881869145
  0
ARC
  5
300B6
  8
0
 10
3079.23252305165488
 20
83.0807997252892676
 30
0.0
 40
0.0393999999999998
 50
89.9999999992965058
 51
179.5002563227000962
  0
LINE
  5
300B7
  8
0
 10
3079.2325230516557895
 20
83.1201997252892681
 30
0.0
 11
3080.2533341589551128
 21
83.1201997252768052
 31
0.0
  0
ARC
  5
300B8
  8
0
 10
3080.2533341589542033
 20
83.0807997252756962
 30
0.0
 40
0.0394000000010812
 50
0.4997639179042198
 51
89.9999999992965058
  0
LINE
  5
300B9
  8
0
 10
3083.0933236052551365
 20
88.2597587990892691
 30
0.0
 11
3084.3925336052548118
 21
88.2597587990893402
 31
0.0
  0
ARC
  5
300BA
  8
0
 10
3077.9609286052550488
 20
83.8397587990892958
 30
0.0
 40
0.0799999999999999
 50
180.0
 51
270.0
  0
LINE
  5
300BB
  8
0
 10
3077.8809286052551215
 20
83.8397587990892958
 30
0.0
 11
3077.8809286052551215
 21
84.4277587990892755
 31
0.0
  0
ARC
  5
300BC
  8
0
 10
3077.9609286052550488
 20
84.4277587990892755
 30
0.0
 40
0.0800000000000003
 50
90.0
 51
180.0
  0
LINE
  5
300BD
  8
0
 10
3077.9609286052550488
 20
84.5077587990892738
 30
0.0
 11
3080.1469286052551979
 21
84.5077587990893306
 31
0.0
  0
ARC
  5
300BE
  8
0
 10
3080.1469286052551979
 20
84.4277587990893466
 30
0.0
 40
0.0799999999999979
 50
359.9999999999608917
 51
90.0
  0
LINE
  5
300BF
  8
0
 10
3080.2269286052551251
 20
84.4277587990892755
 30
0.0
 11
3080.2269286052551251
 21
83.5427573728892838
 31
0.0
  0
ARC
  5
300C0
  8
0
 10
3080.1469300314420252
 20
83.5427573728893265
 30
0.0
 40
0.0799985738127669
 50
269.9989785508427076
 51
359.9999999999608917
  0
LINE
  5
300C1
  8
0
 10
3080.1469286052551979
 20
83.4627587990892863
 30
0.0
 11
3079.3389286053838987
 21
83.4627732038310768
 31
0.0
  0
ARC
  5
300C2
  8
0
 10
3079.3389300320409347
 20
83.5427981330491605
 30
0.0
 40
0.0800249292308084
 50
181.3886478989604996
 51
269.9989785508427076
  0
ARC
  5
300C3
  8
0
 10
3079.0345903805878152
 20
83.5354205671850849
 30
0.0
 40
0.224404129704502
 50
1.388647898960504
 51
88.611428347037446
  0
LINE
  5
300C4
  8
0
 10
3079.0400283153558121
 20
83.7597587990892549
 30
0.0
 11
3077.9609286052550488
 21
83.7597587990892549
 31
0.0
  0
LINE
  5
300E0
  8
0
 10
3088.7453336477551602
 20
82.6477587990892744
 30
0.0
 11
3086.7405235627561524
 21
82.6477587990892744
 31
0.0
  0
LINE
  5
300E1
  8
0
 10
3086.7405235627561524
 20
82.6477587990892744
 30
0.0
 11
3086.7425877671548733
 21
82.8842931970849577
 31
0.0
  0
ARC
  5
300E2
  8
0
 10
3086.7819862669239228
 20
82.8839493715895514
 30
0.0
 40
0.0393999999997247
 50
89.9999990815836242
 51
179.5000000046780997
  0
LINE
  5
300E3
  8
0
 10
3086.7819862675551121
 20
82.923349371589282
 30
0.0
 11
3088.7038709435551027
 21
82.9233493407827211
 31
0.0
  0
ARC
  5
300E4
  8
0
 10
3088.7038709429239134
 20
82.8839493398744196
 30
0.0
 40
0.0394000009083059
 50
0.5000461102127221
 51
89.9999990815836242
  0
LINE
  5
300E5
  8
0
 10
3088.7432694433250617
 20
82.8842931970879135
 30
0.0
 11
3088.7453336477551602
 21
82.6477587990892744
 31
0.0
  0
ARC
  5
300E6
  8
0
 10
3088.3721657109558691
 20
83.0020895315892631
 30
0.0
 40
0.07874016
 50
180.4999999989900061
 51
269.9999833964891991
  0
LINE
  5
300E7
  8
0
 10
3088.2934285491392075
 20
83.0014024027892816
 30
0.0
 11
3088.28873040021017
 21
83.5397569478897424
 31
0.0
  0
ARC
  5
300E8
  8
0
 10
3088.4387246887458787
 20
83.5410659282125323
 30
0.0
 40
0.1500000000767476
 50
90.0000000344708866
 51
180.4999999989900061
  0
LINE
  5
300E9
  8
0
 10
3088.4387246886558387
 20
83.6910659282892766
 30
0.0
 11
3089.5207477215521976
 21
83.6910659289402474
 31
0.0
  0
ARC
  5
300EA
  8
0
 10
3089.5207690054039631
 20
83.8410145450537243
 30
0.0
 40
0.1499486176239963
 50
269.9918673818150978
 51
0.0196336761164906
  0
LINE
  5
300EB
  8
0
 10
3089.6707176142231219
 20
83.8410659282892823
 30
0.0
 11
3089.6656295772550038
 21
84.4282016802184643
 31
0.0
  0
ARC
  5
300EC
  8
0
 10
3089.5156352887552202
 20
84.4268926998892795
 30
0.0
 40
0.1499999999999999
 50
0.4999999904093797
 51
90.0000000013027659
  0
LINE
  5
300ED
  8
0
 10
3089.515635288752037
 20
84.5768926998892709
 30
0.0
 11
3087.3548744384552265
 21
84.5768926998402435
 31
0.0
  0
ARC
  5
300EE
  8
0
 10
3087.3548744384588645
 20
84.4268926998363867
 30
0.0
 40
0.1500000000038648
 50
90.0000000013027659
 51
179.4999999890657136
  0
LINE
  5
300EF
  8
0
 10
3087.2048801499950059
 20
84.4282016801898152
 30
0.0
 11
3087.1924286610660602
 21
83.00140240278823
 31
0.0
  0
ARC
  5
300F0
  8
0
 10
3087.1136914992339371
 20
83.0020895316047813
 30
0.0
 40
0.0787401600155038
 50
270.0000541118130855
 51
359.4999999890657136
  0
ARC
  5
300F1
  8
0
 10
3088.2533341588550684
 20
83.0807997252892676
 30
0.0
 40
0.0393999999999998
 50
0.4997436772998666
 51
90.0000000007034942
  0
LINE
  5
300F2
  8
0
 10
3088.2533341588550684
 20
83.1201997252892681
 30
0.0
 11
3087.2325230515561998
 21
83.1201997252768052
 31
0.0
  0
ARC
  5
300F3
  8
0
 10
3087.2325230515561998
 20
83.0807997252756962
 30
0.0
 40
0.0394000000010812
 50
90.0000000007034942
 51
179.5002360820957961
  0
ARC
  5
300F4
  8
0
 10
3089.5249286052558091
 20
83.8397587990892958
 30
0.0
 40
0.0799999999999999
 50
270.0
 51
0.0
  0
LINE
  5
300F5
  8
0
 10
3089.6049286052548268
 20
83.8397587990892958
 30
0.0
 11
3089.6049286052548268
 21
84.4277587990892755
 31
0.0
  0
ARC
  5
300F6
  8
0
 10
3089.5249286052558091
 20
84.4277587990892755
 30
0.0
 40
0.0800000000000003
 50
0.0
 51
90.0
  0
LINE
  5
300F7
  8
0
 10
3089.5249286052558091
 20
84.5077587990892738
 30
0.0
 11
3087.3389286052561147
 21
84.5077587990893306
 31
0.0
  0
ARC
  5
300F8
  8
0
 10
3087.3389286052561147
 20
84.4277587990893466
 30
0.0
 40
0.0799999999999979
 50
90.0
 51
180.0000000000391083
  0
LINE
  5
300F9
  8
0
 10
3087.2589286052548232
 20
84.4277587990892755
 30
0.0
 11
3087.2589286052561874
 21
83.5427573728892838
 31
0.0
  0
ARC
  5
300FA
  8
0
 10
3087.3389271790679231
 20
83.5427573728893265
 30
0.0
 40
0.0799985738127669
 50
180.0000000000391083
 51
270.0010214491572924
  0
LINE
  5
300FB
  8
0
 10
3087.3389286052561147
 20
83.4627587990892863
 30
0.0
 11
3088.1469286051269592
 21
83.4627732038310768
 31
0.0
  0
ARC
  5
300FC
  8
0
 10
3088.1469271784708326
 20
83.5427981330491605
 30
0.0
 40
0.0800249292308084
 50
270.0010214491572924
 51
358.611352101039472
  0
ARC
  5
300FD
  8
0
 10
3088.4512668299230427
 20
83.5354205671850849
 30
0.0
 40
0.224404129704502
 50
91.388571652962554
 51
178.6113521010395004
  0
LINE
  5
300FE
  8
0
 10
3088.4458288951550458
 20
83.7597587990892549
 30
0.0
 11
3089.5249286052558091
 21
83.7597587990892549
 31
0.0
  0
ENDSEC
  0
EOF
