  0
SECTION
  2
HEADER
  9
$ACADVER
  1
AC1009
  9
$INSBASE
 10
6549.347320967172891
 20
297.5147356616113257
 30
0.0
  9
$EXTMIN
 10
6543.1662186050716628
 20
297.5096501414915906
 30
0.0
  9
$EXTMAX
 10
6550.6468327776728984
 20
304.6277356616113252
 30
0.0
  9
$LIMMIN
 10
0.0
 20
0.0
  9
$LIMMAX
 10
11.6929133858000007
 20
8.2677165353999982
  9
$ORTHOMODE
 70
     0
  9
$REGENMODE
 70
     1
  9
$FILLMODE
 70
     1
  9
$QTEXTMODE
 70
     0
  9
$MIRRTEXT
 70
     0
  9
$DRAGMODE
 70
     2
  9
$LTSCALE
 40
0.6431102362
  9
$OSMODE
 70
  4095
  9
$ATTMODE
 70
     1
  9
$TEXTSIZE
 40
0.2
  9
$TRACEWID
 40
0.05
  9
$TEXTSTYLE
  7
STANDARD
  9
$CLAYER
  8
0
  9
$CELTYPE
  6
BYLAYER
  9
$CECOLOR
 62
   256
  9
$DIMSCALE
 40
1.0
  9
$DIMASZ
 40
0.1875
  9
$DIMEXO
 40
0.0625
  9
$DIMDLI
 40
0.4443307087
  9
$DIMRND
 40
0.0
  9
$DIMDLE
 40
0.0
  9
$DIMEXE
 40
0.125
  9
$DIMTP
 40
0.01
  9
$DIMTM
 40
0.01
  9
$DIMTXT
 40
2.0
  9
$DIMCEN
 40
0.1052362205
  9
$DIMTSZ
 40
0.0
  9
$DIMTOL
 70
     1
  9
$DIMLIM
 70
     0
  9
$DIMTIH
 70
     1
  9
$DIMTOH
 70
     1
  9
$DIMSE1
 70
     0
  9
$DIMSE2
 70
     0
  9
$DIMTAD
 70
     0
  9
$DIMZIN
 70
     0
  9
$DIMBLK
  1

  9
$DIMASO
 70
     1
  9
$DIMSHO
 70
     1
  9
$DIMPOST
  1
\X
  9
$DIMAPOST
  1

  9
$DIMALT
 70
     1
  9
$DIMALTD
 70
     2
  9
$DIMALTF
 40
25.3999999999999986
  9
$DIMLFAC
 40
1.0
  9
$DIMTOFL
 70
     0
  9
$DIMTVP
 40
0.0
  9
$DIMTIX
 70
     0
  9
$DIMSOXD
 70
     0
  9
$DIMSAH
 70
     0
  9
$DIMBLK1
  1

  9
$DIMBLK2
  1

  9
$DIMSTYLE
  2
STANDARD
  9
$DIMCLRD
 70
     0
  9
$DIMCLRE
 70
     0
  9
$DIMCLRT
 70
     0
  9
$DIMTFAC
 40
1.0
  9
$DIMGAP
 40
0.09
  9
$LUNITS
 70
     2
  9
$LUPREC
 70
     4
  9
$SKETCHINC
 40
0.1
  9
$FILLETRAD
 40
0.0
  9
$AUNITS
 70
     0
  9
$AUPREC
 70
     0
  9
$MENU
  1
.
  9
$ELEVATION
 40
0.0
  9
$PELEVATION
 40
0.0
  9
$THICKNESS
 40
0.0
  9
$LIMCHECK
 70
     0
  9
$BLIPMODE
 70
     0
  9
$CHAMFERA
 40
0.0
  9
$CHAMFERB
 40
0.0
  9
$SKPOLY
 70
     0
  9
$TDCREATE
 40
2458060.468368056230247
  9
$TDUPDATE
 40
2460295.8592824069783092
  9
$TDINDWG
 40
0.8538033565000001
  9
$TDUSRTIMER
 40
0.8538033565000001
  9
$USRTIMER
 70
     1
  9
$ANGBASE
 50
0.0
  9
$ANGDIR
 70
     0
  9
$PDMODE
 70
     0
  9
$PDSIZE
 40
0.3125
  9
$PLINEWID
 40
0.0
  9
$COORDS
 70
     1
  9
$SPLFRAME
 70
     0
  9
$SPLINETYPE
 70
     6
  9
$SPLINESEGS
 70
     8
  9
$ATTDIA
 70
     1
  9
$ATTREQ
 70
     1
  9
$HANDLING
 70
     1
  9
$HANDSEED
  5
307A8
  9
$SURFTAB1
 70
     6
  9
$SURFTAB2
 70
     6
  9
$SURFTYPE
 70
     6
  9
$SURFU
 70
     6
  9
$SURFV
 70
     6
  9
$UCSNAME
  2

  9
$UCSORG
 10
0.0
 20
0.0
 30
0.0
  9
$UCSXDIR
 10
1.0
 20
0.0
 30
0.0
  9
$UCSYDIR
 10
0.0
 20
1.0
 30
0.0
  9
$PUCSNAME
  2

  9
$PUCSORG
 10
0.0
 20
0.0
 30
0.0
  9
$PUCSXDIR
 10
1.0
 20
0.0
 30
0.0
  9
$PUCSYDIR
 10
0.0
 20
1.0
 30
0.0
  9
$USERI1
 70
     0
  9
$USERI2
 70
     0
  9
$USERI3
 70
     0
  9
$USERI4
 70
     0
  9
$USERI5
 70
     0
  9
$USERR1
 40
0.0
  9
$USERR2
 40
0.0
  9
$USERR3
 40
0.0
  9
$USERR4
 40
0.0
  9
$USERR5
 40
0.0
  9
$WORLDVIEW
 70
     1
  9
$SHADEDGE
 70
     3
  9
$SHADEDIF
 70
    70
  9
$TILEMODE
 70
     1
  9
$MAXACTVP
 70
    64
  9
$PLIMCHECK
 70
     0
  9
$PEXTMIN
 10
1.0000000000000000E+20
 20
1.0000000000000000E+20
 30
1.0000000000000000E+20
  9
$PEXTMAX
 10
-1.0000000000000000E+20
 20
-1.0000000000000000E+20
 30
-1.0000000000000000E+20
  9
$PLIMMIN
 10
0.0
 20
0.0
  9
$PLIMMAX
 10
12.0
 20
9.0
  9
$UNITMODE
 70
     0
  9
$VISRETAIN
 70
     1
  9
$PLINEGEN
 70
     0
  9
$PSLTSCALE
 70
     1
  0
ENDSEC
  0
SECTION
  2
TABLES
  0
TABLE
  2
VPORT
 70
     1
  0
VPORT
  2
*ACTIVE
 70
     0
 10
0.0
 20
0.0
 11
1.0
 21
1.0
 12
2635.5411692460611448
 22
168.4890877990123954
 13
0.0
 23
0.0
 14
1.0
 24
1.0
 15
0.0
 25
0.0
 16
0.0
 26
0.0
 36
60.4960186965801583
 17
3911.3653564453120453
 27
132.5796051025390057
 37
0.0
 40
7.1823088481207833
 41
2.8524096385542168
 42
50.0
 43
0.0
 44
0.0
 50
0.0
 51
0.0
 71
     0
 72
   100
 73
     1
 74
     1
 75
     0
 76
     0
 77
     0
 78
     0
  0
ENDTAB
  0
TABLE
  2
LTYPE
 70
     2
  0
LTYPE
  2
CONTINUOUS
 70
     0
  3
Solid line
 72
    65
 73
     0
 40
0.0
  0
LTYPE
  2
PHANTOM2
 70
     0
  3
___ _ _ ___ _ _ ___ _ _ ___ _ _
 72
    65
 73
     6
 40
1.25
 49
0.625
 49
-0.125
 49
0.125
 49
-0.125
 49
0.125
 49
-0.125
  0
ENDTAB
  0
TABLE
  2
LAYER
 70
     2
  0
LAYER
  2
0
 70
     0
 62
   255
  6
CONTINUOUS
  0
LAYER
  2
DEFPOINTS
 70
     0
 62
     7
  6
CONTINUOUS
  0
ENDTAB
  0
TABLE
  2
STYLE
 70
     1
  0
STYLE
  2
STANDARD
 70
     0
 40
0.0
 41
0.8
 50
0.0
 71
     0
 42
0.2
  3
txt
  4

  0
ENDTAB
  0
TABLE
  2
VIEW
 70
     0
  0
ENDTAB
  0
TABLE
  2
UCS
 70
     0
  0
ENDTAB
  0
TABLE
  2
APPID
 70
    11
  0
APPID
  2
ACAD
 70
     0
  0
APPID
  2
ACAD_MLEADERVER
 70
     0
  0
APPID
  2
ACAD_EXEMPT_FROM_CAD_STANDARDS
 70
     0
  0
APPID
  2
ACAD_NAV_VCDISPLAY
 70
     0
  0
APPID
  2
ACAECLAYERSTANDARD
 70
     0
  0
APPID
  2
ACCMTRANSPARENCY
 70
     0
  0
APPID
  2
ACAD_DSTYLE_DIMJAG
 70
     0
  0
APPID
  2
ACAD_DSTYLE_DIMTALN
 70
     0
  0
APPID
  2
ACDBATTR
 70
     0
  0
APPID
  2
ACADANNOTATIVE
 70
     0
  0
APPID
  2
DCO15
 70
     0
  0
ENDTAB
  0
TABLE
  2
DIMSTYLE
 70
     1
  0
DIMSTYLE
  2
STANDARD
 70
     0
  3

  4

  5

  6

  7

 40
1.0
 41
0.1875
 42
0.0625
 43
0.38
 44
0.125
 45
0.0
 46
0.0
 47
0.01
 48
0.01
140
0.15625
141
0.09
142
0.0
143
25.3999999999999986
144
1.0
145
0.0
146
1.0
147
0.09
 71
     1
 72
     0
 73
     1
 74
     1
 75
     0
 76
     0
 77
     0
 78
     4
170
     0
171
     2
172
     0
173
     0
174
     0
175
     0
176
     0
177
     0
178
     0
  0
ENDTAB
  0
ENDSEC
  0
SECTION
  2
BLOCKS
  0
BLOCK
  8
0
  2
$MODEL_SPACE
 70
     0
 10
0.0
 20
0.0
 30
0.0
  3
$MODEL_SPACE
  1

  0
ENDBLK
  5
21
  8
0
  0
BLOCK
 67
     1
  8
0
  2
$PAPER_SPACE
 70
     0
 10
0.0
 20
0.0
 30
0.0
  3
$PAPER_SPACE
  1

  0
ENDBLK
  5
1D
 67
     1
  8
0
  0
BLOCK
  8
0
  2
_FILLED
 70
     0
 10
0.0
 20
0.0
 30
0.0
  3
_FILLED
  1

  0
SOLID
  5
26C2A
  8
0
  6
BYBLOCK
 62
     0
 10
0.0
 20
0.0
 30
0.0
 11
-1.0
 21
0.1666666667
 31
0.0
 12
-1.0
 22
-0.1666666667
 32
0.0
 13
-1.0
 23
-0.1666666667
 33
0.0
  0
ENDBLK
  5
26C2B
  8
0
  6
BYBLOCK
 62
     0
  0
ENDSEC
  0
SECTION
  2
ENTITIES
  0
ATTDEF
  5
26A5B
  8
DEFPOINTS
 10
6549.3364725129085855
 20
297.5129834748249777
 30
0.0
 40
0.001
  1
P34231-LV
  3

  2
MODELNUMBER
 70
     0
1001
ACDBATTR
1070
     0
1070
     1
  0
ATTDEF
  5
26A5C
  8
DEFPOINTS
 10
6549.3363467032531844
 20
297.5113166344457909
 30
0.0
 40
0.001
  1
GUISE
  3

  2
TRADENAME
 70
     0
1001
ACDBATTR
1070
     0
1070
     1
  0
ATTDEF
  5
26A5D
  8
DEFPOINTS
 10
6549.3364725129085855
 20
297.5096501414915906
 30
0.0
 40
0.001
  1
BATHROOM SINK FAUCET
  3

  2
PRODUCT
 70
     0
1001
ACDBATTR
1070
     0
1070
     1
  0
LINE
  5
3035A
  8
0
 10
6548.336720967173278
 20
297.5147356616113257
 30
0.0
 11
6550.3579209671715944
 21
297.5147356616113257
 31
0.0
  0
LINE
  5
3035B
  8
0
 10
6548.3863786289421114
 20
297.7903256616114049
 30
0.0
 11
6550.3184297626594343
 21
297.7903256616114049
 31
0.0
  0
LINE
  5
3035C
  8
0
 10
6548.2973209671717996
 20
297.5541356616113262
 30
0.0
 11
6548.2973209671717996
 21
297.8553356616113206
 31
0.0
  0
ARC
  5
3035D
  8
0
 10
6548.336720967173278
 20
297.5541356616113262
 30
0.0
 40
0.0394
 50
179.9999999999934914
 51
270.0
  0
LINE
  5
3035E
  8
0
 10
6548.3469801291730619
 20
297.7512694871227836
 30
0.0
 11
6548.3449159296724247
 21
297.5147356616113257
 31
0.0
  0
ARC
  5
3035F
  8
0
 10
6548.3863786289421114
 20
297.7509256616114044
 30
0.0
 40
0.0394
 50
90.0
 51
179.4999999813913121
  0
LINE
  5
30360
  8
0
 10
6548.336720967173278
 20
297.8947356616113211
 30
0.0
 11
6548.7970510370732882
 21
297.8947356616113211
 31
0.0
  0
ARC
  5
30361
  8
0
 10
6548.336720967173278
 20
297.8553356616113206
 30
0.0
 40
0.0394
 50
90.0
 51
180.0
  0
LINE
  5
30362
  8
0
 10
6548.7968232710582015
 20
297.8686362652088064
 30
0.0
 11
6548.7975130709046425
 21
297.9476794871588936
 31
0.0
  0
ARC
  5
30363
  8
0
 10
6548.717826279136716
 20
297.869325661611299
 30
0.0
 40
0.079
 50
270.0
 51
359.499999928790487
  0
LINE
  5
30364
  8
0
 10
6548.8369115706727825
 20
297.9867356616114193
 30
0.0
 11
6550.0165729356722295
 21
297.9867356616114193
 31
0.0
  0
ARC
  5
30365
  8
0
 10
6548.8369115706727825
 20
297.9473356616114188
 30
0.0
 40
0.0394
 50
90.0
 51
179.4999999287838932
  0
LINE
  5
30366
  8
0
 10
6548.7371159671720307
 20
298.1307356887082847
 30
0.0
 11
6549.6463327776727965
 21
298.1307356887082847
 31
0.0
  0
LINE
  5
30367
  8
0
 10
6548.6977159671723712
 20
297.8947356616113211
 30
0.0
 11
6548.6977159671723712
 21
298.0913356887082841
 31
0.0
  0
ARC
  5
30368
  8
0
 10
6548.7371159671720307
 20
298.0913356887082841
 30
0.0
 40
0.0394
 50
90.0
 51
180.0000000000032117
  0
LINE
  5
30369
  8
0
 10
6550.3973209671730729
 20
297.5541356616113262
 30
0.0
 11
6550.3973209671730729
 21
297.8542556796620033
 31
0.0
  0
ARC
  5
3036A
  8
0
 10
6550.3579209671715944
 20
297.5541356616113262
 30
0.0
 40
0.0394
 50
270.0
 51
0.0000000000032569
  0
LINE
  5
3036C
  8
0
 10
6550.3315729356727388
 20
298.3017356616114171
 30
0.0
 11
6550.3315729356727388
 21
299.4048656616113249
 31
0.0
  0
ARC
  5
3036D
  8
0
 10
6550.0165729356722295
 20
298.3017356616114171
 30
0.0
 40
0.315
 50
270.0
 51
0.0
  0
LINE
  5
3036E
  8
0
 10
6550.6071335655724397
 20
298.3115406400074221
 30
0.0
 11
6550.6071335655724397
 21
299.4048656616113249
 31
0.0
  0
ARC
  5
30375
  8
0
 10
6549.9362570271623554
 20
298.3425780023907237
 30
0.0
 40
0.6715941093047946
 50
304.6842245622597147
 51
357.3511627507621142
  0
LINE
  5
30378
  8
0
 10
6550.2528327776726655
 20
298.7372356887083242
 30
0.0
 11
6550.2528327776726655
 21
303.6272356616112802
 31
0.0
  0
LINE
  5
30379
  8
0
 10
6550.6468327776728984
 20
298.737034873711309
 30
0.0
 11
6550.6468327776728984
 21
303.6274356616114005
 31
0.0
  0
ARC
  5
3037A
  8
0
 10
6549.6465335655730087
 20
298.737034873711309
 30
0.0
 40
1.000299212099834
 50
343.8038977521364927
 51
0.0
  0
ARC
  5
3037B
  8
0
 10
6549.6463327776727965
 20
298.7372356887083242
 30
0.0
 40
0.6065000000000002
 50
270.0
 51
0.0
  0
LINE
  5
3037C
  8
0
 10
6550.3705729356734082
 20
299.4438656616114258
 30
0.0
 11
6550.5681335655717703
 21
299.4438656616114258
 31
0.0
  0
ARC
  5
3037D
  8
0
 10
6550.5681335655717703
 20
299.4048656616113249
 30
0.0
 40
0.039
 50
0.0000000000032569
 51
90.0
  0
ARC
  5
3037E
  8
0
 10
6550.3705729356734082
 20
299.4048656616113249
 30
0.0
 40
0.039
 50
90.0
 51
180.0
  0
LINE
  5
3037F
  8
0
 10
6544.1667186050717646
 20
304.2337356616113198
 30
0.0
 11
6549.6463327776727965
 21
304.2337356616113198
 31
0.0
  0
LINE
  5
30380
  8
0
 10
6544.1665186050731791
 20
304.6277356616113252
 30
0.0
 11
6549.6465327776713821
 21
304.6277356616113252
 31
0.0
  0
LINE
  5
30381
  8
0
 10
6543.1662186050716628
 20
303.1267356616114057
 30
0.0
 11
6543.5602186050718956
 21
303.1267356616114057
 31
0.0
  0
LINE
  5
30382
  8
0
 10
6543.1662186050716628
 20
303.1267356616114057
 30
0.0
 11
6543.1662186050716628
 21
303.6274356616114005
 31
0.0
  0
LINE
  5
30383
  8
0
 10
6543.5602186050718956
 20
303.1267356616114057
 30
0.0
 11
6543.5602186050718956
 21
303.6272356616112802
 31
0.0
  0
ARC
  5
30384
  8
0
 10
6544.1667186050717646
 20
303.6272356616112802
 30
0.0
 40
0.6065000000000002
 50
90.0
 51
180.0
  0
ARC
  5
30385
  8
0
 10
6549.6463327776727965
 20
303.6272356616112802
 30
0.0
 40
0.6065000000000002
 50
0.0
 51
90.0
  0
ARC
  5
30386
  8
0
 10
6549.6465327776713821
 20
303.6274356616114005
 30
0.0
 40
1.0002999999999991
 50
0.0
 51
90.0
  0
ARC
  5
30387
  8
0
 10
6544.1665186050731791
 20
303.6274356616114005
 30
0.0
 40
1.0002999999999991
 50
90.0
 51
180.0
  0
LINE
  5
30388
  8
0
 10
6550.3709729356733078
 20
298.5580427907112835
 30
0.0
 11
6550.5677335655727802
 21
298.5580427907112835
 31
0.0
  0
ARC
  5
30389
  8
0
 10
6550.3709729356733078
 20
298.597442790711284
 30
0.0
 40
0.0394
 50
179.9999999999967031
 51
270.0
  0
ARC
  5
3038A
  8
0
 10
6550.5677335655727802
 20
298.597442790711284
 30
0.0
 40
0.0394
 50
270.0
 51
0.0000000000065138
  0
ENDSEC
  0
EOF
