  0
SECTION
  2
HEADER
  9
$ACADVER
  1
AC1009
  9
$INSBASE
 10
4583.2191447128607251
 20
193.2349495463116114
 30
0.0
  9
$EXTMIN
 10
4580.716000963318038
 20
192.2509495463116025
 30
0.0
  9
$EXTMAX
 10
4583.2310874256645548
 20
194.2189495463115918
 30
0.0
  9
$LIMMIN
 10
0.0
 20
0.0
  9
$LIMMAX
 10
11.6929133858000007
 20
8.2677165353999982
  9
$ORTHOMODE
 70
     0
  9
$REGENMODE
 70
     1
  9
$FILLMODE
 70
     1
  9
$QTEXTMODE
 70
     0
  9
$MIRRTEXT
 70
     0
  9
$DRAGMODE
 70
     2
  9
$LTSCALE
 40
0.6431102362
  9
$OSMODE
 70
  4095
  9
$ATTMODE
 70
     1
  9
$TEXTSIZE
 40
0.2
  9
$TRACEWID
 40
0.05
  9
$TEXTSTYLE
  7
STANDARD
  9
$CLAYER
  8
0
  9
$CELTYPE
  6
BYLAYER
  9
$CECOLOR
 62
   256
  9
$DIMSCALE
 40
1.0
  9
$DIMASZ
 40
0.1875
  9
$DIMEXO
 40
0.0625
  9
$DIMDLI
 40
0.4443307087
  9
$DIMRND
 40
0.0
  9
$DIMDLE
 40
0.0
  9
$DIMEXE
 40
0.125
  9
$DIMTP
 40
0.01
  9
$DIMTM
 40
0.01
  9
$DIMTXT
 40
2.0
  9
$DIMCEN
 40
0.1052362205
  9
$DIMTSZ
 40
0.0
  9
$DIMTOL
 70
     1
  9
$DIMLIM
 70
     0
  9
$DIMTIH
 70
     1
  9
$DIMTOH
 70
     1
  9
$DIMSE1
 70
     0
  9
$DIMSE2
 70
     0
  9
$DIMTAD
 70
     0
  9
$DIMZIN
 70
     0
  9
$DIMBLK
  1

  9
$DIMASO
 70
     1
  9
$DIMSHO
 70
     1
  9
$DIMPOST
  1
\X
  9
$DIMAPOST
  1

  9
$DIMALT
 70
     1
  9
$DIMALTD
 70
     2
  9
$DIMALTF
 40
25.3999999999999986
  9
$DIMLFAC
 40
1.0
  9
$DIMTOFL
 70
     0
  9
$DIMTVP
 40
0.0
  9
$DIMTIX
 70
     0
  9
$DIMSOXD
 70
     0
  9
$DIMSAH
 70
     0
  9
$DIMBLK1
  1

  9
$DIMBLK2
  1

  9
$DIMSTYLE
  2
STANDARD
  9
$DIMCLRD
 70
     0
  9
$DIMCLRE
 70
     0
  9
$DIMCLRT
 70
     0
  9
$DIMTFAC
 40
1.0
  9
$DIMGAP
 40
0.09
  9
$LUNITS
 70
     2
  9
$LUPREC
 70
     4
  9
$SKETCHINC
 40
0.1
  9
$FILLETRAD
 40
0.0
  9
$AUNITS
 70
     0
  9
$AUPREC
 70
     0
  9
$MENU
  1
.
  9
$ELEVATION
 40
0.0
  9
$PELEVATION
 40
0.0
  9
$THICKNESS
 40
0.0
  9
$LIMCHECK
 70
     0
  9
$BLIPMODE
 70
     0
  9
$CHAMFERA
 40
0.0
  9
$CHAMFERB
 40
0.0
  9
$SKPOLY
 70
     0
  9
$TDCREATE
 40
2458060.468368056230247
  9
$TDUPDATE
 40
2460181.5007638889364898
  9
$TDINDWG
 40
0.4756436343
  9
$TDUSRTIMER
 40
0.4756436343
  9
$USRTIMER
 70
     1
  9
$ANGBASE
 50
0.0
  9
$ANGDIR
 70
     0
  9
$PDMODE
 70
     0
  9
$PDSIZE
 40
0.3125
  9
$PLINEWID
 40
0.0
  9
$COORDS
 70
     1
  9
$SPLFRAME
 70
     0
  9
$SPLINETYPE
 70
     6
  9
$SPLINESEGS
 70
     8
  9
$ATTDIA
 70
     1
  9
$ATTREQ
 70
     1
  9
$HANDLING
 70
     1
  9
$HANDSEED
  5
D7E3
  9
$SURFTAB1
 70
     6
  9
$SURFTAB2
 70
     6
  9
$SURFTYPE
 70
     6
  9
$SURFU
 70
     6
  9
$SURFV
 70
     6
  9
$UCSNAME
  2

  9
$UCSORG
 10
0.0
 20
0.0
 30
0.0
  9
$UCSXDIR
 10
1.0
 20
0.0
 30
0.0
  9
$UCSYDIR
 10
0.0
 20
1.0
 30
0.0
  9
$PUCSNAME
  2

  9
$PUCSORG
 10
0.0
 20
0.0
 30
0.0
  9
$PUCSXDIR
 10
1.0
 20
0.0
 30
0.0
  9
$PUCSYDIR
 10
0.0
 20
1.0
 30
0.0
  9
$USERI1
 70
     0
  9
$USERI2
 70
     0
  9
$USERI3
 70
     0
  9
$USERI4
 70
     0
  9
$USERI5
 70
     0
  9
$USERR1
 40
0.0
  9
$USERR2
 40
0.0
  9
$USERR3
 40
0.0
  9
$USERR4
 40
0.0
  9
$USERR5
 40
0.0
  9
$WORLDVIEW
 70
     1
  9
$SHADEDGE
 70
     3
  9
$SHADEDIF
 70
    70
  9
$TILEMODE
 70
     1
  9
$MAXACTVP
 70
    64
  9
$PLIMCHECK
 70
     0
  9
$PEXTMIN
 10
1.0000000000000000E+20
 20
1.0000000000000000E+20
 30
1.0000000000000000E+20
  9
$PEXTMAX
 10
-1.0000000000000000E+20
 20
-1.0000000000000000E+20
 30
-1.0000000000000000E+20
  9
$PLIMMIN
 10
0.0
 20
0.0
  9
$PLIMMAX
 10
12.0
 20
9.0
  9
$UNITMODE
 70
     0
  9
$VISRETAIN
 70
     1
  9
$PLINEGEN
 70
     0
  9
$PSLTSCALE
 70
     1
  0
ENDSEC
  0
SECTION
  2
TABLES
  0
TABLE
  2
VPORT
 70
     1
  0
VPORT
  2
*ACTIVE
 70
     0
 10
0.0
 20
0.0
 11
1.0
 21
1.0
 12
778.4294768116792511
 22
67.23968734956172
 13
0.0
 23
0.0
 14
1.0
 24
1.0
 15
0.0
 25
0.0
 16
0.0
 26
0.0
 36
17.1152628219792007
 17
3803.5440673828129547
 27
125.9952621967499056
 37
0.0
 40
1.983598414795267
 41
2.5251322751322749
 42
50.0
 43
0.0
 44
0.0
 50
0.0
 51
0.0
 71
     0
 72
   100
 73
     1
 74
     1
 75
     0
 76
     0
 77
     0
 78
     0
  0
ENDTAB
  0
TABLE
  2
LTYPE
 70
     2
  0
LTYPE
  2
CONTINUOUS
 70
     0
  3
Solid line
 72
    65
 73
     0
 40
0.0
  0
LTYPE
  2
PHANTOM2
 70
     0
  3
___ _ _ ___ _ _ ___ _ _ ___ _ _
 72
    65
 73
     6
 40
1.25
 49
0.625
 49
-0.125
 49
0.125
 49
-0.125
 49
0.125
 49
-0.125
  0
ENDTAB
  0
TABLE
  2
LAYER
 70
     2
  0
LAYER
  2
0
 70
     0
 62
   255
  6
CONTINUOUS
  0
LAYER
  2
DEFPOINTS
 70
     0
 62
     7
  6
CONTINUOUS
  0
ENDTAB
  0
TABLE
  2
STYLE
 70
     1
  0
STYLE
  2
STANDARD
 70
     0
 40
0.0
 41
0.8
 50
0.0
 71
     0
 42
0.2
  3
txt
  4

  0
ENDTAB
  0
TABLE
  2
VIEW
 70
     0
  0
ENDTAB
  0
TABLE
  2
UCS
 70
     0
  0
ENDTAB
  0
TABLE
  2
APPID
 70
     9
  0
APPID
  2
ACAD
 70
     0
  0
APPID
  2
ACAD_MLEADERVER
 70
     0
  0
APPID
  2
ACAD_EXEMPT_FROM_CAD_STANDARDS
 70
     0
  0
APPID
  2
ACAD_NAV_VCDISPLAY
 70
     0
  0
APPID
  2
ACAECLAYERSTANDARD
 70
     0
  0
APPID
  2
ACCMTRANSPARENCY
 70
     0
  0
APPID
  2
ACAD_DSTYLE_DIMJAG
 70
     0
  0
APPID
  2
ACAD_DSTYLE_DIMTALN
 70
     0
  0
APPID
  2
ACDBATTR
 70
     0
  0
ENDTAB
  0
TABLE
  2
DIMSTYLE
 70
     1
  0
DIMSTYLE
  2
STANDARD
 70
     0
  3

  4

  5

  6

  7

 40
1.0
 41
0.1875
 42
0.0625
 43
0.38
 44
0.125
 45
0.0
 46
0.0
 47
0.01
 48
0.01
140
0.15625
141
0.09
142
0.0
143
25.3999999999999986
144
1.0
145
0.0
146
1.0
147
0.09
 71
     1
 72
     0
 73
     1
 74
     1
 75
     0
 76
     0
 77
     0
 78
     4
170
     0
171
     2
172
     0
173
     0
174
     0
175
     0
176
     0
177
     0
178
     0
  0
ENDTAB
  0
ENDSEC
  0
SECTION
  2
BLOCKS
  0
BLOCK
  8
0
  2
$MODEL_SPACE
 70
     0
 10
0.0
 20
0.0
 30
0.0
  3
$MODEL_SPACE
  1

  0
ENDBLK
  5
21
  8
0
  0
BLOCK
 67
     1
  8
0
  2
$PAPER_SPACE
 70
     0
 10
0.0
 20
0.0
 30
0.0
  3
$PAPER_SPACE
  1

  0
ENDBLK
  5
1D
 67
     1
  8
0
  0
BLOCK
  8
0
  2
_FILLED
 70
     0
 10
0.0
 20
0.0
 30
0.0
  3
_FILLED
  1

  0
SOLID
  5
CEB5
  8
0
  6
BYBLOCK
 62
     0
 10
0.0
 20
0.0
 30
0.0
 11
-1.0
 21
0.1666666667
 31
0.0
 12
-1.0
 22
-0.1666666667
 32
0.0
 13
-1.0
 23
-0.1666666667
 33
0.0
  0
ENDBLK
  5
CEB6
  8
0
  6
BYBLOCK
 62
     0
  0
ENDSEC
  0
SECTION
  2
ENTITIES
  0
ATTDEF
  5
AB47
  8
DEFPOINTS
 10
4583.2204207589966245
 20
193.235771573783893
 30
0.0
 40
0.001
  1
P34139-00
  3

  2
MODELNUMBER
 70
     0
1001
ACDBATTR
1070
     0
1070
     1
  0
ATTDEF
  5
AB48
  8
DEFPOINTS
 10
4583.2204207589966245
 20
193.2341049071171994
 30
0.0
 40
0.001
  1
002
  3

  2
TRADENAME
 70
     0
1001
ACDBATTR
1070
     0
1070
     1
  0
ATTDEF
  5
AB49
  8
DEFPOINTS
 10
4583.2204207589966245
 20
193.2324382404505059
 30
0.0
 40
0.001
  1
HOOK
  3

  2
PRODUCT
 70
     0
1001
ACDBATTR
1070
     0
1070
     1
  0
LINE
  5
D67E
  8
0
 10
4583.0813943191606086
 20
194.2189495463115918
 30
0.0
 11
4583.2191447128607251
 21
194.2189495463115918
 31
0.0
  0
LINE
  5
D67F
  8
0
 10
4583.2191447128607251
 20
194.2189495463115918
 30
0.0
 11
4583.2191447128607251
 21
192.2509495463116025
 31
0.0
  0
LINE
  5
D680
  8
0
 10
4583.0222943191620288
 20
194.159849546311591
 30
0.0
 11
4583.0222943191620288
 21
192.3100495463116033
 31
0.0
  0
LINE
  5
D681
  8
0
 10
4583.0122943191618106
 20
193.7439495463115975
 30
0.0
 11
4581.7322943191620652
 21
193.7439495463115975
 31
0.0
  0
LINE
  5
D682
  8
0
 10
4581.7122943191616287
 20
193.7439495463115975
 30
0.0
 11
4580.7887029046605676
 21
193.7439495463115975
 31
0.0
  0
ARC
  5
D683
  8
0
 10
4583.0122943191618106
 20
193.7339495463116066
 30
0.0
 40
0.01
 50
0.0000000000162844
 51
90.0
  0
ARC
  5
D684
  8
0
 10
4583.0813943191606086
 20
194.159849546311591
 30
0.0
 40
0.0591
 50
90.0
 51
180.0
  0
LINE
  5
D685
  8
0
 10
4581.7222943191618469
 20
193.7339495463116066
 30
0.0
 11
4581.7222943191618469
 21
192.7359495463115877
 31
0.0
  0
ARC
  5
D686
  8
0
 10
4581.7122943191616287
 20
192.7359495463115877
 30
0.0
 40
0.01
 50
270.0
 51
0.0
  0
ARC
  5
D687
  8
0
 10
4581.7122943191616287
 20
193.7339495463116066
 30
0.0
 40
0.01
 50
0.0
 51
90.0
  0
ARC
  5
D688
  8
0
 10
4581.7322943191620652
 20
193.7339495463116066
 30
0.0
 40
0.01
 50
90.0
 51
179.9999999999870113
  0
LINE
  5
D689
  8
0
 10
4583.0813943191606086
 20
192.2509495463116025
 30
0.0
 11
4583.2191447128607251
 21
192.2509495463116025
 31
0.0
  0
LINE
  5
D68A
  8
0
 10
4583.0122943191618106
 20
192.7259495463115968
 30
0.0
 11
4582.5341053865113281
 21
192.7259495463115968
 31
0.0
  0
LINE
  5
D68B
  8
0
 10
4582.3293809770120788
 20
192.7259495463115968
 30
0.0
 11
4581.7322943191620652
 21
192.7259495463115968
 31
0.0
  0
LINE
  5
D68C
  8
0
 10
4581.7122943191616287
 20
192.7259495463115968
 30
0.0
 11
4580.7887029046605676
 21
192.7259495463115968
 31
0.0
  0
ARC
  5
D68D
  8
0
 10
4583.0122943191618106
 20
192.7359495463115877
 30
0.0
 40
0.01
 50
270.0
 51
359.9999999999836859
  0
ARC
  5
D68E
  8
0
 10
4583.0813943191606086
 20
192.3100495463116033
 30
0.0
 40
0.0591
 50
179.9999999999984084
 51
270.0
  0
ARC
  5
D68F
  8
0
 10
4581.7322943191620652
 20
192.7359495463115877
 30
0.0
 40
0.01
 50
180.0000000000129887
 51
270.0
  0
ARC
  5
D690
  8
0
 10
4582.4317431817617035
 20
192.2663244901258963
 30
0.0
 40
0.4708855627804291
 50
77.4446684992417147
 51
102.5553315007582995
  0
LINE
  5
D692
  8
0
 10
4580.7497029046608077
 20
192.7649495463116125
 30
0.0
 11
4580.7497029046608077
 21
193.7049495463116102
 31
0.0
  0
ARC
  5
D693
  8
0
 10
4580.7887029046605676
 20
192.7649495463116125
 30
0.0
 40
0.039
 50
180.0
 51
270.0
  0
ARC
  5
D694
  8
0
 10
4580.7887029046605676
 20
193.7049495463116102
 30
0.0
 40
0.039
 50
90.0
 51
180.0000000000015916
  0
ARC
  5
D695
  8
0
 10
4580.7114205064335692
 20
193.2349710825093894
 30
0.0
 40
0.5108725197456589
 50
279.4262608346675165
 51
80.5737391653324693
  0
ARC
  5
D696
  8
0
 10
4580.7887029046605676
 20
192.7694701632671013
 30
0.0
 40
0.039
 50
180.0
 51
279.4262608346675165
  0
ARC
  5
D697
  8
0
 10
4580.7887029046605676
 20
193.7004720017517059
 30
0.0
 40
0.039
 50
80.5737391653324693
 51
180.0
  0
ARC
  5
D698
  8
0
 10
4583.9622672115010573
 20
193.2339153294009009
 30
0.0
 40
3.2462662481829052
 50
171.7367771246840107
 51
188.2756428630835046
  0
ENDSEC
  0
EOF
