  0
SECTION
  2
HEADER
  9
$ACADVER
  1
AC1009
  9
$INSBASE
 10
322.4212298828643952
 20
3.929762674464329
 30
0.0
  9
$EXTMIN
 10
319.3286546774476733
 20
2.748041851224218
 30
-0.0000000000112498
  9
$EXTMAX
 10
322.452911967258899
 20
5.110931412038723
 30
0.0000000000002956
  9
$LIMMIN
 10
0.0
 20
0.0
  9
$LIMMAX
 10
11.6929133858000007
 20
8.2677165353999982
  9
$ORTHOMODE
 70
     0
  9
$REGENMODE
 70
     1
  9
$FILLMODE
 70
     1
  9
$QTEXTMODE
 70
     0
  9
$MIRRTEXT
 70
     0
  9
$DRAGMODE
 70
     2
  9
$LTSCALE
 40
0.6431102362
  9
$OSMODE
 70
  4095
  9
$ATTMODE
 70
     1
  9
$TEXTSIZE
 40
0.2
  9
$TRACEWID
 40
0.05
  9
$TEXTSTYLE
  7
STANDARD
  9
$CLAYER
  8
0
  9
$CELTYPE
  6
BYLAYER
  9
$CECOLOR
 62
   256
  9
$DIMSCALE
 40
1.0
  9
$DIMASZ
 40
0.1875
  9
$DIMEXO
 40
0.0625
  9
$DIMDLI
 40
0.4443307087
  9
$DIMRND
 40
0.0
  9
$DIMDLE
 40
0.0
  9
$DIMEXE
 40
0.125
  9
$DIMTP
 40
0.01
  9
$DIMTM
 40
0.01
  9
$DIMTXT
 40
0.15625
  9
$DIMCEN
 40
0.1052362205
  9
$DIMTSZ
 40
0.0
  9
$DIMTOL
 70
     1
  9
$DIMLIM
 70
     0
  9
$DIMTIH
 70
     1
  9
$DIMTOH
 70
     1
  9
$DIMSE1
 70
     0
  9
$DIMSE2
 70
     0
  9
$DIMTAD
 70
     0
  9
$DIMZIN
 70
     0
  9
$DIMBLK
  1

  9
$DIMASO
 70
     1
  9
$DIMSHO
 70
     1
  9
$DIMPOST
  1
\X
  9
$DIMAPOST
  1

  9
$DIMALT
 70
     1
  9
$DIMALTD
 70
     2
  9
$DIMALTF
 40
25.3999999999999986
  9
$DIMLFAC
 40
1.0
  9
$DIMTOFL
 70
     0
  9
$DIMTVP
 40
0.0
  9
$DIMTIX
 70
     0
  9
$DIMSOXD
 70
     0
  9
$DIMSAH
 70
     0
  9
$DIMBLK1
  1

  9
$DIMBLK2
  1

  9
$DIMSTYLE
  2
STANDARD
  9
$DIMCLRD
 70
     0
  9
$DIMCLRE
 70
     0
  9
$DIMCLRT
 70
     0
  9
$DIMTFAC
 40
1.0
  9
$DIMGAP
 40
0.09
  9
$LUNITS
 70
     2
  9
$LUPREC
 70
     4
  9
$SKETCHINC
 40
0.1
  9
$FILLETRAD
 40
0.0118
  9
$AUNITS
 70
     0
  9
$AUPREC
 70
     0
  9
$MENU
  1
.
  9
$ELEVATION
 40
0.0
  9
$PELEVATION
 40
0.0
  9
$THICKNESS
 40
0.0
  9
$LIMCHECK
 70
     0
  9
$BLIPMODE
 70
     0
  9
$CHAMFERA
 40
0.0
  9
$CHAMFERB
 40
0.0
  9
$SKPOLY
 70
     0
  9
$TDCREATE
 40
2458018.639108797069639
  9
$TDUPDATE
 40
2460203.6982523151673377
  9
$TDINDWG
 40
0.3947680556
  9
$TDUSRTIMER
 40
0.3947680556
  9
$USRTIMER
 70
     1
  9
$ANGBASE
 50
0.0
  9
$ANGDIR
 70
     0
  9
$PDMODE
 70
     0
  9
$PDSIZE
 40
0.3125
  9
$PLINEWID
 40
0.0
  9
$COORDS
 70
     1
  9
$SPLFRAME
 70
     0
  9
$SPLINETYPE
 70
     6
  9
$SPLINESEGS
 70
     8
  9
$ATTDIA
 70
     1
  9
$ATTREQ
 70
     1
  9
$HANDLING
 70
     1
  9
$HANDSEED
  5
B7CB
  9
$SURFTAB1
 70
     6
  9
$SURFTAB2
 70
     6
  9
$SURFTYPE
 70
     6
  9
$SURFU
 70
     6
  9
$SURFV
 70
     6
  9
$UCSNAME
  2

  9
$UCSORG
 10
0.0
 20
0.0
 30
0.0
  9
$UCSXDIR
 10
1.0
 20
0.0
 30
0.0
  9
$UCSYDIR
 10
0.0
 20
1.0
 30
0.0
  9
$PUCSNAME
  2

  9
$PUCSORG
 10
0.0
 20
0.0
 30
0.0
  9
$PUCSXDIR
 10
1.0
 20
0.0
 30
0.0
  9
$PUCSYDIR
 10
0.0
 20
1.0
 30
0.0
  9
$USERI1
 70
     0
  9
$USERI2
 70
     0
  9
$USERI3
 70
     0
  9
$USERI4
 70
     0
  9
$USERI5
 70
     0
  9
$USERR1
 40
0.0
  9
$USERR2
 40
0.0
  9
$USERR3
 40
0.0
  9
$USERR4
 40
0.0
  9
$USERR5
 40
0.0
  9
$WORLDVIEW
 70
     1
  9
$SHADEDGE
 70
     3
  9
$SHADEDIF
 70
    70
  9
$TILEMODE
 70
     1
  9
$MAXACTVP
 70
    64
  9
$PLIMCHECK
 70
     0
  9
$PEXTMIN
 10
1.0000000000000000E+20
 20
1.0000000000000000E+20
 30
1.0000000000000000E+20
  9
$PEXTMAX
 10
-1.0000000000000000E+20
 20
-1.0000000000000000E+20
 30
-1.0000000000000000E+20
  9
$PLIMMIN
 10
0.0
 20
0.0
  9
$PLIMMAX
 10
12.0
 20
9.0
  9
$UNITMODE
 70
     0
  9
$VISRETAIN
 70
     1
  9
$PLINEGEN
 70
     0
  9
$PSLTSCALE
 70
     1
  0
ENDSEC
  0
SECTION
  2
TABLES
  0
TABLE
  2
VPORT
 70
     1
  0
VPORT
  2
*ACTIVE
 70
     0
 10
0.0
 20
0.0
 11
1.0
 21
1.0
 12
225.5665223246155051
 22
-3.1068453795913671
 13
0.0
 23
0.0
 14
1.0
 24
1.0
 15
0.0
 25
0.0
 16
-0.0000000000000142
 26
0.0
 36
39.3282560748450578
 17
95.3242609977377526
 27
7.0363320112228394
 37
0.0
 40
2.3841131197439771
 41
2.841079460269865
 42
50.0
 43
0.0
 44
0.0
 50
0.0
 51
0.0
 71
     0
 72
   100
 73
     1
 74
     1
 75
     0
 76
     0
 77
     0
 78
     0
  0
ENDTAB
  0
TABLE
  2
LTYPE
 70
     2
  0
LTYPE
  2
CONTINUOUS
 70
     0
  3
Solid line
 72
    65
 73
     0
 40
0.0
  0
LTYPE
  2
PHANTOM2
 70
     0
  3
___ _ _ ___ _ _ ___ _ _ ___ _ _
 72
    65
 73
     6
 40
1.25
 49
0.625
 49
-0.125
 49
0.125
 49
-0.125
 49
0.125
 49
-0.125
  0
ENDTAB
  0
TABLE
  2
LAYER
 70
     2
  0
LAYER
  2
0
 70
     0
 62
   255
  6
CONTINUOUS
  0
LAYER
  2
DEFPOINTS
 70
     0
 62
     7
  6
CONTINUOUS
  0
ENDTAB
  0
TABLE
  2
STYLE
 70
     1
  0
STYLE
  2
STANDARD
 70
     0
 40
0.0
 41
0.8
 50
0.0
 71
     0
 42
0.2
  3
txt
  4

  0
ENDTAB
  0
TABLE
  2
VIEW
 70
     0
  0
ENDTAB
  0
TABLE
  2
UCS
 70
     0
  0
ENDTAB
  0
TABLE
  2
APPID
 70
    10
  0
APPID
  2
ACAD
 70
     0
  0
APPID
  2
ACAD_MLEADERVER
 70
     0
  0
APPID
  2
ACAD_DSTYLE_DIMJAG
 70
     0
  0
APPID
  2
ACAD_DSTYLE_DIMTALN
 70
     0
  0
APPID
  2
ACAD_NAV_VCDISPLAY
 70
     0
  0
APPID
  2
ACAD_EXEMPT_FROM_CAD_STANDARDS
 70
     0
  0
APPID
  2
ACAECLAYERSTANDARD
 70
     0
  0
APPID
  2
ACCMTRANSPARENCY
 70
     0
  0
APPID
  2
DCO15
 70
     0
  0
APPID
  2
ACDBATTR
 70
     0
  0
ENDTAB
  0
TABLE
  2
DIMSTYLE
 70
     1
  0
DIMSTYLE
  2
STANDARD
 70
     0
  3

  4

  5

  6

  7

 40
1.0
 41
0.1875
 42
0.0625
 43
0.38
 44
0.125
 45
0.0
 46
0.0
 47
0.01
 48
0.01
140
0.15625
141
0.09
142
0.0
143
25.3999999999999986
144
1.0
145
0.0
146
1.0
147
0.09
 71
     1
 72
     0
 73
     1
 74
     1
 75
     0
 76
     0
 77
     0
 78
     4
170
     0
171
     2
172
     0
173
     0
174
     0
175
     0
176
     0
177
     0
178
     0
  0
ENDTAB
  0
ENDSEC
  0
SECTION
  2
BLOCKS
  0
BLOCK
  8
0
  2
$MODEL_SPACE
 70
     0
 10
0.0
 20
0.0
 30
0.0
  3
$MODEL_SPACE
  1

  0
ENDBLK
  5
21
  8
0
  0
BLOCK
 67
     1
  8
0
  2
$PAPER_SPACE
 70
     0
 10
0.0
 20
0.0
 30
0.0
  3
$PAPER_SPACE
  1

  0
ENDBLK
  5
1D
 67
     1
  8
0
  0
BLOCK
  8
0
  2
_FILLED
 70
     0
 10
0.0
 20
0.0
 30
0.0
  3
_FILLED
  1

  0
SOLID
  5
9EE8
  8
0
  6
BYBLOCK
 62
     0
 10
0.0
 20
0.0
 30
0.0
 11
-1.0
 21
0.1666666667
 31
0.0
 12
-1.0
 22
-0.1666666667
 32
0.0
 13
-1.0
 23
-0.1666666667
 33
0.0
  0
ENDBLK
  5
9EE9
  8
0
  6
BYBLOCK
 62
     0
  0
ENDSEC
  0
SECTION
  2
ENTITIES
  0
ATTDEF
  5
7A6E
  8
DEFPOINTS
 10
322.4219909037853995
 20
3.928366542652042
 30
0.0
 40
0.001
  1
P34128-LV
  3

  2
MODELNUMBER
 70
     0
1001
ACDBATTR
1070
     0
1070
     1
  0
ATTDEF
  5
7A6F
  8
DEFPOINTS
 10
322.4219909037853995
 20
3.9266998759853768
 30
0.0
 40
0.001
  1
002
  3

  2
TRADENAME
 70
     0
1001
ACDBATTR
1070
     0
1070
     1
  0
ATTDEF
  5
7A70
  8
DEFPOINTS
 10
322.4219909037853995
 20
3.9250332093187121
 30
0.0
 40
0.001
  1
BATH FAUCET HANDLES
  3

  2
PRODUCT
 70
     0
1001
ACDBATTR
1070
     0
1070
     1
  0
LINE
  5
B0C4
  8
0
 10
322.4212298828643952
 20
5.110865036664328
 30
0.0
 11
322.4212298828643952
 21
2.7486603122643292
 31
0.0
  0
LINE
  5
B0C5
  8
0
 10
322.1456393316644267
 20
5.071465036664331
 30
0.0
 11
322.1456393316644267
 21
2.7880603122643248
 31
0.0
  0
LINE
  5
B0C6
  8
0
 10
322.1850393316644272
 20
5.110865036664328
 30
0.0
 11
322.4212298828643952
 21
5.110865036664328
 31
0.0
  0
LINE
  5
B0C7
  8
0
 10
320.594647205664387
 20
4.5596839342643287
 30
0.0
 11
322.133839331664376
 21
4.5596839342643287
 31
0.0
  0
LINE
  5
B0C8
  8
0
 10
320.5506952765643973
 20
4.5596839342643287
 30
0.0
 11
319.4226189483500775
 21
4.5596839342643287
 31
0.0
  0
LINE
  5
B0C9
  8
0
 10
320.5826472056643865
 20
4.5476839342643292
 30
0.0
 11
320.5826472056643865
 21
3.3118414146643311
 31
0.0
  0
LINE
  5
B0CA
  8
0
 10
320.5626952765643978
 20
4.5476839342643292
 30
0.0
 11
320.5626952765643978
 21
3.3118414146643311
 31
0.0
  0
LINE
  5
B0CB
  8
0
 10
320.5626952765643978
 20
4.3825185799643283
 30
0.0
 11
320.5826472056643865
 21
4.3825185799643283
 31
0.0
  0
ARC
  5
B0CC
  8
0
 10
322.1850393316644272
 20
5.071465036664331
 30
0.0
 40
0.0394
 50
89.9999999999902229
 51
180.000000000005798
  0
ARC
  5
B0CD
  8
0
 10
320.594647205664387
 20
4.5476839342643274
 30
0.0
 40
0.012
 50
90.0000000000162856
 51
179.9999999999872102
  0
ARC
  5
B0CE
  8
0
 10
320.5506952765643973
 20
4.5476839342643274
 30
0.0
 40
0.012
 50
0.0000000000127222
 51
89.9999999999674287
  0
ARC
  5
B0CF
  8
0
 10
326.7099524457087796
 20
3.7980634857967281
 30
0.0
 40
7.3692887055274268
 50
174.3992901556763968
 51
178.9759921607954141
  0
ARC
  5
B0D0
  8
0
 10
319.4226189483500775
 20
4.512683934264329
 30
0.0
 40
0.047
 50
90.0
 51
174.3992901556752031
  0
LINE
  5
B0D1
  8
0
 10
319.3758433173758817
 20
4.5172709100623152
 30
0.0
 11
319.3758433173758817
 21
3.342254438866342
 31
0.0
  0
LINE
  5
B0D2
  8
0
 10
322.1850393316644272
 20
2.7486603122643292
 30
0.0
 11
322.4212298828643952
 21
2.7486603122643292
 31
0.0
  0
LINE
  5
B0D3
  8
0
 10
320.594647205664387
 20
3.299841414664328
 30
0.0
 11
322.133839331664376
 21
3.299841414664328
 31
0.0
  0
LINE
  5
B0D4
  8
0
 10
320.5506952765643973
 20
3.299841414664328
 30
0.0
 11
319.4226189483500775
 21
3.299841414664328
 31
0.0
  0
LINE
  5
B0D5
  8
0
 10
320.5626952765643978
 20
3.4770067689643289
 30
0.0
 11
320.5826472056643865
 21
3.4770067689643289
 31
0.0
  0
ARC
  5
B0D6
  8
0
 10
322.1850393316644272
 20
2.7880603122643248
 30
0.0
 40
0.0394
 50
179.999999999994202
 51
270.0000000000097771
  0
ARC
  5
B0D7
  8
0
 10
320.594647205664387
 20
3.3118414146643311
 30
0.0
 40
0.012
 50
180.0000000000127045
 51
269.9999999999837996
  0
ARC
  5
B0D8
  8
0
 10
320.5506952765643973
 20
3.3118414146643311
 30
0.0
 40
0.012
 50
270.0000000000326281
 51
359.9999999999873239
  0
ARC
  5
B0D9
  8
0
 10
326.7099524457087796
 20
4.061461863131929
 30
0.0
 40
7.3692887055274268
 50
181.0240078392045859
 51
185.6007098443234895
  0
ARC
  5
B0DA
  8
0
 10
319.4226189483500775
 20
3.3468414146643291
 30
0.0
 40
0.047
 50
185.6007098443247116
 51
270.0
  0
ARC
  5
B0DB
  8
0
 10
319.3212248734179752
 20
3.9262677046880512
 30
0.0
 40
0.6414802244200163
 50
0.3121655209008035
 51
80.905535677734477
  0
ARC
  5
B0DC
  8
0
 10
319.3212248734179752
 20
3.933257644240606
 30
0.0
 40
0.6414802244200163
 50
279.0944643222654804
 51
359.6878344790991946
  0
ARC
  5
B436
  8
0
 10
322.133839331664376
 20
4.5714839342643288
 30
0.0
 40
0.0118
 50
270.0
 51
0.0
  0
ARC
  5
B437
  8
0
 10
322.133839331664376
 20
3.288041414664328
 30
0.0
 40
0.0118
 50
0.0000000000014249
 51
90.0
  0
ENDSEC
  0
EOF
