  0
SECTION
  2
HEADER
  9
$ACADVER
  1
AC1009
  9
$INSBASE
 10
319.1401378704546801
 20
8.2799945374775028
 30
0.0
  9
$EXTMIN
 10
312.0926334447891008
 20
5.2005886333951166
 30
-0.0000000349181948
  9
$EXTMAX
 10
326.1773136560672128
 20
8.2851907479216962
 30
0.0000000814935746
  9
$LIMMIN
 10
0.0
 20
0.0
  9
$LIMMAX
 10
11.6929133858000007
 20
8.2677165353999982
  9
$ORTHOMODE
 70
     0
  9
$REGENMODE
 70
     1
  9
$FILLMODE
 70
     1
  9
$QTEXTMODE
 70
     0
  9
$MIRRTEXT
 70
     0
  9
$DRAGMODE
 70
     2
  9
$LTSCALE
 40
0.6431102362
  9
$OSMODE
 70
  4095
  9
$ATTMODE
 70
     1
  9
$TEXTSIZE
 40
0.2
  9
$TRACEWID
 40
0.05
  9
$TEXTSTYLE
  7
STANDARD
  9
$CLAYER
  8
0
  9
$CELTYPE
  6
BYLAYER
  9
$CECOLOR
 62
   256
  9
$DIMSCALE
 40
1.0
  9
$DIMASZ
 40
0.1875
  9
$DIMEXO
 40
0.0625
  9
$DIMDLI
 40
0.4443307087
  9
$DIMRND
 40
0.0
  9
$DIMDLE
 40
0.0
  9
$DIMEXE
 40
0.125
  9
$DIMTP
 40
0.01
  9
$DIMTM
 40
0.01
  9
$DIMTXT
 40
0.15625
  9
$DIMCEN
 40
0.1052362205
  9
$DIMTSZ
 40
0.0
  9
$DIMTOL
 70
     1
  9
$DIMLIM
 70
     0
  9
$DIMTIH
 70
     1
  9
$DIMTOH
 70
     1
  9
$DIMSE1
 70
     0
  9
$DIMSE2
 70
     0
  9
$DIMTAD
 70
     0
  9
$DIMZIN
 70
     0
  9
$DIMBLK
  1

  9
$DIMASO
 70
     1
  9
$DIMSHO
 70
     1
  9
$DIMPOST
  1
\X
  9
$DIMAPOST
  1

  9
$DIMALT
 70
     1
  9
$DIMALTD
 70
     2
  9
$DIMALTF
 40
25.3999999999999986
  9
$DIMLFAC
 40
1.0
  9
$DIMTOFL
 70
     0
  9
$DIMTVP
 40
0.0
  9
$DIMTIX
 70
     0
  9
$DIMSOXD
 70
     0
  9
$DIMSAH
 70
     0
  9
$DIMBLK1
  1

  9
$DIMBLK2
  1

  9
$DIMSTYLE
  2
STANDARD
  9
$DIMCLRD
 70
     0
  9
$DIMCLRE
 70
     0
  9
$DIMCLRT
 70
     0
  9
$DIMTFAC
 40
1.0
  9
$DIMGAP
 40
0.09
  9
$LUNITS
 70
     2
  9
$LUPREC
 70
     4
  9
$SKETCHINC
 40
0.1
  9
$FILLETRAD
 40
0.0118
  9
$AUNITS
 70
     0
  9
$AUPREC
 70
     0
  9
$MENU
  1
.
  9
$ELEVATION
 40
0.0
  9
$PELEVATION
 40
0.0
  9
$THICKNESS
 40
0.0
  9
$LIMCHECK
 70
     0
  9
$BLIPMODE
 70
     0
  9
$CHAMFERA
 40
0.0
  9
$CHAMFERB
 40
0.0
  9
$SKPOLY
 70
     0
  9
$TDCREATE
 40
2458018.639108797069639
  9
$TDUPDATE
 40
2460203.6980902780778706
  9
$TDINDWG
 40
0.3936106481
  9
$TDUSRTIMER
 40
0.3936106481
  9
$USRTIMER
 70
     1
  9
$ANGBASE
 50
0.0
  9
$ANGDIR
 70
     0
  9
$PDMODE
 70
     0
  9
$PDSIZE
 40
0.3125
  9
$PLINEWID
 40
0.0
  9
$COORDS
 70
     1
  9
$SPLFRAME
 70
     0
  9
$SPLINETYPE
 70
     6
  9
$SPLINESEGS
 70
     8
  9
$ATTDIA
 70
     1
  9
$ATTREQ
 70
     1
  9
$HANDLING
 70
     1
  9
$HANDSEED
  5
B89D
  9
$SURFTAB1
 70
     6
  9
$SURFTAB2
 70
     6
  9
$SURFTYPE
 70
     6
  9
$SURFU
 70
     6
  9
$SURFV
 70
     6
  9
$UCSNAME
  2

  9
$UCSORG
 10
0.0
 20
0.0
 30
0.0
  9
$UCSXDIR
 10
1.0
 20
0.0
 30
0.0
  9
$UCSYDIR
 10
0.0
 20
1.0
 30
0.0
  9
$PUCSNAME
  2

  9
$PUCSORG
 10
0.0
 20
0.0
 30
0.0
  9
$PUCSXDIR
 10
1.0
 20
0.0
 30
0.0
  9
$PUCSYDIR
 10
0.0
 20
1.0
 30
0.0
  9
$USERI1
 70
     0
  9
$USERI2
 70
     0
  9
$USERI3
 70
     0
  9
$USERI4
 70
     0
  9
$USERI5
 70
     0
  9
$USERR1
 40
0.0
  9
$USERR2
 40
0.0
  9
$USERR3
 40
0.0
  9
$USERR4
 40
0.0
  9
$USERR5
 40
0.0
  9
$WORLDVIEW
 70
     1
  9
$SHADEDGE
 70
     3
  9
$SHADEDIF
 70
    70
  9
$TILEMODE
 70
     1
  9
$MAXACTVP
 70
    64
  9
$PLIMCHECK
 70
     0
  9
$PEXTMIN
 10
1.0000000000000000E+20
 20
1.0000000000000000E+20
 30
1.0000000000000000E+20
  9
$PEXTMAX
 10
-1.0000000000000000E+20
 20
-1.0000000000000000E+20
 30
-1.0000000000000000E+20
  9
$PLIMMIN
 10
0.0
 20
0.0
  9
$PLIMMAX
 10
12.0
 20
9.0
  9
$UNITMODE
 70
     0
  9
$VISRETAIN
 70
     1
  9
$PLINEGEN
 70
     0
  9
$PSLTSCALE
 70
     1
  0
ENDSEC
  0
SECTION
  2
TABLES
  0
TABLE
  2
VPORT
 70
     1
  0
VPORT
  2
*ACTIVE
 70
     0
 10
0.0
 20
0.0
 11
1.0
 21
1.0
 12
223.8107125526904042
 22
-0.2934423205644325
 13
0.0
 23
0.0
 14
1.0
 24
1.0
 15
0.0
 25
0.0
 16
-0.0000000000000142
 26
0.0
 36
39.3282560748450578
 17
95.3242609977377526
 27
7.0363320112228394
 37
0.0
 40
4.9731832365080777
 41
2.841079460269865
 42
50.0
 43
0.0
 44
0.0
 50
0.0
 51
0.0
 71
     0
 72
   100
 73
     1
 74
     1
 75
     0
 76
     0
 77
     0
 78
     0
  0
ENDTAB
  0
TABLE
  2
LTYPE
 70
     2
  0
LTYPE
  2
CONTINUOUS
 70
     0
  3
Solid line
 72
    65
 73
     0
 40
0.0
  0
LTYPE
  2
PHANTOM2
 70
     0
  3
___ _ _ ___ _ _ ___ _ _ ___ _ _
 72
    65
 73
     6
 40
1.25
 49
0.625
 49
-0.125
 49
0.125
 49
-0.125
 49
0.125
 49
-0.125
  0
ENDTAB
  0
TABLE
  2
LAYER
 70
     2
  0
LAYER
  2
0
 70
     0
 62
   255
  6
CONTINUOUS
  0
LAYER
  2
DEFPOINTS
 70
     0
 62
     7
  6
CONTINUOUS
  0
ENDTAB
  0
TABLE
  2
STYLE
 70
     1
  0
STYLE
  2
STANDARD
 70
     0
 40
0.0
 41
0.8
 50
0.0
 71
     0
 42
0.2
  3
txt
  4

  0
ENDTAB
  0
TABLE
  2
VIEW
 70
     0
  0
ENDTAB
  0
TABLE
  2
UCS
 70
     0
  0
ENDTAB
  0
TABLE
  2
APPID
 70
    10
  0
APPID
  2
ACAD
 70
     0
  0
APPID
  2
ACAD_MLEADERVER
 70
     0
  0
APPID
  2
ACAD_DSTYLE_DIMJAG
 70
     0
  0
APPID
  2
ACAD_DSTYLE_DIMTALN
 70
     0
  0
APPID
  2
ACAD_NAV_VCDISPLAY
 70
     0
  0
APPID
  2
ACAD_EXEMPT_FROM_CAD_STANDARDS
 70
     0
  0
APPID
  2
ACAECLAYERSTANDARD
 70
     0
  0
APPID
  2
ACCMTRANSPARENCY
 70
     0
  0
APPID
  2
DCO15
 70
     0
  0
APPID
  2
ACDBATTR
 70
     0
  0
ENDTAB
  0
TABLE
  2
DIMSTYLE
 70
     1
  0
DIMSTYLE
  2
STANDARD
 70
     0
  3

  4

  5

  6

  7

 40
1.0
 41
0.1875
 42
0.0625
 43
0.38
 44
0.125
 45
0.0
 46
0.0
 47
0.01
 48
0.01
140
0.15625
141
0.09
142
0.0
143
25.3999999999999986
144
1.0
145
0.0
146
1.0
147
0.09
 71
     1
 72
     0
 73
     1
 74
     1
 75
     0
 76
     0
 77
     0
 78
     4
170
     0
171
     2
172
     0
173
     0
174
     0
175
     0
176
     0
177
     0
178
     0
  0
ENDTAB
  0
ENDSEC
  0
SECTION
  2
BLOCKS
  0
BLOCK
  8
0
  2
$MODEL_SPACE
 70
     0
 10
0.0
 20
0.0
 30
0.0
  3
$MODEL_SPACE
  1

  0
ENDBLK
  5
21
  8
0
  0
BLOCK
 67
     1
  8
0
  2
$PAPER_SPACE
 70
     0
 10
0.0
 20
0.0
 30
0.0
  3
$PAPER_SPACE
  1

  0
ENDBLK
  5
1D
 67
     1
  8
0
  0
BLOCK
  8
0
  2
_FILLED
 70
     0
 10
0.0
 20
0.0
 30
0.0
  3
_FILLED
  1

  0
SOLID
  5
A1C3
  8
0
  6
BYBLOCK
 62
     0
 10
0.0
 20
0.0
 30
0.0
 11
-1.0
 21
0.1666666667
 31
0.0
 12
-1.0
 22
-0.1666666667
 32
0.0
 13
-1.0
 23
-0.1666666667
 33
0.0
  0
ENDBLK
  5
A1C4
  8
0
  6
BYBLOCK
 62
     0
  0
ENDSEC
  0
SECTION
  2
ENTITIES
  0
ATTDEF
  5
7A6E
  8
DEFPOINTS
 10
319.129401536989576
 20
8.2836406678439403
 30
0.0
 40
0.001
  1
P34128-LV
  3

  2
MODELNUMBER
 70
     0
1001
ACDBATTR
1070
     0
1070
     1
  0
ATTDEF
  5
7A6F
  8
DEFPOINTS
 10
319.129401536989576
 20
8.2819740011772751
 30
0.0
 40
0.001
  1
002
  3

  2
TRADENAME
 70
     0
1001
ACDBATTR
1070
     0
1070
     1
  0
ATTDEF
  5
7A70
  8
DEFPOINTS
 10
319.129401536989576
 20
8.2803073345106082
 30
0.0
 40
0.001
  1
BATH FAUCET HANDLES
  3

  2
PRODUCT
 70
     0
1001
ACDBATTR
1070
     0
1070
     1
  0
LINE
  5
B133
  8
0
 10
321.9590355082547148
 20
8.0438039862775028
 30
0.0
 11
321.9590355082547148
 21
8.2799945374775028
 31
0.0
  0
LINE
  5
B134
  8
0
 10
322.5102166106545951
 20
5.2821675500739476
 30
0.0
 11
322.5102166106545951
 21
6.4094599311775031
 31
0.0
  0
LINE
  5
B135
  8
0
 10
322.5102166106545951
 20
6.4534118602775008
 30
0.0
 11
322.5102166106545951
 21
7.9926039862775022
 31
0.0
  0
LINE
  5
B136
  8
0
 10
321.9590355082547148
 20
8.2799945374775028
 30
0.0
 11
324.3212402326547021
 21
8.2799945374775028
 31
0.0
  0
LINE
  5
B137
  8
0
 10
323.1401063109638017
 20
5.2006053103775036
 30
0.0
 11
325.5401694301199882
 21
5.2006053103775036
 31
0.0
  0
LINE
  5
B138
  8
0
 10
321.9984355082547154
 20
8.0044039862775023
 30
0.0
 11
324.2818402326547016
 21
8.0044039862775023
 31
0.0
  0
ARC
  5
B139
  8
0
 10
321.9984355082547154
 20
8.0438039862775028
 30
0.0
 40
0.0394
 50
180.0000000000013074
 51
270.0
  0
LINE
  5
B13A
  8
0
 10
322.5222166106547093
 20
6.4414118602775021
 30
0.0
 11
323.758059130254594
 21
6.4414118602775021
 31
0.0
  0
LINE
  5
B13B
  8
0
 10
322.5222166106547093
 20
6.4214599311775018
 30
0.0
 11
323.758059130254594
 21
6.4214599311775018
 31
0.0
  0
LINE
  5
B13C
  8
0
 10
322.6873819649546817
 20
6.4414118602775021
 30
0.0
 11
322.6873819649546817
 21
6.4214599311775018
 31
0.0
  0
ARC
  5
B13D
  8
0
 10
322.5222166106547093
 20
6.4534118602775017
 30
0.0
 40
0.012
 50
180.0000000000042064
 51
269.9999999999902229
  0
ARC
  5
B13E
  8
0
 10
322.5222166106547093
 20
6.4094599311775031
 30
0.0
 40
0.012
 50
90.0
 51
180.0
  0
ARC
  5
B13F
  8
0
 10
323.1401378704546801
 20
10.1806152302774304
 30
0.0
 40
4.9800099199999268
 50
263.2248492809972049
 51
269.9996369032072039
  0
ARC
  5
B140
  8
0
 10
322.557235670016496
 20
5.2821747913450157
 30
0.0
 40
0.047019059919446
 50
180.0088239593233084
 51
264.3782308962724983
  0
ARC
  5
B142
  8
0
 10
325.5451283280684152
 20
10.0106417843879107
 30
0.0
 40
4.8100390301929279
 50
269.9409310460827101
 51
276.8942130113136955
  0
ARC
  5
B143
  8
0
 10
325.5401278859754939
 20
5.1893570972499869
 30
0.0
 40
0.6321028351085597
 50
9.0649414560691888
 51
89.9963522440233845
  0
ARC
  5
B144
  8
0
 10
326.1190223770054786
 20
5.2810957740070918
 30
0.0
 40
0.0458466559491937
 50
274.361415758004398
 51
1.339548965571886
  0
ARC
  5
B145
  8
0
 10
326.0751559092810226
 20
5.2786909468819809
 30
0.0
 40
0.0897679418573943
 50
2.2195509454145439
 51
6.5606247902630317
  0
LINE
  5
B146
  8
0
 10
324.3212402326547021
 20
8.0438039862775028
 30
0.0
 11
324.3212402326547021
 21
8.2799945374775028
 31
0.0
  0
LINE
  5
B147
  8
0
 10
323.7700591302547082
 20
6.1994599311775032
 30
0.0
 11
323.7700591302547082
 21
6.4094599311775031
 31
0.0
  0
LINE
  5
B148
  8
0
 10
323.7700591302547082
 20
6.4534118602775008
 30
0.0
 11
323.7700591302547082
 21
7.9926039862775022
 31
0.0
  0
ARC
  5
B149
  8
0
 10
324.2818402326547016
 20
8.0438039862775028
 30
0.0
 40
0.0394
 50
270.0
 51
359.9999999999988063
  0
LINE
  5
B14A
  8
0
 10
323.5928937759546784
 20
6.4414118602775021
 30
0.0
 11
323.5928937759546784
 21
6.4214599311775018
 31
0.0
  0
ARC
  5
B14B
  8
0
 10
323.758059130254594
 20
6.4534118602775017
 30
0.0
 40
0.012
 50
270.0000000000097771
 51
359.9999999999957936
  0
ARC
  5
B14C
  8
0
 10
323.758059130254594
 20
6.4094599311775031
 30
0.0
 40
0.012
 50
0.0
 51
90.0
  0
LINE
  5
B14D
  8
0
 10
325.5401681290250053
 20
5.821459931177503
 30
0.0
 11
324.1480591302546941
 21
5.821459931177503
 31
0.0
  0
ARC
  5
B14E
  8
0
 10
324.1480591302546941
 20
6.1994599311775049
 30
0.0
 40
0.378
 50
180.0000000000003979
 51
270.0
  0
LINE
  5
B150
  8
0
 10
322.5102166106545951
 20
5.2821675500855099
 30
0.0
 11
326.1648565035681031
 21
5.2821675500855108
 31
0.0
  0
LINE
  5
B152
  8
0
 10
316.3212402326547021
 20
8.0438039862775028
 30
0.0
 11
316.3212402326547021
 21
8.2799945374775028
 31
0.0
  0
LINE
  5
B153
  8
0
 10
315.7700591302547082
 20
5.2821675500739476
 30
0.0
 11
315.7700591302547082
 21
6.4094599311775031
 31
0.0
  0
LINE
  5
B154
  8
0
 10
315.7700591302547082
 20
6.4534118602775008
 30
0.0
 11
315.7700591302547082
 21
7.9926039862775022
 31
0.0
  0
LINE
  5
B155
  8
0
 10
316.3212402326547021
 20
8.2799945374775028
 30
0.0
 11
313.9590355082547148
 21
8.2799945374775028
 31
0.0
  0
LINE
  5
B156
  8
0
 10
315.1401694299456153
 20
5.2006053103775036
 30
0.0
 11
312.7401063107893719
 21
5.2006053103775036
 31
0.0
  0
LINE
  5
B157
  8
0
 10
316.2818402326547016
 20
8.0044039862775023
 30
0.0
 11
313.9984355082547154
 21
8.0044039862775023
 31
0.0
  0
ARC
  5
B158
  8
0
 10
316.2818402326547016
 20
8.0438039862775028
 30
0.0
 40
0.0394
 50
270.0
 51
359.9999999999988063
  0
LINE
  5
B159
  8
0
 10
315.7580591302547077
 20
6.4414118602775021
 30
0.0
 11
314.5222166106547093
 21
6.4414118602775021
 31
0.0
  0
LINE
  5
B15A
  8
0
 10
315.7580591302547077
 20
6.4214599311775018
 30
0.0
 11
314.5222166106547093
 21
6.4214599311775018
 31
0.0
  0
LINE
  5
B15B
  8
0
 10
315.5928937759546784
 20
6.4414118602775021
 30
0.0
 11
315.5928937759546784
 21
6.4214599311775018
 31
0.0
  0
ARC
  5
B15C
  8
0
 10
315.7580591302547077
 20
6.4534118602775017
 30
0.0
 40
0.012
 50
270.0000000000097771
 51
359.9999999999957936
  0
ARC
  5
B15D
  8
0
 10
315.7580591302547077
 20
6.4094599311775031
 30
0.0
 40
0.012
 50
0.0
 51
90.0
  0
ARC
  5
B15E
  8
0
 10
315.1401378704546801
 20
10.1806152302774304
 30
0.0
 40
4.9800099199999268
 50
270.0003630967927961
 51
276.7751507190027951
  0
ARC
  5
B15F
  8
0
 10
315.7230400708928073
 20
5.2821747913450157
 30
0.0
 40
0.047019059919446
 50
275.621769103727388
 51
359.9911760406766916
  0
ARC
  5
B161
  8
0
 10
312.7351474128408881
 20
10.0106417843879107
 30
0.0
 40
4.8100390301929279
 50
263.1057869886863045
 51
270.0590689539172899
  0
ARC
  5
B162
  8
0
 10
312.7401478549339231
 20
5.1893570972499869
 30
0.0
 40
0.6321028351085597
 50
90.0036477559766297
 51
170.9350585439308077
  0
ARC
  5
B163
  8
0
 10
312.1612533639038816
 20
5.2810957740070918
 30
0.0
 40
0.0458466559491937
 50
178.6604510344280925
 51
265.6385842419957157
  0
ARC
  5
B164
  8
0
 10
312.2051198316283944
 20
5.2786909468819809
 30
0.0
 40
0.0897679418573943
 50
173.4393752097369941
 51
177.7804490545854037
  0
LINE
  5
B165
  8
0
 10
313.9590355082547148
 20
8.0438039862775028
 30
0.0
 11
313.9590355082547148
 21
8.2799945374775028
 31
0.0
  0
LINE
  5
B166
  8
0
 10
314.5102166106547088
 20
6.1994599311775032
 30
0.0
 11
314.5102166106547088
 21
6.4094599311775031
 31
0.0
  0
LINE
  5
B167
  8
0
 10
314.5102166106547088
 20
6.4534118602775008
 30
0.0
 11
314.5102166106547088
 21
7.9926039862775022
 31
0.0
  0
ARC
  5
B168
  8
0
 10
313.9984355082547154
 20
8.0438039862775028
 30
0.0
 40
0.0394
 50
180.0000000000013074
 51
270.0
  0
LINE
  5
B169
  8
0
 10
314.6873819649546817
 20
6.4414118602775021
 30
0.0
 11
314.6873819649546817
 21
6.4214599311775018
 31
0.0
  0
ARC
  5
B16A
  8
0
 10
314.5222166106547093
 20
6.4534118602775017
 30
0.0
 40
0.012
 50
180.0000000000042064
 51
269.9999999999902229
  0
ARC
  5
B16B
  8
0
 10
314.5222166106547093
 20
6.4094599311775031
 30
0.0
 40
0.012
 50
90.0
 51
180.0
  0
LINE
  5
B16C
  8
0
 10
312.740107611884298
 20
5.821459931177503
 30
0.0
 11
314.1322166106547229
 21
5.821459931177503
 31
0.0
  0
ARC
  5
B16D
  8
0
 10
314.1322166106547229
 20
6.1994599311775049
 30
0.0
 40
0.378
 50
270.0
 51
359.9999999999996021
  0
LINE
  5
B16F
  8
0
 10
315.7700591302547082
 20
5.2821675500855099
 30
0.0
 11
312.1154192373412002
 21
5.2821675500855108
 31
0.0
  0
ARC
  5
B4C5
  8
0
 10
314.498416610654715
 20
7.9926039862775022
 30
0.0
 40
0.0118
 50
0.0
 51
90.0
  0
ARC
  5
B4C6
  8
0
 10
315.781859130254702
 20
7.9926039862775022
 30
0.0
 40
0.0118
 50
90.0
 51
180.0
  0
ARC
  5
B4C7
  8
0
 10
322.498416610654715
 20
7.9926039862775022
 30
0.0
 40
0.0118
 50
0.0
 51
90.0
  0
ARC
  5
B4C8
  8
0
 10
323.781859130254702
 20
7.9926039862775022
 30
0.0
 40
0.0118
 50
90.0
 51
180.0
  0
ENDSEC
  0
EOF
