  0
SECTION
  2
HEADER
  9
$ACADVER
  1
AC1009
  9
$INSBASE
 10
391.4134071791211795
 20
13.6136575927995107
 30
0.0
  9
$EXTMIN
 10
387.706540582708385
 20
13.6103525992077099
 30
-0.0000000000112498
  9
$EXTMAX
 10
395.2565371893923043
 20
51.7985039049804286
 30
0.0000000000002956
  9
$LIMMIN
 10
0.0
 20
0.0
  9
$LIMMAX
 10
11.6929133858000007
 20
8.2677165353999982
  9
$ORTHOMODE
 70
     0
  9
$REGENMODE
 70
     1
  9
$FILLMODE
 70
     1
  9
$QTEXTMODE
 70
     0
  9
$MIRRTEXT
 70
     0
  9
$DRAGMODE
 70
     2
  9
$LTSCALE
 40
0.6431102362
  9
$OSMODE
 70
  4095
  9
$ATTMODE
 70
     1
  9
$TEXTSIZE
 40
0.2
  9
$TRACEWID
 40
0.05
  9
$TEXTSTYLE
  7
STANDARD
  9
$CLAYER
  8
0
  9
$CELTYPE
  6
BYLAYER
  9
$CECOLOR
 62
   256
  9
$DIMSCALE
 40
1.0
  9
$DIMASZ
 40
0.1875
  9
$DIMEXO
 40
0.0625
  9
$DIMDLI
 40
0.4443307087
  9
$DIMRND
 40
0.0
  9
$DIMDLE
 40
0.0
  9
$DIMEXE
 40
0.125
  9
$DIMTP
 40
0.01
  9
$DIMTM
 40
0.01
  9
$DIMTXT
 40
0.15625
  9
$DIMCEN
 40
0.1052362205
  9
$DIMTSZ
 40
0.0
  9
$DIMTOL
 70
     1
  9
$DIMLIM
 70
     0
  9
$DIMTIH
 70
     1
  9
$DIMTOH
 70
     1
  9
$DIMSE1
 70
     0
  9
$DIMSE2
 70
     0
  9
$DIMTAD
 70
     0
  9
$DIMZIN
 70
     0
  9
$DIMBLK
  1

  9
$DIMASO
 70
     1
  9
$DIMSHO
 70
     1
  9
$DIMPOST
  1
\X
  9
$DIMAPOST
  1

  9
$DIMALT
 70
     1
  9
$DIMALTD
 70
     2
  9
$DIMALTF
 40
25.3999999999999986
  9
$DIMLFAC
 40
1.0
  9
$DIMTOFL
 70
     0
  9
$DIMTVP
 40
0.0
  9
$DIMTIX
 70
     0
  9
$DIMSOXD
 70
     0
  9
$DIMSAH
 70
     0
  9
$DIMBLK1
  1

  9
$DIMBLK2
  1

  9
$DIMSTYLE
  2
STANDARD
  9
$DIMCLRD
 70
     0
  9
$DIMCLRE
 70
     0
  9
$DIMCLRT
 70
     0
  9
$DIMTFAC
 40
1.0
  9
$DIMGAP
 40
0.09
  9
$LUNITS
 70
     2
  9
$LUPREC
 70
     4
  9
$SKETCHINC
 40
0.1
  9
$FILLETRAD
 40
0.0
  9
$AUNITS
 70
     0
  9
$AUPREC
 70
     0
  9
$MENU
  1
.
  9
$ELEVATION
 40
0.0
  9
$PELEVATION
 40
0.0
  9
$THICKNESS
 40
0.0
  9
$LIMCHECK
 70
     0
  9
$BLIPMODE
 70
     0
  9
$CHAMFERA
 40
0.0
  9
$CHAMFERB
 40
0.0
  9
$SKPOLY
 70
     0
  9
$TDCREATE
 40
2458018.639108797069639
  9
$TDUPDATE
 40
2460201.4588310187682509
  9
$TDINDWG
 40
0.4020481481
  9
$TDUSRTIMER
 40
0.4020481481
  9
$USRTIMER
 70
     1
  9
$ANGBASE
 50
0.0
  9
$ANGDIR
 70
     0
  9
$PDMODE
 70
     0
  9
$PDSIZE
 40
0.3125
  9
$PLINEWID
 40
0.0
  9
$COORDS
 70
     1
  9
$SPLFRAME
 70
     0
  9
$SPLINETYPE
 70
     6
  9
$SPLINESEGS
 70
     8
  9
$ATTDIA
 70
     1
  9
$ATTREQ
 70
     1
  9
$HANDLING
 70
     1
  9
$HANDSEED
  5
BC1B
  9
$SURFTAB1
 70
     6
  9
$SURFTAB2
 70
     6
  9
$SURFTYPE
 70
     6
  9
$SURFU
 70
     6
  9
$SURFV
 70
     6
  9
$UCSNAME
  2

  9
$UCSORG
 10
0.0
 20
0.0
 30
0.0
  9
$UCSXDIR
 10
1.0
 20
0.0
 30
0.0
  9
$UCSYDIR
 10
0.0
 20
1.0
 30
0.0
  9
$PUCSNAME
  2

  9
$PUCSORG
 10
0.0
 20
0.0
 30
0.0
  9
$PUCSXDIR
 10
1.0
 20
0.0
 30
0.0
  9
$PUCSYDIR
 10
0.0
 20
1.0
 30
0.0
  9
$USERI1
 70
     0
  9
$USERI2
 70
     0
  9
$USERI3
 70
     0
  9
$USERI4
 70
     0
  9
$USERI5
 70
     0
  9
$USERR1
 40
0.0
  9
$USERR2
 40
0.0
  9
$USERR3
 40
0.0
  9
$USERR4
 40
0.0
  9
$USERR5
 40
0.0
  9
$WORLDVIEW
 70
     1
  9
$SHADEDGE
 70
     3
  9
$SHADEDIF
 70
    70
  9
$TILEMODE
 70
     1
  9
$MAXACTVP
 70
    64
  9
$PLIMCHECK
 70
     0
  9
$PEXTMIN
 10
1.0000000000000000E+20
 20
1.0000000000000000E+20
 30
1.0000000000000000E+20
  9
$PEXTMAX
 10
-1.0000000000000000E+20
 20
-1.0000000000000000E+20
 30
-1.0000000000000000E+20
  9
$PLIMMIN
 10
0.0
 20
0.0
  9
$PLIMMAX
 10
12.0
 20
9.0
  9
$UNITMODE
 70
     0
  9
$VISRETAIN
 70
     1
  9
$PLINEGEN
 70
     0
  9
$PSLTSCALE
 70
     1
  0
ENDSEC
  0
SECTION
  2
TABLES
  0
TABLE
  2
VPORT
 70
     1
  0
VPORT
  2
*ACTIVE
 70
     0
 10
0.0
 20
0.0
 11
1.0
 21
1.0
 12
296.157277888312592
 22
25.668096240871229
 13
0.0
 23
0.0
 14
1.0
 24
1.0
 15
0.0
 25
0.0
 16
-0.0000000000000142
 26
0.0
 36
39.3282560748450578
 17
95.3242609977377526
 27
7.0363320112228394
 37
0.0
 40
38.4815301890436885
 41
1.4089743589743591
 42
50.0
 43
0.0
 44
0.0
 50
0.0
 51
0.0
 71
     0
 72
   100
 73
     1
 74
     1
 75
     0
 76
     0
 77
     0
 78
     0
  0
ENDTAB
  0
TABLE
  2
LTYPE
 70
     2
  0
LTYPE
  2
CONTINUOUS
 70
     0
  3
Solid line
 72
    65
 73
     0
 40
0.0
  0
LTYPE
  2
PHANTOM2
 70
     0
  3
___ _ _ ___ _ _ ___ _ _ ___ _ _
 72
    65
 73
     6
 40
1.25
 49
0.625
 49
-0.125
 49
0.125
 49
-0.125
 49
0.125
 49
-0.125
  0
ENDTAB
  0
TABLE
  2
LAYER
 70
     2
  0
LAYER
  2
0
 70
     0
 62
   255
  6
CONTINUOUS
  0
LAYER
  2
DEFPOINTS
 70
     0
 62
     7
  6
CONTINUOUS
  0
ENDTAB
  0
TABLE
  2
STYLE
 70
     1
  0
STYLE
  2
STANDARD
 70
     0
 40
0.0
 41
0.8
 50
0.0
 71
     0
 42
0.2
  3
txt
  4

  0
ENDTAB
  0
TABLE
  2
VIEW
 70
     0
  0
ENDTAB
  0
TABLE
  2
UCS
 70
     0
  0
ENDTAB
  0
TABLE
  2
APPID
 70
    10
  0
APPID
  2
ACAD
 70
     0
  0
APPID
  2
ACAD_MLEADERVER
 70
     0
  0
APPID
  2
ACAD_DSTYLE_DIMJAG
 70
     0
  0
APPID
  2
ACAD_DSTYLE_DIMTALN
 70
     0
  0
APPID
  2
ACAD_NAV_VCDISPLAY
 70
     0
  0
APPID
  2
ACAD_EXEMPT_FROM_CAD_STANDARDS
 70
     0
  0
APPID
  2
ACAECLAYERSTANDARD
 70
     0
  0
APPID
  2
ACCMTRANSPARENCY
 70
     0
  0
APPID
  2
DCO15
 70
     0
  0
APPID
  2
ACDBATTR
 70
     0
  0
ENDTAB
  0
TABLE
  2
DIMSTYLE
 70
     1
  0
DIMSTYLE
  2
STANDARD
 70
     0
  3

  4

  5

  6

  7

 40
1.0
 41
0.1875
 42
0.0625
 43
0.38
 44
0.125
 45
0.0
 46
0.0
 47
0.01
 48
0.01
140
0.15625
141
0.09
142
0.0
143
25.3999999999999986
144
1.0
145
0.0
146
1.0
147
0.09
 71
     1
 72
     0
 73
     1
 74
     1
 75
     0
 76
     0
 77
     0
 78
     4
170
     0
171
     2
172
     0
173
     0
174
     0
175
     0
176
     0
177
     0
178
     0
  0
ENDTAB
  0
ENDSEC
  0
SECTION
  2
BLOCKS
  0
BLOCK
  8
0
  2
$MODEL_SPACE
 70
     0
 10
0.0
 20
0.0
 30
0.0
  3
$MODEL_SPACE
  1

  0
ENDBLK
  5
21
  8
0
  0
BLOCK
 67
     1
  8
0
  2
$PAPER_SPACE
 70
     0
 10
0.0
 20
0.0
 30
0.0
  3
$PAPER_SPACE
  1

  0
ENDBLK
  5
1D
 67
     1
  8
0
  0
ENDSEC
  0
SECTION
  2
ENTITIES
  0
ATTDEF
  5
7A6E
  8
DEFPOINTS
 10
391.4094601104097251
 20
13.6176742099508203
 30
0.0
 40
0.001
  1
P34127-LV
  3

  2
MODELNUMBER
 70
     0
1001
ACDBATTR
1070
     0
1070
     1
  0
ATTDEF
  5
7A6F
  8
DEFPOINTS
 10
391.4094601104097251
 20
13.6160075432841499
 30
0.0
 40
0.001
  1
002
  3

  2
TRADENAME
 70
     0
1001
ACDBATTR
1070
     0
1070
     1
  0
ATTDEF
  5
7A70
  8
DEFPOINTS
 10
391.4094601104097251
 20
13.61434087661749
 30
0.0
 40
0.001
  1
BATH FAUCET
  3

  2
PRODUCT
 70
     0
1001
ACDBATTR
1070
     0
1070
     1
  0
LINE
  5
BB3D
  8
0
 10
388.984273320871182
 20
13.6136575927995107
 30
0.0
 11
393.842541037371177
 21
13.6136575927995107
 31
0.0
  0
LINE
  5
BB3E
  8
0
 10
389.0039622972711868
 20
14.7947599549995097
 30
0.0
 11
393.8228520609711722
 21
14.7947599549995097
 31
0.0
  0
LINE
  5
BB3F
  8
0
 10
388.9724622972711927
 20
14.7632599549995192
 30
0.0
 11
388.9724622972711927
 21
13.6254686163995107
 31
0.0
  0
LINE
  5
BB40
  8
0
 10
390.4685252893712004
 20
14.7947599549995097
 30
0.0
 11
390.4685252893712004
 21
38.5414922067995178
 31
0.0
  0
ARC
  5
BB41
  8
0
 10
389.0039622972711868
 20
14.7632599549995103
 30
0.0
 40
0.0315
 50
90.0
 51
179.9999999999934914
  0
LINE
  5
BB42
  8
0
 10
388.9724622972711927
 20
13.6254686163995107
 30
0.0
 11
388.984273320871182
 21
13.6136575927995107
 31
0.0
  0
LINE
  5
BB43
  8
0
 10
390.5000252893711945
 20
38.5729922067995119
 30
0.0
 11
392.3267890688712214
 21
38.5729922067995119
 31
0.0
  0
LINE
  5
BB44
  8
0
 10
390.5063993051712146
 20
38.5849045115995182
 30
0.0
 11
392.3204150530712013
 21
38.5849045115995182
 31
0.0
  0
LINE
  5
BB45
  8
0
 10
390.476399305171185
 20
38.6149045115995193
 30
0.0
 11
390.476399305171185
 21
38.7252017412494496
 31
0.0
  0
ARC
  5
BB46
  8
0
 10
390.5000252893711945
 20
38.5414922067995178
 30
0.0
 40
0.0315
 50
89.9999999999934914
 51
180.0
  0
ARC
  5
BB47
  8
0
 10
390.5063993051712146
 20
38.6149045115995193
 30
0.0
 40
0.03
 50
180.0000000000100897
 51
270.0
  0
LINE
  5
BB48
  8
0
 10
390.5275804074711914
 20
38.5849048344995111
 30
0.0
 11
390.5275804074711914
 21
38.572992206799519
 31
0.0
  0
LINE
  5
BB49
  8
0
 10
388.0293364815432824
 20
39.9589205824995233
 30
0.0
 11
392.3204150531711889
 21
39.9589205824995233
 31
0.0
  0
LINE
  5
BB4A
  8
0
 10
390.4815221791711792
 20
39.9667945981995132
 30
0.0
 11
392.3452921790711798
 21
39.9667945981995132
 31
0.0
  0
ARC
  5
BB4B
  8
0
 10
390.4815221791711792
 20
39.9785945981995212
 30
0.0
 40
0.0118
 50
180.0000000000173088
 51
269.9999999999641886
  0
LINE
  5
BB4C
  8
0
 10
390.5275804074711914
 20
39.9667945981995132
 30
0.0
 11
390.5275804074711914
 21
39.9589205824995233
 31
0.0
  0
ARC
  5
BB4D
  8
0
 10
390.4815221791711792
 20
46.762754598199507
 30
0.0
 40
0.0118
 50
90.0000000000358256
 51
179.9999999999826912
  0
ARC
  5
BB4E
  8
0
 10
390.4815221791711792
 20
46.786354598199523
 30
0.0
 40
0.0118
 50
180.0000000000173088
 51
269.9999999999641886
  0
LINE
  5
BB4F
  8
0
 10
393.8543520609712232
 20
14.7632599549995192
 30
0.0
 11
393.8543520609712232
 21
13.6254686163995107
 31
0.0
  0
LINE
  5
BB50
  8
0
 10
392.3582890688712155
 20
14.7947599549995097
 30
0.0
 11
392.3582890688712155
 21
38.5414922067995178
 31
0.0
  0
ARC
  5
BB51
  8
0
 10
393.8228520609711722
 20
14.7632599549995103
 30
0.0
 40
0.0315
 50
0.0000000000065138
 51
90.0
  0
LINE
  5
BB52
  8
0
 10
393.8543520609712232
 20
13.6254686163995107
 30
0.0
 11
393.842541037371177
 21
13.6136575927995107
 31
0.0
  0
LINE
  5
BB53
  8
0
 10
392.350415053071174
 20
38.6149045115995193
 30
0.0
 11
392.350415053071174
 21
39.9289205824995221
 31
0.0
  0
ARC
  5
BB54
  8
0
 10
392.3267890688712214
 20
38.5414922067995178
 30
0.0
 40
0.0315
 50
0.0
 51
90.0000000000065086
  0
ARC
  5
BB55
  8
0
 10
392.3204150530712013
 20
38.6149045115995193
 30
0.0
 40
0.03
 50
270.0
 51
359.999999999989825
  0
LINE
  5
BB56
  8
0
 10
392.2992339507712245
 20
38.5849048344995111
 30
0.0
 11
392.2992339507712245
 21
38.572992206799519
 31
0.0
  0
ARC
  5
BB57
  8
0
 10
392.3204150530712013
 20
39.9289205824995221
 30
0.0
 40
0.03
 50
0.0
 51
90.0
  0
ARC
  5
BB58
  8
0
 10
392.3453024539060721
 20
39.9785843234644815
 30
0.0
 40
0.0117897297422569
 50
269.9500663063838033
 51
0.0499332080187126
  0
LINE
  5
BB59
  8
0
 10
392.2992339507712245
 20
39.9667945981995132
 30
0.0
 11
392.2992339507712245
 21
39.9589205824995233
 31
0.0
  0
ARC
  5
BB5A
  8
0
 10
392.3453090127975997
 20
46.7627714318259819
 30
0.0
 40
0.0117831783980597
 50
0.0818536429290571
 51
89.9181458915549143
  0
ARC
  5
BB5B
  8
0
 10
392.3453087195396165
 20
46.7863380569942677
 30
0.0
 40
0.0117834712415811
 50
270.0832780088870777
 51
0.0804297426800971
  0
ARC
  5
BB5C
  8
0
 10
390.1463493673159064
 20
38.8359031774212227
 30
0.0
 40
0.2553649451984755
 50
42.3905580909932524
 51
92.5047687555475591
  0
ARC
  5
BB5D
  8
0
 10
390.1228411368870184
 20
38.7252017412665168
 30
0.0
 40
0.353558168284211
 50
359.9999999972334876
 51
53.1346983685768279
  0
LINE
  5
BB5E
  8
0
 10
388.873424321471191
 20
39.0787640998995229
 30
0.0
 11
389.6965500795313915
 21
39.0787641078995165
 31
0.0
  0
ARC
  5
BB5F
  8
0
 10
390.1670515930690044
 20
30.0981151119437591
 30
0.0
 40
8.9929654765712481
 50
90.2030009351082072
 51
92.9990179128018184
  0
LINE
  5
BB60
  8
0
 10
387.7278801054711721
 20
39.1859102304995233
 30
0.0
 11
387.7273387313409785
 21
39.643920585330342
 31
0.0
  0
ARC
  5
BB61
  8
0
 10
388.0429587368573152
 20
39.6435992010651717
 30
0.0
 40
0.3156154930124677
 50
87.5262929590375052
 51
179.9416574807264055
  0
LINE
  5
BB62
  8
0
 10
387.7576558344712225
 20
39.1541639969995217
 30
0.0
 11
388.0886909674712228
 21
39.1541639969995217
 31
0.0
  0
ARC
  5
BB63
  8
0
 10
388.398028342414591
 20
38.5158739497638365
 30
0.0
 40
0.7065675862025995
 50
80.7458382300734883
 51
114.9164822927323968
  0
ARC
  5
BB64
  8
0
 10
388.305159614159777
 20
38.1602593693675516
 30
0.0
 40
1.0730422090706351
 50
59.4366537937282899
 51
78.9048605308919235
  0
ARC
  5
BB65
  8
0
 10
388.8736503243230231
 20
39.1293639609286998
 30
0.0
 40
0.0506003657443516
 50
243.1439271338475123
 51
269.7440917188774279
  0
ARC
  5
BB66
  8
0
 10
388.0876301176584207
 20
39.1874163702719613
 30
0.0
 40
0.0332692911041817
 50
271.8272863616232939
 51
292.4851027308956759
  0
ARC
  5
BB67
  8
0
 10
387.7575013104823256
 20
39.183855948488528
 30
0.0
 40
0.0296923535761129
 50
176.0327903617634036
 51
270.2981781939492976
  0
LINE
  5
BB68
  8
0
 10
392.357092179171218
 20
51.6426806239087099
 30
0.0
 11
390.4697221791711854
 21
51.6426806239087099
 31
0.0
  0
LINE
  5
BB69
  8
0
 10
390.4815221791711792
 20
46.7745545981995221
 30
0.0
 11
392.3453258465196996
 21
46.7745545981995221
 31
0.0
  0
LINE
  5
BB6A
  8
0
 10
390.4697221791711854
 20
51.6426806239087099
 30
0.0
 11
390.4697221791711854
 21
46.786354598199523
 31
0.0
  0
LINE
  5
BB6B
  8
0
 10
390.4697221791711854
 20
46.762754598199507
 30
0.0
 11
390.4697221791711854
 21
39.9785945981995212
 31
0.0
  0
LINE
  5
BB6C
  8
0
 10
392.357092179171218
 20
46.7627882654524214
 30
0.0
 11
392.357092179171218
 21
44.7718260631995193
 31
0.0
  0
LINE
  5
BB6D
  8
0
 10
392.357092179171218
 20
41.087129532299528
 30
0.0
 11
392.357092179171218
 21
39.9785740487283832
 31
0.0
  0
ARC
  5
BB6E
  8
0
 10
391.4134378938824739
 20
47.2761548351409502
 30
0.0
 40
4.5192749600629432
 50
78.5854281982282572
 51
90.0003894039050039
  0
ARC
  5
BB6F
  8
0
 10
392.2910428571566968
 20
51.6421606112754503
 30
0.0
 40
0.0660513690374444
 50
0.4510858352921815
 51
75.2744305624758709
  0
ARC
  5
BB70
  8
0
 10
391.4133764644598728
 20
47.2761548351409431
 30
0.0
 40
4.5192749600629503
 50
89.9996105960950246
 51
101.4145718017717002
  0
ARC
  5
BB71
  8
0
 10
390.5363012288195819
 20
51.6417487822701418
 30
0.0
 40
0.0665855703656847
 50
105.0763440606589967
 51
179.1981395415787119
  0
ARC
  5
BB72
  8
0
 10
391.414390272155174
 20
51.6981915968488721
 30
0.0
 40
0.9462976667089982
 50
183.3629707904536019
 51
269.9404763522405233
  0
ARC
  5
BB73
  8
0
 10
391.4124240861871726
 20
51.6981915968488721
 30
0.0
 40
0.9462976667089982
 50
270.0595236477594767
 51
356.6370292095463128
  0
LINE
  5
BB74
  8
0
 10
392.357092179171218
 20
46.786354598199523
 30
0.0
 11
392.357092179171218
 21
51.6426806239087099
 31
0.0
  0
LINE
  5
BB76
  8
0
 10
394.3267930058711954
 20
43.8252095981995069
 30
0.0
 11
394.3267930058711954
 21
41.9998395990042681
 31
0.0
  0
LINE
  5
BB77
  8
0
 10
394.3464780452712262
 20
43.8252095981995069
 30
0.0
 11
394.3464780452712262
 21
41.9998395990042681
 31
0.0
  0
LINE
  5
BB78
  8
0
 10
395.1544070982711787
 20
46.7511053855995087
 30
0.0
 11
395.1607030462711805
 21
46.7511053855995087
 31
0.0
  0
LINE
  5
BB79
  8
0
 10
395.2358376587595785
 20
46.0380836587822131
 30
0.0
 11
395.2358376587595785
 21
42.7129727708682196
 31
0.0
  0
LINE
  5
BB7A
  8
0
 10
395.1945277063655908
 20
41.9994905980190794
 30
0.0
 11
395.1945296709711783
 21
46.7202041857995383
 31
0.0
  0
LINE
  5
BB7B
  8
0
 10
393.3019723267711925
 20
43.8562095981995128
 30
0.0
 11
394.2957930058711895
 21
43.8562095981995128
 31
0.0
  0
LINE
  5
BB7C
  8
0
 10
394.3774780452711752
 20
43.8562095981995128
 30
0.0
 11
394.464585079670826
 21
43.8562095981995128
 31
0.0
  0
ARC
  5
BB7D
  8
0
 10
394.2957930058711895
 20
43.8252095981995069
 30
0.0
 40
0.031
 50
359.9999999999901092
 51
90.0000000000065086
  0
ARC
  5
BB7E
  8
0
 10
394.3774780452711752
 20
43.8252095981995069
 30
0.0
 40
0.031
 50
90.0000000000032543
 51
179.9999999999934914
  0
LINE
  5
BB7F
  8
0
 10
394.8353838164712215
 20
44.2282033357995132
 30
0.0
 11
394.8353838164712215
 21
45.8062253855995181
 31
0.0
  0
ARC
  5
BB80
  8
0
 10
396.4673947575712987
 20
45.8062253855994896
 30
0.0
 40
1.6320109411000909
 50
153.0929133006050051
 51
179.9999999999994031
  0
ARC
  5
BB81
  8
0
 10
396.4673947626802146
 20
45.8062253830068329
 30
0.0
 40
1.632010946829159
 50
145.2491736638343127
 51
153.0929133006050051
  0
ARC
  5
BB82
  8
0
 10
395.1544070981169057
 20
46.7171053857688108
 30
0.0
 40
0.0339999998307012
 50
89.9999997399668104
 51
145.2491736638338011
  0
ARC
  5
BB83
  8
0
 10
395.1607030462459988
 20
46.7171402854906717
 30
0.0
 40
0.033965100108837
 50
5.1755335813094403
 51
89.9999999574617675
  0
ARC
  5
BB84
  8
0
 10
383.7911540479865948
 20
45.6873253107453721
 30
0.0
 40
11.45005739590035
 50
1.755459982701463
 51
5.1755335813094403
  0
LINE
  5
BB85
  8
0
 10
393.3019723267711925
 20
41.9688395990042693
 30
0.0
 11
394.2957930058711895
 21
41.9688395990042693
 31
0.0
  0
LINE
  5
BB86
  8
0
 10
394.3774780452711752
 20
41.9688395990042693
 30
0.0
 11
395.1635296709711724
 21
41.9688395990042693
 31
0.0
  0
ARC
  5
BB87
  8
0
 10
394.2957930058711895
 20
41.9998395990042823
 30
0.0
 40
0.031
 50
269.9999999999968168
 51
359.9999999999968168
  0
ARC
  5
BB88
  8
0
 10
394.3774780452711752
 20
41.9998395990042823
 30
0.0
 40
0.031
 50
180.0000000000032117
 51
270.0
  0
LINE
  5
BB89
  8
0
 10
394.3267930058711954
 20
42.0168553068995081
 30
0.0
 11
394.3464780452712262
 21
42.0168553068995081
 31
0.0
  0
ARC
  5
BB8A
  8
0
 10
395.1635296709711724
 20
41.9998395990042823
 30
0.0
 40
0.0310000000000006
 50
270.0000000000064801
 51
359.3549449701500862
  0
LINE
  5
BB8B
  8
0
 10
394.3267930058711954
 20
43.8081938895995222
 30
0.0
 11
394.3464780452712262
 21
43.8081938895995222
 31
0.0
  0
ARC
  5
BB8C
  8
0
 10
394.4622687569441837
 20
44.2293191361441771
 30
0.0
 40
0.3731167279234003
 50
270.3556966461256934
 51
359.8286575191251018
  0
ARC
  5
BB8D
  8
0
 10
383.6067225730351993
 20
43.0283506984012334
 30
0.0
 40
11.6333907745848606
 50
354.9261172862600233
 51
358.4465373299444764
  0
ARC
  5
BB8E
  8
0
 10
393.3037693935120274
 20
44.804302520462457
 30
0.0
 40
0.9480946261950398
 50
227.9648776749644128
 51
269.8913986024576275
  0
ARC
  5
BB8F
  8
0
 10
393.3026916291915995
 20
44.8025881209012198
 30
0.0
 40
0.9460996903459982
 50
181.8632780456356954
 51
227.9438363972386128
  0
ARC
  5
BB90
  8
0
 10
393.3055946401374854
 20
41.0160013365201479
 30
0.0
 40
0.9528451469542606
 50
90.2178147923947051
 51
129.9136202222300938
  0
ARC
  5
BB91
  8
0
 10
393.3078833608681748
 20
41.0172553292764377
 30
0.0
 40
0.9533552724147488
 50
130.0674788486431055
 51
175.7968554796231047
  0
LINE
  5
BB92
  8
0
 10
395.1268287076712227
 20
46.7369908671286467
 30
0.0
 11
395.1268287076712227
 21
43.7369988334452913
 31
0.0
  0
ARC
  5
BB93
  8
0
 10
394.2558532169546197
 20
43.749296645965309
 30
0.0
 40
0.8710623063947441
 50
323.8799307941051211
 51
359.1910611225517869
  0
ARC
  5
BB94
  8
0
 10
394.5931490185793109
 20
43.5031836745334175
 30
0.0
 40
0.4535218275286816
 50
283.7472539270693801
 51
323.8770352021667804
  0
ARC
  5
BB95
  8
0
 10
393.959690926958217
 20
46.0924507365897114
 30
0.0
 40
3.1191499097055551
 50
279.3154052166589736
 51
283.7472539270693801
  0
LINE
  5
BB96
  8
0
 10
394.4645850805633245
 20
43.0144354583834101
 30
0.0
 11
394.4645850805633245
 21
43.8562095982050622
 31
0.0
  0
ENDSEC
  0
EOF
