  0
SECTION
  2
HEADER
  9
$ACADVER
  1
AC1009
  9
$INSBASE
 10
343.3472423014804917
 20
-1.8525584466090239
 30
0.0
  9
$EXTMIN
 10
334.3934204666193182
 20
-1.8577351482189031
 30
-0.0000000000000058
  9
$EXTMAX
 10
345.0006448595086113
 20
6.9129798511794709
 30
0.0000000000000104
  9
$LIMMIN
 10
0.0
 20
0.0
  9
$LIMMAX
 10
11.6929133858000007
 20
8.2677165353999982
  9
$ORTHOMODE
 70
     1
  9
$REGENMODE
 70
     1
  9
$FILLMODE
 70
     1
  9
$QTEXTMODE
 70
     0
  9
$MIRRTEXT
 70
     0
  9
$DRAGMODE
 70
     2
  9
$LTSCALE
 40
0.6431102362
  9
$OSMODE
 70
  4095
  9
$ATTMODE
 70
     1
  9
$TEXTSIZE
 40
0.2
  9
$TRACEWID
 40
0.05
  9
$TEXTSTYLE
  7
STANDARD
  9
$CLAYER
  8
0
  9
$CELTYPE
  6
BYLAYER
  9
$CECOLOR
 62
   256
  9
$DIMSCALE
 40
1.0
  9
$DIMASZ
 40
0.1875
  9
$DIMEXO
 40
0.0625
  9
$DIMDLI
 40
0.4443307087
  9
$DIMRND
 40
0.0
  9
$DIMDLE
 40
0.0
  9
$DIMEXE
 40
0.125
  9
$DIMTP
 40
0.01
  9
$DIMTM
 40
0.01
  9
$DIMTXT
 40
0.15625
  9
$DIMCEN
 40
0.1052362205
  9
$DIMTSZ
 40
0.0
  9
$DIMTOL
 70
     1
  9
$DIMLIM
 70
     0
  9
$DIMTIH
 70
     1
  9
$DIMTOH
 70
     1
  9
$DIMSE1
 70
     0
  9
$DIMSE2
 70
     0
  9
$DIMTAD
 70
     0
  9
$DIMZIN
 70
     0
  9
$DIMBLK
  1

  9
$DIMASO
 70
     1
  9
$DIMSHO
 70
     1
  9
$DIMPOST
  1
\X
  9
$DIMAPOST
  1

  9
$DIMALT
 70
     1
  9
$DIMALTD
 70
     2
  9
$DIMALTF
 40
25.3999999999999986
  9
$DIMLFAC
 40
1.0
  9
$DIMTOFL
 70
     0
  9
$DIMTVP
 40
0.0
  9
$DIMTIX
 70
     0
  9
$DIMSOXD
 70
     0
  9
$DIMSAH
 70
     0
  9
$DIMBLK1
  1

  9
$DIMBLK2
  1

  9
$DIMSTYLE
  2
STANDARD
  9
$DIMCLRD
 70
     0
  9
$DIMCLRE
 70
     0
  9
$DIMCLRT
 70
     0
  9
$DIMTFAC
 40
1.0
  9
$DIMGAP
 40
0.09
  9
$LUNITS
 70
     2
  9
$LUPREC
 70
     4
  9
$SKETCHINC
 40
0.1
  9
$FILLETRAD
 40
0.0
  9
$AUNITS
 70
     0
  9
$AUPREC
 70
     0
  9
$MENU
  1
.
  9
$ELEVATION
 40
0.0
  9
$PELEVATION
 40
0.0
  9
$THICKNESS
 40
0.0
  9
$LIMCHECK
 70
     0
  9
$BLIPMODE
 70
     0
  9
$CHAMFERA
 40
0.0
  9
$CHAMFERB
 40
0.0
  9
$SKPOLY
 70
     0
  9
$TDCREATE
 40
2458018.639108797069639
  9
$TDUPDATE
 40
2460201.6676967591047287
  9
$TDINDWG
 40
0.4007865741
  9
$TDUSRTIMER
 40
0.4007865741
  9
$USRTIMER
 70
     1
  9
$ANGBASE
 50
0.0
  9
$ANGDIR
 70
     0
  9
$PDMODE
 70
     0
  9
$PDSIZE
 40
0.3125
  9
$PLINEWID
 40
0.0
  9
$COORDS
 70
     1
  9
$SPLFRAME
 70
     0
  9
$SPLINETYPE
 70
     6
  9
$SPLINESEGS
 70
     8
  9
$ATTDIA
 70
     1
  9
$ATTREQ
 70
     1
  9
$HANDLING
 70
     1
  9
$HANDSEED
  5
C322
  9
$SURFTAB1
 70
     6
  9
$SURFTAB2
 70
     6
  9
$SURFTYPE
 70
     6
  9
$SURFU
 70
     6
  9
$SURFV
 70
     6
  9
$UCSNAME
  2

  9
$UCSORG
 10
0.0
 20
0.0
 30
0.0
  9
$UCSXDIR
 10
1.0
 20
0.0
 30
0.0
  9
$UCSYDIR
 10
0.0
 20
1.0
 30
0.0
  9
$PUCSNAME
  2

  9
$PUCSORG
 10
0.0
 20
0.0
 30
0.0
  9
$PUCSXDIR
 10
1.0
 20
0.0
 30
0.0
  9
$PUCSYDIR
 10
0.0
 20
1.0
 30
0.0
  9
$USERI1
 70
     0
  9
$USERI2
 70
     0
  9
$USERI3
 70
     0
  9
$USERI4
 70
     0
  9
$USERI5
 70
     0
  9
$USERR1
 40
0.0
  9
$USERR2
 40
0.0
  9
$USERR3
 40
0.0
  9
$USERR4
 40
0.0
  9
$USERR5
 40
0.0
  9
$WORLDVIEW
 70
     1
  9
$SHADEDGE
 70
     3
  9
$SHADEDIF
 70
    70
  9
$TILEMODE
 70
     1
  9
$MAXACTVP
 70
    64
  9
$PLIMCHECK
 70
     0
  9
$PEXTMIN
 10
1.0000000000000000E+20
 20
1.0000000000000000E+20
 30
1.0000000000000000E+20
  9
$PEXTMAX
 10
-1.0000000000000000E+20
 20
-1.0000000000000000E+20
 30
-1.0000000000000000E+20
  9
$PLIMMIN
 10
0.0
 20
0.0
  9
$PLIMMAX
 10
12.0
 20
9.0
  9
$UNITMODE
 70
     0
  9
$VISRETAIN
 70
     1
  9
$PLINEGEN
 70
     0
  9
$PSLTSCALE
 70
     1
  0
ENDSEC
  0
SECTION
  2
TABLES
  0
TABLE
  2
VPORT
 70
     1
  0
VPORT
  2
*ACTIVE
 70
     0
 10
0.0
 20
0.0
 11
1.0
 21
1.0
 12
244.3727716653262121
 22
-4.5087096597425553
 13
0.0
 23
0.0
 14
1.0
 24
1.0
 15
0.0
 25
0.0
 16
-0.0000000000000142
 26
0.0
 36
39.3282560748450578
 17
95.3242609977377526
 27
7.0363320112228394
 37
0.0
 40
8.8463246114621548
 41
2.7266187050359711
 42
50.0
 43
0.0
 44
0.0
 50
0.0
 51
0.0
 71
     0
 72
   100
 73
     1
 74
     1
 75
     0
 76
     0
 77
     0
 78
     0
  0
ENDTAB
  0
TABLE
  2
LTYPE
 70
     2
  0
LTYPE
  2
CONTINUOUS
 70
     0
  3
Solid line
 72
    65
 73
     0
 40
0.0
  0
LTYPE
  2
PHANTOM2
 70
     0
  3
___ _ _ ___ _ _ ___ _ _ ___ _ _
 72
    65
 73
     6
 40
1.25
 49
0.625
 49
-0.125
 49
0.125
 49
-0.125
 49
0.125
 49
-0.125
  0
ENDTAB
  0
TABLE
  2
LAYER
 70
     2
  0
LAYER
  2
0
 70
     0
 62
   255
  6
CONTINUOUS
  0
LAYER
  2
DEFPOINTS
 70
     0
 62
     7
  6
CONTINUOUS
  0
ENDTAB
  0
TABLE
  2
STYLE
 70
     1
  0
STYLE
  2
STANDARD
 70
     0
 40
0.0
 41
0.8
 50
0.0
 71
     0
 42
0.2
  3
txt
  4

  0
ENDTAB
  0
TABLE
  2
VIEW
 70
     0
  0
ENDTAB
  0
TABLE
  2
UCS
 70
     0
  0
ENDTAB
  0
TABLE
  2
APPID
 70
    10
  0
APPID
  2
ACAD
 70
     0
  0
APPID
  2
ACAD_MLEADERVER
 70
     0
  0
APPID
  2
ACAD_DSTYLE_DIMJAG
 70
     0
  0
APPID
  2
ACAD_DSTYLE_DIMTALN
 70
     0
  0
APPID
  2
ACAD_NAV_VCDISPLAY
 70
     0
  0
APPID
  2
ACAD_EXEMPT_FROM_CAD_STANDARDS
 70
     0
  0
APPID
  2
ACAECLAYERSTANDARD
 70
     0
  0
APPID
  2
ACCMTRANSPARENCY
 70
     0
  0
APPID
  2
DCO15
 70
     0
  0
APPID
  2
ACDBATTR
 70
     0
  0
ENDTAB
  0
TABLE
  2
DIMSTYLE
 70
     1
  0
DIMSTYLE
  2
STANDARD
 70
     0
  3

  4

  5

  6

  7

 40
1.0
 41
0.1875
 42
0.0625
 43
0.38
 44
0.125
 45
0.0
 46
0.0
 47
0.01
 48
0.01
140
0.15625
141
0.09
142
0.0
143
25.3999999999999986
144
1.0
145
0.0
146
1.0
147
0.09
 71
     1
 72
     0
 73
     1
 74
     1
 75
     0
 76
     0
 77
     0
 78
     4
170
     0
171
     2
172
     0
173
     0
174
     0
175
     0
176
     0
177
     0
178
     0
  0
ENDTAB
  0
ENDSEC
  0
SECTION
  2
BLOCKS
  0
BLOCK
  8
0
  2
$MODEL_SPACE
 70
     0
 10
0.0
 20
0.0
 30
0.0
  3
$MODEL_SPACE
  1

  0
ENDBLK
  5
21
  8
0
  0
BLOCK
 67
     1
  8
0
  2
$PAPER_SPACE
 70
     0
 10
0.0
 20
0.0
 30
0.0
  3
$PAPER_SPACE
  1

  0
ENDBLK
  5
1D
 67
     1
  8
0
  0
BLOCK
  8
0
  2
_FILLED
 70
     0
 10
0.0
 20
0.0
 30
0.0
  3
_FILLED
  1

  0
SOLID
  5
9EE8
  8
0
  6
BYBLOCK
 62
     0
 10
0.0
 20
0.0
 30
0.0
 11
-1.0
 21
0.1666666667
 31
0.0
 12
-1.0
 22
-0.1666666667
 32
0.0
 13
-1.0
 23
-0.1666666667
 33
0.0
  0
ENDBLK
  5
9EE9
  8
0
  6
BYBLOCK
 62
     0
  0
ENDSEC
  0
SECTION
  2
ENTITIES
  0
ATTDEF
  5
7A6E
  8
DEFPOINTS
 10
343.3365047651893178
 20
-1.8542221555709091
 30
0.0
 40
0.001
  1
P32711-JST
  3

  2
MODELNUMBER
 70
     0
1001
ACDBATTR
1070
     0
1070
     1
  0
ATTDEF
  5
7A6F
  8
DEFPOINTS
 10
343.3365047651893178
 20
-1.855888822237574
 30
0.0
 40
0.001
  1
002
  3

  2
TRADENAME
 70
     0
1001
ACDBATTR
1070
     0
1070
     1
  0
ATTDEF
  5
7A70
  8
DEFPOINTS
 10
343.3365047651893178
 20
-1.8575554889042389
 30
0.0
 40
0.001
  1
BATH FAUCET
  3

  2
PRODUCT
 70
     0
1001
ACDBATTR
1070
     0
1070
     1
  0
LINE
  5
BC27
  8
0
 10
342.1054076585804182
 20
-1.8525584466090239
 30
0.0
 11
344.5890769443803947
 21
-1.8525584466090239
 31
0.0
  0
LINE
  5
BC28
  8
0
 10
342.0874076585803891
 20
-1.674458446609024
 30
0.0
 11
342.0874076585803891
 21
-1.8345584466090239
 31
0.0
  0
LINE
  5
BC29
  8
0
 10
342.1349076585804028
 20
-1.6269584466090239
 30
0.0
 11
344.5595769443804102
 21
-1.6269584466090239
 31
0.0
  0
ARC
  5
BC2A
  8
0
 10
342.1349076585804028
 20
-1.6744584466090271
 30
0.0
 40
0.0475
 50
90.0000000000032543
 51
179.9999999999959925
  0
ARC
  5
BC2B
  8
0
 10
342.1054076585804182
 20
-1.8345584466090239
 30
0.0
 40
0.018
 50
179.9999999999988916
 51
270.0000000000227942
  0
LINE
  5
BC2C
  8
0
 10
342.6272501782804056
 20
-1.6149584466090241
 30
0.0
 11
342.6272501782804056
 21
1.1746548377909749
 31
0.0
  0
LINE
  5
BC2D
  8
0
 10
342.6272501782804056
 20
1.845411132990975
 30
0.0
 11
342.6272501782804056
 21
5.3054179312909753
 31
0.0
  0
ARC
  5
BC2E
  8
0
 10
342.6392501782804061
 20
-1.614958446609025
 30
0.0
 40
0.012
 50
179.9999999999961062
 51
270.0
  0
LINE
  5
BC2F
  8
0
 10
342.15924230150722
 20
1.1746548377909749
 30
0.0
 11
342.680195060180381
 21
1.1746548377909749
 31
0.0
  0
LINE
  5
BC30
  8
0
 10
342.8381950601803965
 20
-1.6149584466090241
 30
0.0
 11
342.8381950601803965
 21
0.6063171438909764
 31
0.0
  0
LINE
  5
BC31
  8
0
 10
342.8381950601803965
 20
0.6480100572909749
 30
0.0
 11
342.8381950601803965
 21
1.016654837790975
 31
0.0
  0
ARC
  5
BC32
  8
0
 10
342.826195060180396
 20
-1.614958446609023
 30
0.0
 40
0.012
 50
269.9999999999837996
 51
359.9999999999952252
  0
LINE
  5
BC33
  8
0
 10
342.8501950601803969
 20
0.6183171438909758
 30
0.0
 11
343.844289542780416
 21
0.6183171438909758
 31
0.0
  0
LINE
  5
BC34
  8
0
 10
342.8481950601803874
 20
0.6380100572909752
 30
0.0
 11
343.8462895427804256
 21
0.6380100572909752
 31
0.0
  0
LINE
  5
BC35
  8
0
 10
342.8925257687803878
 20
0.6380100572909752
 30
0.0
 11
342.8925257687803878
 21
0.6183171438909758
 31
0.0
  0
ARC
  5
BC36
  8
0
 10
342.8481950601803874
 20
0.6480100572909722
 30
0.0
 40
0.01
 50
179.999999999982208
 51
270.000000000019611
  0
ARC
  5
BC37
  8
0
 10
342.8501950601803969
 20
0.6063171438909745
 30
0.0
 40
0.012
 50
90.0
 51
179.9999999999915019
  0
ARC
  5
BC38
  8
0
 10
342.680195060180381
 20
1.0166548377909721
 30
0.0
 40
0.158
 50
0.0000000000011196
 51
90.0
  0
LINE
  5
BC39
  8
0
 10
341.7390548572217881
 20
1.593010057290976
 30
0.0
 11
344.9554297457390817
 21
1.593010057290976
 31
0.0
  0
ARC
  5
BC3A
  8
0
 10
342.15924230150722
 20
1.617154837767012
 30
0.0
 40
0.4424999999744798
 50
185.9974780312234941
 51
270.0
  0
ARC
  5
BC3B
  8
0
 10
341.7390548572217881
 20
1.5730100572910091
 30
0.0
 40
0.02
 50
89.9999999999576659
 51
185.9974780248763864
  0
LINE
  5
BC3C
  8
0
 10
341.9857939852975051
 20
1.845411132990975
 30
0.0
 11
344.7086906176633079
 21
1.845411132990975
 31
0.0
  0
ARC
  5
BC3D
  8
0
 10
342.2229987890361826
 20
1.413180351300372
 30
0.0
 40
0.5017009786526002
 50
122.6474610035529054
 51
152.0160822386542065
  0
ARC
  5
BC3E
  8
0
 10
341.9857939852975051
 20
1.7834111329903251
 30
0.0
 40
0.062
 50
90.0000000000879368
 51
122.647461003302098
  0
LINE
  5
BC3F
  8
0
 10
341.7782032133803796
 20
1.641551990888402
 30
0.0
 11
341.7782032133803796
 21
1.6186869135402451
 31
0.0
  0
ARC
  5
BC40
  8
0
 10
341.7932032133800249
 20
1.641551990888459
 30
0.0
 40
0.015
 50
152.0160822380312879
 51
180.0000000002154081
  0
LINE
  5
BC41
  8
0
 10
341.7914893105804026
 20
1.5930100572909749
 30
0.0
 11
341.7795445125357219
 21
1.613684224295324
 31
0.0
  0
ARC
  5
BC42
  8
0
 10
341.7882032133804273
 20
1.6186869135402451
 30
0.0
 40
0.01
 50
180.0
 51
210.0177934966419002
  0
ARC
  5
BC43
  8
0
 10
343.347242301480378
 20
1.617154837790975
 30
0.0
 40
0.4425000000000004
 50
185.9974780276783122
 51
354.0025219723216878
  0
ARC
  5
BC44
  8
0
 10
343.7674297457891157
 20
1.5730100572909751
 30
0.0
 40
0.02
 50
354.0025219723210057
 51
90.0
  0
ARC
  5
BC45
  8
0
 10
342.9270548571716972
 20
1.5730100572909751
 30
0.0
 40
0.02
 50
90.0
 51
185.9974780276776869
  0
ARC
  5
BC46
  8
0
 10
343.4096293826685269
 20
1.414410352587776
 30
0.0
 40
0.4999865109279754
 50
122.5956588824615068
 51
152.071288221130601
  0
LINE
  5
BC47
  8
0
 10
342.9662032133804246
 20
1.6186869135402691
 30
0.0
 11
342.9662032133804246
 21
1.641707059679502
 31
0.0
  0
LINE
  5
BC48
  8
0
 10
342.9794893105803908
 20
1.5930100572909749
 30
0.0
 11
342.9675445125357101
 21
1.6136842242953531
 31
0.0
  0
ARC
  5
BC49
  8
0
 10
342.9762032133804155
 20
1.6186869135402759
 30
0.0
 40
0.01
 50
180.000000000043201
 51
210.017793496559193
  0
ARC
  5
BC4A
  8
0
 10
342.9812032133788193
 20
1.6417070596797121
 30
0.0
 40
0.0149999999982464
 50
152.6847669528343943
 51
180.0000000007989058
  0
ARC
  5
BC4B
  8
0
 10
343.1736831857990069
 20
1.7834111329915669
 30
0.0
 40
0.062
 50
89.9999999999185718
 51
122.5958586553553005
  0
LINE
  5
BC4C
  8
0
 10
344.6070769443804238
 20
-1.674458446609024
 30
0.0
 11
344.6070769443804238
 21
-1.8345584466090239
 31
0.0
  0
ARC
  5
BC4D
  8
0
 10
344.5595769443804102
 20
-1.6744584466090271
 30
0.0
 40
0.0475
 50
0.0000000000039693
 51
89.9999999999967457
  0
ARC
  5
BC4E
  8
0
 10
344.5890769443803947
 20
-1.8345584466090239
 30
0.0
 40
0.018
 50
269.9999999999772058
 51
0.0000000000010178
  0
LINE
  5
BC4F
  8
0
 10
344.0672344246804073
 20
-1.6149584466090241
 30
0.0
 11
344.0672344246804073
 21
1.1746548377909749
 31
0.0
  0
LINE
  5
BC50
  8
0
 10
344.0672344246804073
 20
1.845411132990975
 30
0.0
 11
344.0672344246804073
 21
6.7981775121148891
 31
0.0
  0
ARC
  5
BC51
  8
0
 10
344.0552344246804068
 20
-1.614958446609025
 30
0.0
 40
0.012
 50
270.0
 51
0.0000000000038676
  0
LINE
  5
BC52
  8
0
 10
344.535242301453593
 20
1.1746548377909749
 30
0.0
 11
344.0142895427804888
 21
1.1746548377909749
 31
0.0
  0
LINE
  5
BC53
  8
0
 10
343.8562895427804165
 20
-1.6149584466090241
 30
0.0
 11
343.8562895427804165
 21
0.6063171438909764
 31
0.0
  0
LINE
  5
BC54
  8
0
 10
343.8562895427804165
 20
0.6480100572909749
 30
0.0
 11
343.8562895427804165
 21
1.016654837790975
 31
0.0
  0
ARC
  5
BC55
  8
0
 10
343.8682895427804169
 20
-1.614958446609023
 30
0.0
 40
0.012
 50
180.0000000000046896
 51
270.0000000000163141
  0
LINE
  5
BC56
  8
0
 10
343.8019588341804251
 20
0.6380100572909752
 30
0.0
 11
343.8019588341804251
 21
0.6183171438909758
 31
0.0
  0
ARC
  5
BC57
  8
0
 10
343.8462895427804256
 20
0.6480100572909722
 30
0.0
 40
0.01
 50
269.999999999980389
 51
0.0000000000178111
  0
ARC
  5
BC58
  8
0
 10
343.844289542780416
 20
0.6063171438909745
 30
0.0
 40
0.012
 50
0.0000000000084476
 51
90.0
  0
ARC
  5
BC59
  8
0
 10
344.0142895427804888
 20
1.0166548377909721
 30
0.0
 40
0.158
 50
90.0
 51
179.9999999999988916
  0
ARC
  5
BC5A
  8
0
 10
344.535242301453593
 20
1.617154837767012
 30
0.0
 40
0.4424999999744798
 50
270.0
 51
354.0025219687763069
  0
ARC
  5
BC5B
  8
0
 10
344.9554297457390817
 20
1.5730100572910091
 30
0.0
 40
0.02
 50
354.0025219751236136
 51
90.0000000000390656
  0
ARC
  5
BC5C
  8
0
 10
344.4714858139245734
 20
1.413180351300372
 30
0.0
 40
0.5017009786526002
 50
27.9839177613457615
 51
57.3525389964470307
  0
ARC
  5
BC5D
  8
0
 10
344.7086906176633079
 20
1.7834111329903251
 30
0.0
 40
0.062
 50
57.3525389966977528
 51
89.9999999999120632
  0
LINE
  5
BC5E
  8
0
 10
344.9162813895803765
 20
1.641551990888402
 30
0.0
 11
344.9162813895803765
 21
1.6186869135402451
 31
0.0
  0
ARC
  5
BC5F
  8
0
 10
344.9012813895809018
 20
1.641551990888459
 30
0.0
 40
0.015
 50
359.9999999997845066
 51
27.983917761968641
  0
LINE
  5
BC60
  8
0
 10
344.9029952923804103
 20
1.5930100572909749
 30
0.0
 11
344.9149400904250911
 21
1.613684224295324
 31
0.0
  0
ARC
  5
BC61
  8
0
 10
344.9062813895803856
 20
1.6186869135402451
 30
0.0
 40
0.01
 50
329.9822065033579861
 51
0.0
  0
ARC
  5
BC62
  8
0
 10
343.2848552202913766
 20
1.41441035258668
 30
0.0
 40
0.4999865109293922
 50
27.9287117789312092
 51
57.4043411175185483
  0
LINE
  5
BC63
  8
0
 10
343.7282813895803883
 20
1.6186869135402691
 30
0.0
 11
343.7282813895803883
 21
1.641707059679502
 31
0.0
  0
LINE
  5
BC64
  8
0
 10
343.7149952923804221
 20
1.5930100572909749
 30
0.0
 11
343.7269400904252166
 21
1.6136842242953531
 31
0.0
  0
ARC
  5
BC65
  8
0
 10
343.7182813895803974
 20
1.6186869135402759
 30
0.0
 40
0.01
 50
329.9822065034409206
 51
359.9999999999566853
  0
ARC
  5
BC66
  8
0
 10
343.713281389580402
 20
1.6417070596795069
 30
0.0
 40
0.0149999999999224
 50
359.9999999999830038
 51
27.3152330449276093
  0
ARC
  5
BC67
  8
0
 10
343.5208014171618061
 20
1.7834111329915669
 30
0.0
 40
0.062
 50
57.4041413446446711
 51
90.000000000081414
  0
LINE
  5
BC68
  8
0
 10
341.7799570233831901
 20
1.6485903465607019
 30
0.0
 11
344.9145275795771113
 21
1.6485903465607019
 31
0.0
  0
LINE
  5
BC69
  8
0
 10
341.7795445125357219
 20
1.613684224295324
 30
0.0
 11
344.9149400904250911
 21
1.613684224295324
 31
0.0
  0
ARC
  5
BC6A
  8
0
 10
343.8487286569284151
 20
-1.092051447991127
 30
0.0
 40
0.0704117242785121
 50
34.5919897851849925
 51
83.8356327436935658
  0
ARC
  5
BC6B
  8
0
 10
343.7696022558051254
 20
-1.1443329924467569
 30
0.0
 40
0.1652422879058637
 50
5.1803606822429886
 51
33.9389518212559906
  0
ARC
  5
BC6C
  8
0
 10
343.721823402972575
 20
-1.156065205886283
 30
0.0
 40
0.2140122480679324
 50
341.3473817830558232
 51
7.1539371588832834
  0
ARC
  5
BC6D
  8
0
 10
343.8319925534722188
 20
-1.198986519016273
 30
0.0
 40
0.0960559040486544
 50
296.8376405838403116
 51
344.5889257271729775
  0
ARC
  5
BC6E
  8
0
 10
343.850946442519728
 20
-1.2258558242216211
 30
0.0
 40
0.0637034373190826
 50
274.8113130398851922
 51
292.5327405873085809
  0
ARC
  5
BC6F
  8
0
 10
343.8561886677824191
 20
-1.084782156150996
 30
0.0
 40
0.0708163175958196
 50
48.4930059984370274
 51
89.9183844374812651
  0
ARC
  5
BC70
  8
0
 10
343.8138839986108906
 20
-1.1255809989466681
 30
0.0
 40
0.1294886024033121
 50
12.6524986151337906
 51
46.43812482898187
  0
ARC
  5
BC71
  8
0
 10
343.7086131605450987
 20
-1.1557512154990119
 30
0.0
 40
0.238896687555157
 50
346.337333907206812
 51
14.1826672017025803
  0
ARC
  5
BC72
  8
0
 10
343.7970748886835963
 20
-1.1787534753646449
 30
0.0
 40
0.1475120787711272
 50
323.8183544662792883
 51
346.9029769595489938
  0
ARC
  5
BC73
  8
0
 10
343.8475356994198933
 20
-1.2142058427992539
 30
0.0
 40
0.0858614858073462
 50
300.7993558309092919
 51
323.0348906898448149
  0
ARC
  5
BC74
  8
0
 10
343.8565372679038887
 20
-1.2282304652856051
 30
0.0
 40
0.0692079079605076
 50
269.7949131134935215
 51
300.3432180171047889
  0
LINE
  5
BC75
  8
0
 10
336.9418061638032214
 20
6.1164179312909752
 30
0.0
 11
341.816250178280427
 21
6.1164179312909752
 31
0.0
  0
LINE
  5
BC76
  8
0
 10
335.1189037215804092
 20
6.9124021832909754
 30
0.0
 11
343.3472501782803761
 21
6.9124021832909754
 31
0.0
  0
ARC
  5
BC77
  8
0
 10
335.1189037215804092
 20
6.8364179312909812
 30
0.0
 40
0.7200000000000119
 50
183.2391331383707893
 51
269.0876168826202957
  0
ARC
  5
BC78
  8
0
 10
335.1189037215804092
 20
3.4631768966909631
 30
0.0
 40
3.4492252866000128
 50
90.0
 51
101.3905516648001992
  0
ARC
  5
BC79
  8
0
 10
334.446978902950093
 20
6.7983911235269634
 30
0.0
 40
0.047
 50
101.3905516647970018
 51
183.239133138370704
  0
LINE
  5
BC7A
  8
0
 10
335.1131912119145113
 20
6.1188196357969762
 30
0.0
 11
335.1274131529561942
 21
6.1328825609360251
 31
0.0
  0
ARC
  5
BC7B
  8
0
 10
335.1075662490678724
 20
6.1245082026616053
 30
0.0
 40
0.008
 50
269.0876168823563717
 51
314.6778897926574246
  0
ARC
  5
BC7C
  8
0
 10
335.2941997832319885
 20
5.8212296175682541
 30
0.0
 40
0.3534760771941367
 50
109.7626364684351046
 51
118.1542569182822007
  0
ARC
  5
BC7D
  8
0
 10
335.3488482947017815
 20
5.677000988520347
 30
0.0
 40
0.5076948221827501
 50
100.0367855711836995
 51
110.0631240687334014
  0
LINE
  5
BC7E
  8
0
 10
335.3254071344271097
 20
6.1367365196409764
 30
0.0
 11
336.7238739863336718
 21
6.1367365196409764
 31
0.0
  0
LINE
  5
BC7F
  8
0
 10
335.3373126036530039
 20
6.1846402563909768
 30
0.0
 11
336.7119685171077776
 21
6.1846402563909768
 31
0.0
  0
ARC
  5
BC80
  8
0
 10
335.3486094310389944
 20
5.6802753186676389
 30
0.0
 40
0.50442908445386
 50
95.0697756620489258
 51
100.0748870600714042
  0
ARC
  5
BC81
  8
0
 10
335.3536862985266112
 20
5.6082586524849631
 30
0.0
 40
0.5766141267824472
 50
91.6272055989397813
 51
94.9399018669841155
  0
LINE
  5
BC82
  8
0
 10
335.1404890610804159
 20
6.1370444342250003
 30
0.0
 11
335.1404890610804159
 21
6.1395350542861902
 31
0.0
  0
LINE
  5
BC83
  8
0
 10
335.1484890610803973
 20
6.1290444342249986
 30
0.0
 11
335.1796871027513021
 21
6.1290444342249986
 31
0.0
  0
ARC
  5
BC84
  8
0
 10
335.1484890610803973
 20
6.1370444342250021
 30
0.0
 40
0.008
 50
180.0000000000190141
 51
269.9999999999739089
  0
LINE
  5
BC85
  8
0
 10
335.2941005719803798
 20
6.1318195060909746
 30
0.0
 11
335.2941005719803798
 21
6.1331286223497461
 31
0.0
  0
LINE
  5
BC86
  8
0
 10
335.2861005719803984
 20
6.1238195060909737
 30
0.0
 11
335.1929738639825018
 21
6.1238195060909737
 31
0.0
  0
ARC
  5
BC87
  8
0
 10
335.2861005719803984
 20
6.1318195060909773
 30
0.0
 40
0.008
 50
270.0000000000259774
 51
359.9999999999935767
  0
ARC
  5
BC88
  8
0
 10
335.193810384863923
 20
6.1317829873168348
 30
0.0
 40
0.00800729669861
 50
202.0406876163625043
 51
264.0033782460083103
  0
ARC
  5
BC89
  8
0
 10
335.1783274598333833
 20
6.010384920894011
 30
0.0
 40
0.1186673027114502
 50
85.0183203834399137
 51
89.3435133048119212
  0
ARC
  5
BC8A
  8
0
 10
335.1869896828504807
 20
6.1062988872694737
 30
0.0
 40
0.0223654668391305
 50
73.8751241489498653
 51
85.7884220565193942
  0
LINE
  5
BC8B
  8
0
 10
335.1937068711804955
 20
6.1238195060909737
 30
0.0
 11
335.1937068711804955
 21
6.1271120056793178
 31
0.0
  0
ARC
  5
BC8C
  8
0
 10
335.1930068711794206
 20
6.1271120056789821
 30
0.0
 40
0.0007
 50
0.0000000274073231
 51
73.8751240772830329
  0
ARC
  5
BC8D
  8
0
 10
335.3309261331411903
 20
5.9918946867975569
 30
0.0
 40
0.1434700413079157
 50
96.8161246170970458
 51
104.9162328307694025
  0
ARC
  5
BC8E
  8
0
 10
335.3560239377886205
 20
5.7819208015330288
 30
0.0
 40
0.3549385550190533
 50
91.5074329746720139
 51
96.8161246170970458
  0
ARC
  5
BC8F
  8
0
 10
335.3018019631878133
 20
6.1011214490249461
 30
0.0
 40
0.032920670873678
 50
101.3678111183142931
 51
117.4951023447630973
  0
ARC
  5
BC90
  8
0
 10
335.28692655618039
 20
6.1297028047992903
 30
0.0
 40
0.0007
 50
117.4951023446746063
 51
180.0
  0
ARC
  5
BC91
  8
0
 10
335.3220809081502125
 20
6.0096913119694788
 30
0.0
 40
0.1265679133703327
 50
96.3417627114517501
 51
102.2096742409174936
  0
ARC
  5
BC92
  8
0
 10
335.3316407991865731
 20
5.9302898184369477
 30
0.0
 40
0.2065407926157895
 50
91.7295224015646511
 51
96.5444917131022606
  0
LINE
  5
BC93
  8
0
 10
335.2862265561803952
 20
6.1297028047992903
 30
0.0
 11
335.2862265561803952
 21
6.1238204981536528
 31
0.0
  0
LINE
  5
BC94
  8
0
 10
335.3283496799805903
 20
6.1728379453909747
 30
0.0
 11
336.7209314407800775
 21
6.1728379453909747
 31
0.0
  0
ARC
  5
BC95
  8
0
 10
335.3555049734114277
 20
5.6093296312640168
 30
0.0
 40
0.5641622373497862
 50
92.7589317841220833
 51
101.0821873409842055
  0
ARC
  5
BC96
  8
0
 10
335.3380363229018144
 20
5.7061243559790693
 30
0.0
 40
0.4658170220680642
 50
101.2620978067861017
 51
110.8130944477159971
  0
ARC
  5
BC97
  8
0
 10
335.2093630888289226
 20
6.0413579048655128
 30
0.0
 40
0.1067453731336134
 50
110.1897995682560065
 51
124.7692804721691999
  0
LINE
  5
BC98
  8
0
 10
336.9361812009565824
 20
6.1187293644262786
 30
0.0
 11
336.9218679678045874
 21
6.1328825609360251
 31
0.0
  0
ARC
  5
BC99
  8
0
 10
336.755081337528793
 20
5.8212296175682541
 30
0.0
 40
0.3534760771941367
 50
61.8457430817178277
 51
70.2373635315617975
  0
ARC
  5
BC9A
  8
0
 10
336.7004328260591137
 20
5.677000988520347
 30
0.0
 40
0.5076948221827501
 50
69.936875931266556
 51
79.9632144288162579
  0
ARC
  5
BC9B
  8
0
 10
336.7006716897217871
 20
5.6802753186676389
 30
0.0
 40
0.50442908445386
 50
79.9251129399285816
 51
84.9302243379510742
  0
ARC
  5
BC9C
  8
0
 10
336.6955948222342272
 20
5.6082586524849631
 30
0.0
 40
0.5766141267824472
 50
85.0600981330158987
 51
88.3727944010602045
  0
LINE
  5
BC9D
  8
0
 10
336.9087920596804224
 20
6.1370444342250003
 30
0.0
 11
336.9087920596804224
 21
6.1395350542861902
 31
0.0
  0
LINE
  5
BC9E
  8
0
 10
336.9007920596803842
 20
6.1290444342249986
 30
0.0
 11
336.8695940180095931
 21
6.1290444342249986
 31
0.0
  0
ARC
  5
BC9F
  8
0
 10
336.9007920596803842
 20
6.1370444342250021
 30
0.0
 40
0.008
 50
270.0000000000259774
 51
359.9999999999810143
  0
LINE
  5
BCA0
  8
0
 10
336.7551805487804018
 20
6.1318195060909746
 30
0.0
 11
336.7551805487804018
 21
6.1331286223497461
 31
0.0
  0
LINE
  5
BCA1
  8
0
 10
336.7631805487803831
 20
6.1238195060909737
 30
0.0
 11
336.8563072567782797
 21
6.1238195060909737
 31
0.0
  0
ARC
  5
BCA2
  8
0
 10
336.7631805487803831
 20
6.1318195060909773
 30
0.0
 40
0.008
 50
180.0000000000063096
 51
269.9999999999739089
  0
ARC
  5
BCA3
  8
0
 10
336.8554707358969722
 20
6.1317829873168348
 30
0.0
 40
0.00800729669861
 50
275.9966217539916897
 51
337.9593123836374957
  0
ARC
  5
BCA4
  8
0
 10
336.8709536609273982
 20
6.010384920894011
 30
0.0
 40
0.1186673027114502
 50
90.6564866951880646
 51
94.9816796165600863
  0
ARC
  5
BCA5
  8
0
 10
336.8622914379103008
 20
6.1062988872694737
 30
0.0
 40
0.0223654668391305
 50
94.2115779434806058
 51
106.1248758510501062
  0
LINE
  5
BCA6
  8
0
 10
336.8555742495803997
 20
6.1238195060909737
 30
0.0
 11
336.8555742495803997
 21
6.1271120056793178
 31
0.0
  0
ARC
  5
BCA7
  8
0
 10
336.8562742495814177
 20
6.1271120056789821
 30
0.0
 40
0.0007
 50
106.1248759227169955
 51
179.9999999725926898
  0
ARC
  5
BCA8
  8
0
 10
336.7183549876195912
 20
5.9918946867975569
 30
0.0
 40
0.1434700413079157
 50
75.0837671692305832
 51
83.1838753829029685
  0
ARC
  5
BCA9
  8
0
 10
336.6932571829722178
 20
5.7819208015330288
 30
0.0
 40
0.3549385550190533
 50
83.1838753829029685
 51
88.4925670253279861
  0
ARC
  5
BCAA
  8
0
 10
336.7474791575730251
 20
6.1011214490249461
 30
0.0
 40
0.032920670873678
 50
62.5048976552369027
 51
78.6321888816857211
  0
ARC
  5
BCAB
  8
0
 10
336.7623545645803915
 20
6.1297028047992903
 30
0.0
 40
0.0007
 50
0.0
 51
62.5048976553253226
  0
ARC
  5
BCAC
  8
0
 10
336.7272002126106258
 20
6.0096913119694788
 30
0.0
 40
0.1265679133703327
 50
77.7903257590824921
 51
83.6582372885482641
  0
ARC
  5
BCAD
  8
0
 10
336.7176403215743221
 20
5.9302898184369477
 30
0.0
 40
0.2065407926157895
 50
83.4555082868977252
 51
88.2704775984353631
  0
LINE
  5
BCAE
  8
0
 10
336.7630545645803863
 20
6.1297028047992903
 30
0.0
 11
336.7630545645803863
 21
6.1238204981536528
 31
0.0
  0
ARC
  5
BCAF
  8
0
 10
336.6937761473494106
 20
5.6093296312640168
 30
0.0
 40
0.5641622373497862
 50
78.9178126590158087
 51
87.2410682158811568
  0
ARC
  5
BCB0
  8
0
 10
336.7112447978590808
 20
5.7061243559790693
 30
0.0
 40
0.4658170220680642
 50
69.1869055522839318
 51
78.7379021932138699
  0
ARC
  5
BCB1
  8
0
 10
336.8399180319319157
 20
6.0413579048655128
 30
0.0
 40
0.1067453731336134
 50
55.230719527830729
 51
69.8102004317439935
  0
ARC
  5
BCB2
  8
0
 10
336.9418061638032214
 20
6.1244179312909832
 30
0.0
 40
0.008
 50
225.3221102075360989
 51
270.0
  0
ARC
  5
BCB3
  8
0
 10
341.816250178280427
 20
5.3054179312909779
 30
0.0
 40
0.8110000000000001
 50
359.9999999999997726
 51
90.0
  0
ARC
  5
BCB4
  8
0
 10
343.3461754619896737
 20
3.4416054453545089
 30
0.0
 40
3.4707969043269471
 50
78.6450033811242264
 51
89.9822586252342234
  0
ARC
  5
BCB5
  8
0
 10
344.0197621816495825
 20
6.7980089097610046
 30
0.0
 40
0.0474725424338297
 50
0.203490757117281
 51
78.1244963339183442
  0
LINE
  5
BCB7
  8
0
 10
334.4000539899105888
 20
6.79573546236068
 30
0.0
 11
344.0672344246804073
 21
6.79573546236068
 31
0.0
  0
ENDSEC
  0
EOF
