  0
SECTION
  2
HEADER
  9
$ACADVER
  1
AC1009
  9
$INSBASE
 10
371.8667557578538094
 20
7.9532931222101118
 30
0.0
  9
$EXTMIN
 10
366.2202028908728266
 20
-0.9942452535214449
 30
-0.0000000349181948
  9
$EXTMAX
 10
377.5101391581824828
 20
9.5818122331261435
 30
0.0000000814935746
  9
$LIMMIN
 10
0.0
 20
0.0
  9
$LIMMAX
 10
11.6929133858000007
 20
8.2677165353999982
  9
$ORTHOMODE
 70
     0
  9
$REGENMODE
 70
     1
  9
$FILLMODE
 70
     1
  9
$QTEXTMODE
 70
     0
  9
$MIRRTEXT
 70
     0
  9
$DRAGMODE
 70
     2
  9
$LTSCALE
 40
0.6431102362
  9
$OSMODE
 70
  4095
  9
$ATTMODE
 70
     1
  9
$TEXTSIZE
 40
0.2
  9
$TRACEWID
 40
0.05
  9
$TEXTSTYLE
  7
STANDARD
  9
$CLAYER
  8
0
  9
$CELTYPE
  6
BYLAYER
  9
$CECOLOR
 62
   256
  9
$DIMSCALE
 40
1.0
  9
$DIMASZ
 40
0.1875
  9
$DIMEXO
 40
0.0625
  9
$DIMDLI
 40
0.4443307087
  9
$DIMRND
 40
0.0
  9
$DIMDLE
 40
0.0
  9
$DIMEXE
 40
0.125
  9
$DIMTP
 40
0.01
  9
$DIMTM
 40
0.01
  9
$DIMTXT
 40
0.15625
  9
$DIMCEN
 40
0.1052362205
  9
$DIMTSZ
 40
0.0
  9
$DIMTOL
 70
     1
  9
$DIMLIM
 70
     0
  9
$DIMTIH
 70
     1
  9
$DIMTOH
 70
     1
  9
$DIMSE1
 70
     0
  9
$DIMSE2
 70
     0
  9
$DIMTAD
 70
     0
  9
$DIMZIN
 70
     0
  9
$DIMBLK
  1

  9
$DIMASO
 70
     1
  9
$DIMSHO
 70
     1
  9
$DIMPOST
  1
\X
  9
$DIMAPOST
  1

  9
$DIMALT
 70
     1
  9
$DIMALTD
 70
     2
  9
$DIMALTF
 40
25.3999999999999986
  9
$DIMLFAC
 40
1.0
  9
$DIMTOFL
 70
     0
  9
$DIMTVP
 40
0.0
  9
$DIMTIX
 70
     0
  9
$DIMSOXD
 70
     0
  9
$DIMSAH
 70
     0
  9
$DIMBLK1
  1

  9
$DIMBLK2
  1

  9
$DIMSTYLE
  2
STANDARD
  9
$DIMCLRD
 70
     0
  9
$DIMCLRE
 70
     0
  9
$DIMCLRT
 70
     0
  9
$DIMTFAC
 40
1.0
  9
$DIMGAP
 40
0.09
  9
$LUNITS
 70
     2
  9
$LUPREC
 70
     4
  9
$SKETCHINC
 40
0.1
  9
$FILLETRAD
 40
0.0
  9
$AUNITS
 70
     0
  9
$AUPREC
 70
     0
  9
$MENU
  1
.
  9
$ELEVATION
 40
0.0
  9
$PELEVATION
 40
0.0
  9
$THICKNESS
 40
0.0
  9
$LIMCHECK
 70
     0
  9
$BLIPMODE
 70
     0
  9
$CHAMFERA
 40
0.0
  9
$CHAMFERB
 40
0.0
  9
$SKPOLY
 70
     0
  9
$TDCREATE
 40
2458018.639108797069639
  9
$TDUPDATE
 40
2460201.6674189809709787
  9
$TDINDWG
 40
0.3994787037
  9
$TDUSRTIMER
 40
0.3994787037
  9
$USRTIMER
 70
     1
  9
$ANGBASE
 50
0.0
  9
$ANGDIR
 70
     0
  9
$PDMODE
 70
     0
  9
$PDSIZE
 40
0.3125
  9
$PLINEWID
 40
0.0
  9
$COORDS
 70
     1
  9
$SPLFRAME
 70
     0
  9
$SPLINETYPE
 70
     6
  9
$SPLINESEGS
 70
     8
  9
$ATTDIA
 70
     1
  9
$ATTREQ
 70
     1
  9
$HANDLING
 70
     1
  9
$HANDSEED
  5
C245
  9
$SURFTAB1
 70
     6
  9
$SURFTAB2
 70
     6
  9
$SURFTYPE
 70
     6
  9
$SURFU
 70
     6
  9
$SURFV
 70
     6
  9
$UCSNAME
  2

  9
$UCSORG
 10
0.0
 20
0.0
 30
0.0
  9
$UCSXDIR
 10
1.0
 20
0.0
 30
0.0
  9
$UCSYDIR
 10
0.0
 20
1.0
 30
0.0
  9
$PUCSNAME
  2

  9
$PUCSORG
 10
0.0
 20
0.0
 30
0.0
  9
$PUCSXDIR
 10
1.0
 20
0.0
 30
0.0
  9
$PUCSYDIR
 10
0.0
 20
1.0
 30
0.0
  9
$USERI1
 70
     0
  9
$USERI2
 70
     0
  9
$USERI3
 70
     0
  9
$USERI4
 70
     0
  9
$USERI5
 70
     0
  9
$USERR1
 40
0.0
  9
$USERR2
 40
0.0
  9
$USERR3
 40
0.0
  9
$USERR4
 40
0.0
  9
$USERR5
 40
0.0
  9
$WORLDVIEW
 70
     1
  9
$SHADEDGE
 70
     3
  9
$SHADEDIF
 70
    70
  9
$TILEMODE
 70
     1
  9
$MAXACTVP
 70
    64
  9
$PLIMCHECK
 70
     0
  9
$PEXTMIN
 10
1.0000000000000000E+20
 20
1.0000000000000000E+20
 30
1.0000000000000000E+20
  9
$PEXTMAX
 10
-1.0000000000000000E+20
 20
-1.0000000000000000E+20
 30
-1.0000000000000000E+20
  9
$PLIMMIN
 10
0.0
 20
0.0
  9
$PLIMMAX
 10
12.0
 20
9.0
  9
$UNITMODE
 70
     0
  9
$VISRETAIN
 70
     1
  9
$PLINEGEN
 70
     0
  9
$PSLTSCALE
 70
     1
  0
ENDSEC
  0
SECTION
  2
TABLES
  0
TABLE
  2
VPORT
 70
     1
  0
VPORT
  2
*ACTIVE
 70
     0
 10
0.0
 20
0.0
 11
1.0
 21
1.0
 12
276.5409100267899021
 22
-2.7425485214204901
 13
0.0
 23
0.0
 14
1.0
 24
1.0
 15
0.0
 25
0.0
 16
-0.0000000000000142
 26
0.0
 36
39.3282560748450578
 17
95.3242609977377526
 27
7.0363320112228394
 37
0.0
 40
10.6672303960152401
 41
2.7266187050359711
 42
50.0
 43
0.0
 44
0.0
 50
0.0
 51
0.0
 71
     0
 72
   100
 73
     1
 74
     1
 75
     0
 76
     0
 77
     0
 78
     0
  0
ENDTAB
  0
TABLE
  2
LTYPE
 70
     2
  0
LTYPE
  2
CONTINUOUS
 70
     0
  3
Solid line
 72
    65
 73
     0
 40
0.0
  0
LTYPE
  2
PHANTOM2
 70
     0
  3
___ _ _ ___ _ _ ___ _ _ ___ _ _
 72
    65
 73
     6
 40
1.25
 49
0.625
 49
-0.125
 49
0.125
 49
-0.125
 49
0.125
 49
-0.125
  0
ENDTAB
  0
TABLE
  2
LAYER
 70
     2
  0
LAYER
  2
0
 70
     0
 62
   255
  6
CONTINUOUS
  0
LAYER
  2
DEFPOINTS
 70
     0
 62
     7
  6
CONTINUOUS
  0
ENDTAB
  0
TABLE
  2
STYLE
 70
     1
  0
STYLE
  2
STANDARD
 70
     0
 40
0.0
 41
0.8
 50
0.0
 71
     0
 42
0.2
  3
txt
  4

  0
ENDTAB
  0
TABLE
  2
VIEW
 70
     0
  0
ENDTAB
  0
TABLE
  2
UCS
 70
     0
  0
ENDTAB
  0
TABLE
  2
APPID
 70
    10
  0
APPID
  2
ACAD
 70
     0
  0
APPID
  2
ACAD_MLEADERVER
 70
     0
  0
APPID
  2
ACAD_DSTYLE_DIMJAG
 70
     0
  0
APPID
  2
ACAD_DSTYLE_DIMTALN
 70
     0
  0
APPID
  2
ACAD_NAV_VCDISPLAY
 70
     0
  0
APPID
  2
ACAD_EXEMPT_FROM_CAD_STANDARDS
 70
     0
  0
APPID
  2
ACAECLAYERSTANDARD
 70
     0
  0
APPID
  2
ACCMTRANSPARENCY
 70
     0
  0
APPID
  2
DCO15
 70
     0
  0
APPID
  2
ACDBATTR
 70
     0
  0
ENDTAB
  0
TABLE
  2
DIMSTYLE
 70
     1
  0
DIMSTYLE
  2
STANDARD
 70
     0
  3

  4

  5

  6

  7

 40
1.0
 41
0.1875
 42
0.0625
 43
0.38
 44
0.125
 45
0.0
 46
0.0
 47
0.01
 48
0.01
140
0.15625
141
0.09
142
0.0
143
25.3999999999999986
144
1.0
145
0.0
146
1.0
147
0.09
 71
     1
 72
     0
 73
     1
 74
     1
 75
     0
 76
     0
 77
     0
 78
     4
170
     0
171
     2
172
     0
173
     0
174
     0
175
     0
176
     0
177
     0
178
     0
  0
ENDTAB
  0
ENDSEC
  0
SECTION
  2
BLOCKS
  0
BLOCK
  8
0
  2
$MODEL_SPACE
 70
     0
 10
0.0
 20
0.0
 30
0.0
  3
$MODEL_SPACE
  1

  0
ENDBLK
  5
21
  8
0
  0
BLOCK
 67
     1
  8
0
  2
$PAPER_SPACE
 70
     0
 10
0.0
 20
0.0
 30
0.0
  3
$PAPER_SPACE
  1

  0
ENDBLK
  5
1D
 67
     1
  8
0
  0
BLOCK
  8
0
  2
_FILLED
 70
     0
 10
0.0
 20
0.0
 30
0.0
  3
_FILLED
  1

  0
SOLID
  5
A1C3
  8
0
  6
BYBLOCK
 62
     0
 10
0.0
 20
0.0
 30
0.0
 11
-1.0
 21
0.1666666667
 31
0.0
 12
-1.0
 22
-0.1666666667
 32
0.0
 13
-1.0
 23
-0.1666666667
 33
0.0
  0
ENDBLK
  5
A1C4
  8
0
  6
BYBLOCK
 62
     0
  0
ENDSEC
  0
SECTION
  2
ENTITIES
  0
ATTDEF
  5
7A6E
  8
DEFPOINTS
 10
371.8574023609212986
 20
7.9577062096628586
 30
0.0
 40
0.001
  1
P32711-JST
  3

  2
MODELNUMBER
 70
     0
1001
ACDBATTR
1070
     0
1070
     1
  0
ATTDEF
  5
7A6F
  8
DEFPOINTS
 10
371.8574023609212986
 20
7.9560395429961943
 30
0.0
 40
0.001
  1
002
  3

  2
TRADENAME
 70
     0
1001
ACDBATTR
1070
     0
1070
     1
  0
ATTDEF
  5
7A70
  8
DEFPOINTS
 10
371.8574023609212986
 20
7.9543728763295292
 30
0.0
 40
0.001
  1
BATH FAUCET
  3

  2
PRODUCT
 70
     0
1001
ACDBATTR
1070
     0
1070
     1
  0
LINE
  5
BDFB
  8
0
 10
367.4265761796950756
 20
6.7652931222101129
 30
0.0
 11
367.4265761796950756
 21
7.1961130484630358
 31
0.0
  0
ARC
  5
BDFC
  8
0
 10
367.1095761796951251
 20
7.1961130484630358
 30
0.0
 40
0.317
 50
0.0
 51
90.0
  0
LINE
  5
BDFD
  8
0
 10
367.4265761796950756
 20
8.7104735897571857
 30
0.0
 11
367.4265761796950756
 21
9.1412931222101115
 31
0.0
  0
LINE
  5
BDFE
  8
0
 10
367.4857245359037847
 20
6.7652931222101129
 30
0.0
 11
367.4857245359037847
 21
7.1676535278600637
 31
0.0
  0
LINE
  5
BDFF
  8
0
 10
367.4857245359037847
 20
8.7389331103601613
 30
0.0
 11
367.4857245359037847
 21
9.1412931222101115
 31
0.0
  0
LINE
  5
BE00
  8
0
 10
371.1467636239538024
 20
-0.2739781424201197
 30
0.0
 11
371.1467636239538024
 21
7.9532931222101118
 31
0.0
  0
LINE
  5
BE01
  8
0
 10
368.3069510683125145
 20
6.7652931222101129
 30
0.0
 11
368.3069510683125145
 21
7.1961130484630331
 31
0.0
  0
ARC
  5
BE02
  8
0
 10
368.6239510683125218
 20
7.1961130484630331
 30
0.0
 40
0.317
 50
90.0
 51
180.0000000000001137
  0
LINE
  5
BE03
  8
0
 10
368.3069510683125145
 20
8.7104735897571857
 30
0.0
 11
368.3069510683125145
 21
9.1412931222101115
 31
0.0
  0
LINE
  5
BE04
  8
0
 10
368.2478027121038053
 20
6.7652931222101129
 30
0.0
 11
368.2478027121038053
 21
7.167653527860061
 31
0.0
  0
ARC
  5
BE05
  8
0
 10
368.6524027121038216
 20
7.167653527860061
 30
0.0
 40
0.4046000000000001
 50
90.0
 51
179.9999999999998863
  0
LINE
  5
BE06
  8
0
 10
368.2478027121038053
 20
8.7389331103601613
 30
0.0
 11
368.2478027121038053
 21
9.1412931222101115
 31
0.0
  0
ARC
  5
BE07
  8
0
 10
367.866763624003795
 20
9.1412931222101115
 30
0.0
 40
0.3810390881000032
 50
0.0
 51
180.0
  0
ARC
  5
BE08
  8
0
 10
367.8667636239537728
 20
9.1412931222101115
 30
0.0
 40
0.4401874442586831
 50
0.0
 51
180.0
  0
ARC
  5
BE09
  8
0
 10
369.0547629208538183
 20
7.9532933191101121
 30
0.0
 40
0.4401802706470776
 50
270.0
 51
90.0
  0
ARC
  5
BE0A
  8
0
 10
369.0547629208538183
 20
7.9532933191101121
 30
0.0
 40
0.381039791250051
 50
270.0
 51
90.0
  0
ARC
  5
BE0B
  8
0
 10
366.6787643271537718
 20
7.9532933191101121
 30
0.0
 40
0.4401802706470776
 50
90.0
 51
270.0
  0
ARC
  5
BE0C
  8
0
 10
366.6787643271537718
 20
7.9532933191101121
 30
0.0
 40
0.381039791250051
 50
90.0
 51
270.0
  0
LINE
  5
BE0D
  8
0
 10
366.6787643271537718
 20
8.393473589757189
 30
0.0
 11
367.1095761796951251
 21
8.3934735897571855
 31
0.0
  0
ARC
  5
BE0E
  8
0
 10
367.1095761796951251
 20
8.7104735897571857
 30
0.0
 40
0.317
 50
270.0
 51
0.0
  0
LINE
  5
BE0F
  8
0
 10
368.6239510683125218
 20
8.3934735897571855
 30
0.0
 11
369.0547629208538183
 21
8.3934735897571855
 31
0.0
  0
ARC
  5
BE10
  8
0
 10
368.6239510683125218
 20
8.7104735897571857
 30
0.0
 40
0.317
 50
180.0
 51
270.0
  0
LINE
  5
BE11
  8
0
 10
366.6787643271537718
 20
8.3343331103601628
 30
0.0
 11
367.0811245359038253
 21
8.3343331103601628
 31
0.0
  0
ARC
  5
BE12
  8
0
 10
367.0811245359038253
 20
8.7389331103601613
 30
0.0
 40
0.4046000000000001
 50
270.0
 51
0.0
  0
LINE
  5
BE13
  8
0
 10
368.6524027121038216
 20
8.3343331103601628
 30
0.0
 11
369.0547629208538183
 21
8.3343331103601628
 31
0.0
  0
ARC
  5
BE14
  8
0
 10
368.6524027121038216
 20
8.7389331103601613
 30
0.0
 40
0.4046000000000001
 50
180.0
 51
270.0
  0
LINE
  5
BE15
  8
0
 10
366.6787643271537718
 20
7.5722535278600631
 30
0.0
 11
367.0811245359038253
 21
7.5722535278600631
 31
0.0
  0
ARC
  5
BE16
  8
0
 10
367.0811245359038253
 20
7.1676535278600637
 30
0.0
 40
0.4046000000000001
 50
0.0
 51
90.0
  0
LINE
  5
BE17
  8
0
 10
368.6524027121038216
 20
7.5722535278600587
 30
0.0
 11
369.0547629208538183
 21
7.5722535278600587
 31
0.0
  0
LINE
  5
BE18
  8
0
 10
366.6787643271537718
 20
7.513113048463036
 30
0.0
 11
367.1095761796951251
 21
7.513113048463036
 31
0.0
  0
LINE
  5
BE19
  8
0
 10
368.6239510683125218
 20
7.5131130484630333
 30
0.0
 11
369.0547629208538183
 21
7.513113048463036
 31
0.0
  0
ARC
  5
BE1A
  8
0
 10
367.866763624003795
 20
6.7652931222101129
 30
0.0
 40
0.3810390881000032
 50
180.0
 51
0.0
  0
ARC
  5
BE1B
  8
0
 10
367.8667636239537728
 20
6.7652931222101129
 30
0.0
 40
0.4401874442586831
 50
180.0
 51
0.0
  0
ARC
  5
BE1C
  8
0
 10
367.866763624003795
 20
7.9532931222101118
 30
0.0
 40
1.2598346429000029
 50
200.4503223011863042
 51
249.5493199469152898
  0
ARC
  5
BE1D
  8
0
 10
367.866763624003795
 20
7.9532931222101118
 30
0.0
 40
1.2598346429000029
 50
290.4506800530846249
 51
339.5496776988136958
  0
ARC
  5
BE1E
  8
0
 10
367.866763624003795
 20
7.9532931222101118
 30
0.0
 40
1.2598346429000029
 50
20.4503414154067684
 51
69.5493199469153609
  0
ARC
  5
BE1F
  8
0
 10
367.866763624003795
 20
7.9532931222101118
 30
0.0
 40
1.2598346429000029
 50
110.4506800530845965
 51
159.5496585845930042
  0
LINE
  5
BE20
  8
0
 10
367.6595150200537887
 20
9.1412931222101115
 30
0.0
 11
367.6595150200537887
 21
8.7275417165601112
 31
0.0
  0
LINE
  5
BE21
  8
0
 10
367.6595150200537887
 20
7.1790449216601138
 30
0.0
 11
367.6595150200537887
 21
6.7652931222101129
 31
0.0
  0
ARC
  5
BE22
  8
0
 10
367.0925150200537814
 20
7.1790449216601138
 30
0.0
 40
0.5669999999999999
 50
0.0
 51
90.0
  0
LINE
  5
BE23
  8
0
 10
369.0547629208538183
 20
8.1605417165601111
 30
0.0
 11
368.6410122279538086
 21
8.1605417165601111
 31
0.0
  0
ARC
  5
BE24
  8
0
 10
368.6410122279538086
 20
8.7275417165601112
 30
0.0
 40
0.5669999999999999
 50
180.0
 51
270.0
  0
LINE
  5
BE25
  8
0
 10
367.0925150200537814
 20
8.1605417165601111
 30
0.0
 11
366.6787643271537718
 21
8.1605417165601111
 31
0.0
  0
ARC
  5
BE26
  8
0
 10
367.0925150200537814
 20
8.7275417165601112
 30
0.0
 40
0.5669999999999999
 50
270.0
 51
0.0
  0
LINE
  5
BE27
  8
0
 10
368.0740122279538014
 20
9.1412931222101115
 30
0.0
 11
368.0740122279538014
 21
8.7275417165601112
 31
0.0
  0
LINE
  5
BE28
  8
0
 10
368.0740122279538014
 20
7.1790449216601138
 30
0.0
 11
368.0740122279538014
 21
6.7652931222101129
 31
0.0
  0
ARC
  5
BE29
  8
0
 10
368.6410122279538086
 20
7.1790449216601138
 30
0.0
 40
0.5669999999999999
 50
90.0
 51
180.0
  0
LINE
  5
BE2A
  8
0
 10
369.0547629208538183
 20
7.7460449216601139
 30
0.0
 11
368.6410122279538086
 21
7.7460449216601139
 31
0.0
  0
LINE
  5
BE2B
  8
0
 10
367.0925150200537814
 20
7.7460449216601139
 30
0.0
 11
366.6783603112654077
 21
7.7460449216601139
 31
0.0
  0
ARC
  5
BE2C
  8
0
 10
367.866763624003795
 20
9.1412931222101115
 30
0.0
 40
0.207248603950001
 50
0.0
 51
180.0
  0
ARC
  5
BE2D
  8
0
 10
367.866763624003795
 20
6.7652931222101129
 30
0.0
 40
0.207248603950001
 50
180.0
 51
0.0
  0
ARC
  5
BE2E
  8
0
 10
366.6787643271537718
 20
7.9532931222101118
 30
0.0
 40
0.2072485943499984
 50
90.0
 51
270.1116939779300878
  0
ARC
  5
BE2F
  8
0
 10
369.0547629208538183
 20
7.9532933191101121
 30
0.0
 40
0.2072483974499981
 50
270.0
 51
90.0
  0
ARC
  5
BE30
  8
0
 10
371.8667557578538094
 20
7.9532931222101118
 30
0.0
 40
1.2598346535999989
 50
304.8547048831612756
 51
235.1452951168388097
  0
ARC
  5
BE31
  8
0
 10
371.8667557578538094
 20
7.9532931222101118
 30
0.0
 40
0.7199921339000009
 50
0.0
 51
180.0
  0
LINE
  5
BE32
  8
0
 10
372.5867478917538165
 20
-0.2739781424201197
 30
0.0
 11
372.5867478917538165
 21
7.9532931222101118
 31
0.0
  0
ARC
  5
BE33
  8
0
 10
371.8667557578538094
 20
-0.2739781424201197
 30
0.0
 40
0.7199921339000018
 50
180.0
 51
0.0
  0
LINE
  5
BE34
  8
0
 10
376.3069353360124865
 20
6.7652931222101129
 30
0.0
 11
376.3069353360124865
 21
7.1961130484630358
 31
0.0
  0
ARC
  5
BE35
  8
0
 10
376.6239353360124937
 20
7.1961130484630358
 30
0.0
 40
0.317
 50
90.0
 51
179.9999999999998863
  0
LINE
  5
BE36
  8
0
 10
376.3069353360124865
 20
8.7104735897571857
 30
0.0
 11
376.3069353360124865
 21
9.1412931222101115
 31
0.0
  0
LINE
  5
BE37
  8
0
 10
376.2477869798037773
 20
6.7652931222101129
 30
0.0
 11
376.2477869798037773
 21
7.1676535278600637
 31
0.0
  0
LINE
  5
BE38
  8
0
 10
376.2477869798037773
 20
8.7389331103601613
 30
0.0
 11
376.2477869798037773
 21
9.1412931222101115
 31
0.0
  0
LINE
  5
BE39
  8
0
 10
375.4265604473951043
 20
6.7652931222101129
 30
0.0
 11
375.4265604473951043
 21
7.1961130484630331
 31
0.0
  0
ARC
  5
BE3A
  8
0
 10
375.1095604473950971
 20
7.1961130484630331
 30
0.0
 40
0.317
 50
359.9999999999998863
 51
90.0
  0
LINE
  5
BE3B
  8
0
 10
375.4265604473951043
 20
8.7104735897571857
 30
0.0
 11
375.4265604473951043
 21
9.1412931222101115
 31
0.0
  0
LINE
  5
BE3C
  8
0
 10
375.4857088036038135
 20
6.7652931222101129
 30
0.0
 11
375.4857088036038135
 21
7.167653527860061
 31
0.0
  0
ARC
  5
BE3D
  8
0
 10
375.0811088036037972
 20
7.167653527860061
 30
0.0
 40
0.4046000000000001
 50
0.0000000000001018
 51
90.0
  0
LINE
  5
BE3E
  8
0
 10
375.4857088036038135
 20
8.7389331103601613
 30
0.0
 11
375.4857088036038135
 21
9.1412931222101115
 31
0.0
  0
ARC
  5
BE3F
  8
0
 10
375.8667478917038238
 20
9.1412931222101115
 30
0.0
 40
0.3810390881000032
 50
0.0
 51
180.0
  0
ARC
  5
BE40
  8
0
 10
375.8667478917537892
 20
9.1412931222101115
 30
0.0
 40
0.4401874442586831
 50
0.0
 51
180.0
  0
ARC
  5
BE41
  8
0
 10
374.6787485948538006
 20
7.9532933191101121
 30
0.0
 40
0.4401802706470776
 50
90.0
 51
270.0
  0
ARC
  5
BE42
  8
0
 10
374.6787485948538006
 20
7.9532933191101121
 30
0.0
 40
0.381039791250051
 50
90.0
 51
270.0
  0
ARC
  5
BE43
  8
0
 10
377.0547471885537902
 20
7.9532933191101121
 30
0.0
 40
0.4401802706470776
 50
270.0
 51
90.0
  0
ARC
  5
BE44
  8
0
 10
377.0547471885537902
 20
7.9532933191101121
 30
0.0
 40
0.381039791250051
 50
270.0
 51
90.0
  0
LINE
  5
BE45
  8
0
 10
377.0547471885537902
 20
8.393473589757189
 30
0.0
 11
376.6239353360124937
 21
8.3934735897571855
 31
0.0
  0
ARC
  5
BE46
  8
0
 10
376.6239353360124937
 20
8.7104735897571857
 30
0.0
 40
0.317
 50
180.0
 51
270.0
  0
LINE
  5
BE47
  8
0
 10
375.1095604473950971
 20
8.3934735897571855
 30
0.0
 11
374.6787485948538006
 21
8.3934735897571855
 31
0.0
  0
ARC
  5
BE48
  8
0
 10
375.1095604473950971
 20
8.7104735897571857
 30
0.0
 40
0.317
 50
270.0
 51
0.0
  0
LINE
  5
BE49
  8
0
 10
377.0547471885537902
 20
8.3343331103601628
 30
0.0
 11
376.6523869798037936
 21
8.3343331103601628
 31
0.0
  0
ARC
  5
BE4A
  8
0
 10
376.6523869798037936
 20
8.7389331103601613
 30
0.0
 40
0.4046000000000001
 50
180.0
 51
270.0
  0
LINE
  5
BE4B
  8
0
 10
375.0811088036037972
 20
8.3343331103601628
 30
0.0
 11
374.6787485948538006
 21
8.3343331103601628
 31
0.0
  0
ARC
  5
BE4C
  8
0
 10
375.0811088036037972
 20
8.7389331103601613
 30
0.0
 40
0.4046000000000001
 50
270.0
 51
359.9999999999998863
  0
LINE
  5
BE4D
  8
0
 10
377.0547471885537902
 20
7.5722535278600631
 30
0.0
 11
376.6523869798037936
 21
7.5722535278600631
 31
0.0
  0
ARC
  5
BE4E
  8
0
 10
376.6523869798037936
 20
7.1676535278600637
 30
0.0
 40
0.4046000000000001
 50
90.0
 51
180.0
  0
LINE
  5
BE4F
  8
0
 10
375.0811088036037972
 20
7.5722535278600587
 30
0.0
 11
374.6787485948538006
 21
7.5722535278600587
 31
0.0
  0
LINE
  5
BE50
  8
0
 10
377.0547471885537902
 20
7.513113048463036
 30
0.0
 11
376.6239353360124937
 21
7.513113048463036
 31
0.0
  0
LINE
  5
BE51
  8
0
 10
375.1095604473950971
 20
7.5131130484630333
 30
0.0
 11
374.6787485948538006
 21
7.513113048463036
 31
0.0
  0
ARC
  5
BE52
  8
0
 10
375.8667478917038238
 20
6.7652931222101129
 30
0.0
 40
0.3810390881000032
 50
180.0
 51
0.0
  0
ARC
  5
BE53
  8
0
 10
375.8667478917537892
 20
6.7652931222101129
 30
0.0
 40
0.4401874442586831
 50
180.0
 51
0.0
  0
ARC
  5
BE54
  8
0
 10
375.8667478917038238
 20
7.9532931222101118
 30
0.0
 40
1.2598346429000029
 50
290.4506800530846249
 51
339.5496776988136958
  0
ARC
  5
BE55
  8
0
 10
375.8667478917038238
 20
7.9532931222101118
 30
0.0
 40
1.2598346429000029
 50
200.4503223011863042
 51
249.5493199469152898
  0
ARC
  5
BE56
  8
0
 10
375.8667478917038238
 20
7.9532931222101118
 30
0.0
 40
1.2598346429000029
 50
110.4506800530845965
 51
159.5496585845932032
  0
ARC
  5
BE57
  8
0
 10
375.8667478917038238
 20
7.9532931222101118
 30
0.0
 40
1.2598346429000029
 50
20.4503414154069496
 51
69.5493199469153609
  0
LINE
  5
BE58
  8
0
 10
376.0739964956537733
 20
9.1412931222101115
 30
0.0
 11
376.0739964956537733
 21
8.7275417165601112
 31
0.0
  0
LINE
  5
BE59
  8
0
 10
376.0739964956537733
 20
7.1790449216601138
 30
0.0
 11
376.0739964956537733
 21
6.7652931222101129
 31
0.0
  0
ARC
  5
BE5A
  8
0
 10
376.6409964956537806
 20
7.1790449216601138
 30
0.0
 40
0.5669999999999999
 50
90.0
 51
180.0
  0
LINE
  5
BE5B
  8
0
 10
374.6787485948538006
 20
8.1605417165601111
 30
0.0
 11
375.0924992877538102
 21
8.1605417165601111
 31
0.0
  0
ARC
  5
BE5C
  8
0
 10
375.0924992877538102
 20
8.7275417165601112
 30
0.0
 40
0.5669999999999999
 50
270.0
 51
0.0
  0
LINE
  5
BE5D
  8
0
 10
376.6409964956537806
 20
8.1605417165601111
 30
0.0
 11
377.0547471885537902
 21
8.1605417165601111
 31
0.0
  0
ARC
  5
BE5E
  8
0
 10
376.6409964956537806
 20
8.7275417165601112
 30
0.0
 40
0.5669999999999999
 50
180.0
 51
270.0
  0
LINE
  5
BE5F
  8
0
 10
375.6594992877538175
 20
9.1412931222101115
 30
0.0
 11
375.6594992877538175
 21
8.7275417165601112
 31
0.0
  0
LINE
  5
BE60
  8
0
 10
375.6594992877538175
 20
7.1790449216601138
 30
0.0
 11
375.6594992877538175
 21
6.7652931222101129
 31
0.0
  0
ARC
  5
BE61
  8
0
 10
375.0924992877538102
 20
7.1790449216601138
 30
0.0
 40
0.5669999999999999
 50
0.0
 51
90.0
  0
LINE
  5
BE62
  8
0
 10
374.6787485948538006
 20
7.7460449216601139
 30
0.0
 11
375.0924992877538102
 21
7.7460449216601139
 31
0.0
  0
LINE
  5
BE63
  8
0
 10
376.6409964956537806
 20
7.7460449216601139
 30
0.0
 11
377.0551512044422111
 21
7.7460449216601139
 31
0.0
  0
ARC
  5
BE64
  8
0
 10
375.8667478917038238
 20
9.1412931222101115
 30
0.0
 40
0.207248603950001
 50
0.0
 51
180.0
  0
ARC
  5
BE65
  8
0
 10
375.8667478917038238
 20
6.7652931222101129
 30
0.0
 40
0.207248603950001
 50
180.0
 51
0.0
  0
ARC
  5
BE66
  8
0
 10
377.0547471885537902
 20
7.9532931222101118
 30
0.0
 40
0.2072485943499984
 50
269.8883060220699122
 51
90.0
  0
ARC
  5
BE67
  8
0
 10
374.6787485948538006
 20
7.9532933191101121
 30
0.0
 40
0.2072483974499981
 50
90.0
 51
270.0
  0
ARC
  5
BE69
  8
0
 10
367.866763624003795
 20
7.9532931222101118
 30
0.0
 40
1.2125625197353569
 50
111.2859328680158058
 51
158.7144209323612927
  0
ARC
  5
BE6A
  8
0
 10
367.866763624003795
 20
7.9532931222101118
 30
0.0
 40
1.2125625197353569
 50
201.2855590975700011
 51
248.7140671319841942
  0
ARC
  5
BE6B
  8
0
 10
367.866763624003795
 20
7.9532931222101118
 30
0.0
 40
1.2125625197353569
 50
291.2859328680157773
 51
338.7144409024298852
  0
ARC
  5
BE6C
  8
0
 10
367.866763624003795
 20
7.9532931222101118
 30
0.0
 40
1.2125625197353569
 50
21.2855790676386292
 51
68.7140671319842085
  0
ARC
  5
BE6D
  8
0
 10
375.8667478917038238
 20
7.9532931222101118
 30
0.0
 40
1.2125625197353569
 50
21.2855790676384409
 51
68.7140671319842085
  0
ARC
  5
BE6E
  8
0
 10
375.8667478917038238
 20
7.9532931222101118
 30
0.0
 40
1.2125625197353569
 50
291.2859328680157773
 51
338.7144409024298852
  0
ARC
  5
BE6F
  8
0
 10
375.8667478917038238
 20
7.9532931222101118
 30
0.0
 40
1.2125625197353569
 50
201.2855590975698874
 51
248.7140671319841942
  0
ARC
  5
BE70
  8
0
 10
375.8667478917038238
 20
7.9532931222101118
 30
0.0
 40
1.2125625197353569
 50
111.2859328680158058
 51
158.7144209323612927
  0
ENDSEC
  0
EOF
