  0
SECTION
  2
HEADER
  9
$ACADVER
  1
AC1009
  9
$INSBASE
 10
5325.8816905295961988
 20
293.9283013639824276
 30
0.0
  9
$EXTMIN
 10
5322.2698894538962122
 20
292.054155086032381
 30
0.0
  9
$EXTMAX
 10
5325.8928860134637944
 20
295.8024476419323037
 30
0.0
  9
$LIMMIN
 10
0.0
 20
0.0
  9
$LIMMAX
 10
11.6929133858000007
 20
8.2677165353999982
  9
$ORTHOMODE
 70
     0
  9
$REGENMODE
 70
     1
  9
$FILLMODE
 70
     1
  9
$QTEXTMODE
 70
     0
  9
$MIRRTEXT
 70
     0
  9
$DRAGMODE
 70
     2
  9
$LTSCALE
 40
0.6431102362
  9
$OSMODE
 70
  4095
  9
$ATTMODE
 70
     1
  9
$TEXTSIZE
 40
0.2
  9
$TRACEWID
 40
0.05
  9
$TEXTSTYLE
  7
STANDARD
  9
$CLAYER
  8
0
  9
$CELTYPE
  6
BYLAYER
  9
$CECOLOR
 62
   256
  9
$DIMSCALE
 40
1.0
  9
$DIMASZ
 40
0.1875
  9
$DIMEXO
 40
0.0625
  9
$DIMDLI
 40
0.4443307087
  9
$DIMRND
 40
0.0
  9
$DIMDLE
 40
0.0
  9
$DIMEXE
 40
0.125
  9
$DIMTP
 40
0.01
  9
$DIMTM
 40
0.01
  9
$DIMTXT
 40
2.0
  9
$DIMCEN
 40
0.1052362205
  9
$DIMTSZ
 40
0.0
  9
$DIMTOL
 70
     1
  9
$DIMLIM
 70
     0
  9
$DIMTIH
 70
     1
  9
$DIMTOH
 70
     1
  9
$DIMSE1
 70
     0
  9
$DIMSE2
 70
     0
  9
$DIMTAD
 70
     0
  9
$DIMZIN
 70
     0
  9
$DIMBLK
  1

  9
$DIMASO
 70
     1
  9
$DIMSHO
 70
     1
  9
$DIMPOST
  1
\X
  9
$DIMAPOST
  1

  9
$DIMALT
 70
     1
  9
$DIMALTD
 70
     2
  9
$DIMALTF
 40
25.3999999999999986
  9
$DIMLFAC
 40
1.0
  9
$DIMTOFL
 70
     0
  9
$DIMTVP
 40
0.0
  9
$DIMTIX
 70
     0
  9
$DIMSOXD
 70
     0
  9
$DIMSAH
 70
     0
  9
$DIMBLK1
  1

  9
$DIMBLK2
  1

  9
$DIMSTYLE
  2
STANDARD
  9
$DIMCLRD
 70
     0
  9
$DIMCLRE
 70
     0
  9
$DIMCLRT
 70
     0
  9
$DIMTFAC
 40
1.0
  9
$DIMGAP
 40
0.09
  9
$LUNITS
 70
     2
  9
$LUPREC
 70
     4
  9
$SKETCHINC
 40
0.1
  9
$FILLETRAD
 40
0.0
  9
$AUNITS
 70
     0
  9
$AUPREC
 70
     0
  9
$MENU
  1
.
  9
$ELEVATION
 40
0.0
  9
$PELEVATION
 40
0.0
  9
$THICKNESS
 40
0.0
  9
$LIMCHECK
 70
     0
  9
$BLIPMODE
 70
     0
  9
$CHAMFERA
 40
0.0
  9
$CHAMFERB
 40
0.0
  9
$SKPOLY
 70
     0
  9
$TDCREATE
 40
2458060.468368056230247
  9
$TDUPDATE
 40
2460193.8184953709132969
  9
$TDINDWG
 40
0.6779700231
  9
$TDUSRTIMER
 40
0.6779700231
  9
$USRTIMER
 70
     1
  9
$ANGBASE
 50
0.0
  9
$ANGDIR
 70
     0
  9
$PDMODE
 70
     0
  9
$PDSIZE
 40
0.3125
  9
$PLINEWID
 40
0.0
  9
$COORDS
 70
     1
  9
$SPLFRAME
 70
     0
  9
$SPLINETYPE
 70
     6
  9
$SPLINESEGS
 70
     8
  9
$ATTDIA
 70
     1
  9
$ATTREQ
 70
     1
  9
$HANDLING
 70
     1
  9
$HANDSEED
  5
2A67F
  9
$SURFTAB1
 70
     6
  9
$SURFTAB2
 70
     6
  9
$SURFTYPE
 70
     6
  9
$SURFU
 70
     6
  9
$SURFV
 70
     6
  9
$UCSNAME
  2

  9
$UCSORG
 10
0.0
 20
0.0
 30
0.0
  9
$UCSXDIR
 10
1.0
 20
0.0
 30
0.0
  9
$UCSYDIR
 10
0.0
 20
1.0
 30
0.0
  9
$PUCSNAME
  2

  9
$PUCSORG
 10
0.0
 20
0.0
 30
0.0
  9
$PUCSXDIR
 10
1.0
 20
0.0
 30
0.0
  9
$PUCSYDIR
 10
0.0
 20
1.0
 30
0.0
  9
$USERI1
 70
     0
  9
$USERI2
 70
     0
  9
$USERI3
 70
     0
  9
$USERI4
 70
     0
  9
$USERI5
 70
     0
  9
$USERR1
 40
0.0
  9
$USERR2
 40
0.0
  9
$USERR3
 40
0.0
  9
$USERR4
 40
0.0
  9
$USERR5
 40
0.0
  9
$WORLDVIEW
 70
     1
  9
$SHADEDGE
 70
     3
  9
$SHADEDIF
 70
    70
  9
$TILEMODE
 70
     1
  9
$MAXACTVP
 70
    64
  9
$PLIMCHECK
 70
     0
  9
$PEXTMIN
 10
1.0000000000000000E+20
 20
1.0000000000000000E+20
 30
1.0000000000000000E+20
  9
$PEXTMAX
 10
-1.0000000000000000E+20
 20
-1.0000000000000000E+20
 30
-1.0000000000000000E+20
  9
$PLIMMIN
 10
0.0
 20
0.0
  9
$PLIMMAX
 10
12.0
 20
9.0
  9
$UNITMODE
 70
     0
  9
$VISRETAIN
 70
     1
  9
$PLINEGEN
 70
     0
  9
$PSLTSCALE
 70
     1
  0
ENDSEC
  0
SECTION
  2
TABLES
  0
TABLE
  2
VPORT
 70
     1
  0
VPORT
  2
*ACTIVE
 70
     0
 10
0.0
 20
0.0
 11
1.0
 21
1.0
 12
1412.7160312883670485
 22
161.3486962614433082
 13
0.0
 23
0.0
 14
1.0
 24
1.0
 15
0.0
 25
0.0
 16
0.0
 26
0.0
 36
60.4960186965801583
 17
3911.3653564453120453
 27
132.5796051025390057
 37
0.0
 40
3.7770886574817828
 41
1.4307692307692299
 42
50.0
 43
0.0
 44
0.0
 50
0.0
 51
0.0
 71
     0
 72
   100
 73
     1
 74
     1
 75
     0
 76
     0
 77
     0
 78
     0
  0
ENDTAB
  0
TABLE
  2
LTYPE
 70
     2
  0
LTYPE
  2
CONTINUOUS
 70
     0
  3
Solid line
 72
    65
 73
     0
 40
0.0
  0
LTYPE
  2
PHANTOM2
 70
     0
  3
___ _ _ ___ _ _ ___ _ _ ___ _ _
 72
    65
 73
     6
 40
1.25
 49
0.625
 49
-0.125
 49
0.125
 49
-0.125
 49
0.125
 49
-0.125
  0
ENDTAB
  0
TABLE
  2
LAYER
 70
     2
  0
LAYER
  2
0
 70
     0
 62
   255
  6
CONTINUOUS
  0
LAYER
  2
DEFPOINTS
 70
     0
 62
     7
  6
CONTINUOUS
  0
ENDTAB
  0
TABLE
  2
STYLE
 70
     1
  0
STYLE
  2
STANDARD
 70
     0
 40
0.0
 41
0.8
 50
0.0
 71
     0
 42
0.2
  3
txt
  4

  0
ENDTAB
  0
TABLE
  2
VIEW
 70
     0
  0
ENDTAB
  0
TABLE
  2
UCS
 70
     0
  0
ENDTAB
  0
TABLE
  2
APPID
 70
    11
  0
APPID
  2
ACAD
 70
     0
  0
APPID
  2
ACAD_MLEADERVER
 70
     0
  0
APPID
  2
ACAD_EXEMPT_FROM_CAD_STANDARDS
 70
     0
  0
APPID
  2
ACAD_NAV_VCDISPLAY
 70
     0
  0
APPID
  2
ACAECLAYERSTANDARD
 70
     0
  0
APPID
  2
ACCMTRANSPARENCY
 70
     0
  0
APPID
  2
ACAD_DSTYLE_DIMJAG
 70
     0
  0
APPID
  2
ACAD_DSTYLE_DIMTALN
 70
     0
  0
APPID
  2
ACDBATTR
 70
     0
  0
APPID
  2
ACADANNOTATIVE
 70
     0
  0
APPID
  2
DCO15
 70
     0
  0
ENDTAB
  0
TABLE
  2
DIMSTYLE
 70
     1
  0
DIMSTYLE
  2
STANDARD
 70
     0
  3

  4

  5

  6

  7

 40
1.0
 41
0.1875
 42
0.0625
 43
0.38
 44
0.125
 45
0.0
 46
0.0
 47
0.01
 48
0.01
140
0.15625
141
0.09
142
0.0
143
25.3999999999999986
144
1.0
145
0.0
146
1.0
147
0.09
 71
     1
 72
     0
 73
     1
 74
     1
 75
     0
 76
     0
 77
     0
 78
     4
170
     0
171
     2
172
     0
173
     0
174
     0
175
     0
176
     0
177
     0
178
     0
  0
ENDTAB
  0
ENDSEC
  0
SECTION
  2
BLOCKS
  0
BLOCK
  8
0
  2
$MODEL_SPACE
 70
     0
 10
0.0
 20
0.0
 30
0.0
  3
$MODEL_SPACE
  1

  0
ENDBLK
  5
21
  8
0
  0
BLOCK
 67
     1
  8
0
  2
$PAPER_SPACE
 70
     0
 10
0.0
 20
0.0
 30
0.0
  3
$PAPER_SPACE
  1

  0
ENDBLK
  5
1D
 67
     1
  8
0
  0
ENDSEC
  0
SECTION
  2
ENTITIES
  0
ATTDEF
  5
26A5B
  8
DEFPOINTS
 10
5325.8822193467940451
 20
293.9293107171494057
 30
0.0
 40
0.001
  1
P32709-RST
  3

  2
MODELNUMBER
 70
     0
1001
ACDBATTR
1070
     0
1070
     1
  0
ATTDEF
  5
26A5C
  8
DEFPOINTS
 10
5325.8820935371377345
 20
293.9276438767702189
 30
0.0
 40
0.001
  1
002
  3

  2
TRADENAME
 70
     0
1001
ACDBATTR
1070
     0
1070
     1
  0
ATTDEF
  5
26A5D
  8
DEFPOINTS
 10
5325.8822193467940451
 20
293.9259773838160754
 30
0.0
 40
0.001
  1
VALVE TRIM
  3

  2
PRODUCT
 70
     0
1001
ACDBATTR
1070
     0
1070
     1
  0
LINE
  5
2A47B
  8
0
 10
5325.2504688611961683
 20
295.7914296267322811
 30
0.0
 11
5325.8816905295961988
 21
295.8024476419323037
 31
0.0
  0
LINE
  5
2A47C
  8
0
 10
5325.1816905295963807
 20
295.7214402880704824
 30
0.0
 11
5325.1816905295963807
 21
292.1351624398942022
 31
0.0
  0
LINE
  5
2A47D
  8
0
 10
5323.9416905295965989
 20
294.8274476419323946
 30
0.0
 11
5325.1816905295963807
 21
294.8274476419323946
 31
0.0
  0
LINE
  5
2A47E
  8
0
 10
5323.9116905295959441
 20
294.7974476419324219
 30
0.0
 11
5323.9116905295959441
 21
293.0591550860323764
 31
0.0
  0
LINE
  5
2A47F
  8
0
 10
5323.8766905295960896
 20
294.4064401417322756
 30
0.0
 11
5323.8766905295960896
 21
293.450162586232409
 31
0.0
  0
LINE
  5
2A480
  8
0
 10
5323.1072226192345624
 20
294.4364401417324189
 30
0.0
 11
5323.8466905295963443
 21
294.4364401417324189
 31
0.0
  0
LINE
  5
2A481
  8
0
 10
5322.9406457490949833
 20
294.6051761414324233
 30
0.0
 11
5322.9406457490949833
 21
295.1154301364323942
 31
0.0
  0
LINE
  5
2A482
  8
0
 10
5322.5222905295959208
 20
295.535617580732378
 30
0.0
 11
5322.5222905295959208
 21
292.3209851472323066
 31
0.0
  0
LINE
  5
2A483
  8
0
 10
5322.4735949170189997
 20
295.4964946068324139
 30
0.0
 11
5322.496613673196407
 21
295.4964946068324139
 31
0.0
  0
LINE
  5
2A484
  8
0
 10
5322.2698894538962122
 20
295.293210711832387
 30
0.0
 11
5322.2698894538962122
 21
292.5633920161324113
 31
0.0
  0
LINE
  5
2A485
  8
0
 10
5325.8816905295961988
 20
295.8024476419323037
 30
0.0
 11
5325.8816905295961988
 21
292.054155086032381
 31
0.0
  0
ARC
  5
2A486
  8
0
 10
5325.2516905295960896
 20
295.7214402880704824
 30
0.0
 40
0.07
 50
90.9999999994545306
 51
180.0
  0
ARC
  5
2A487
  8
0
 10
5323.9416905295965989
 20
294.7974476419324219
 30
0.0
 40
0.03
 50
90.0
 51
180.0
  0
ARC
  5
2A488
  8
0
 10
5323.8466905295963443
 20
294.4064401417322756
 30
0.0
 40
0.03
 50
0.0
 51
90.0
  0
LINE
  5
2A489
  8
0
 10
5323.8766905295960896
 20
294.2824476419323787
 30
0.0
 11
5323.9116905295959441
 21
294.2824476419323787
 31
0.0
  0
ARC
  5
2A48A
  8
0
 10
5323.1104118982757427
 20
294.6061792952118026
 30
0.0
 40
0.169769112987963
 50
180.3385587120554021
 51
268.9235793524434825
  0
ARC
  5
2A48B
  8
0
 10
5322.498145747327726
 20
295.1154301348316267
 30
0.0
 40
0.4425000017682184
 50
0.0000002072748657
 51
84.0025217662492736
  0
LINE
  5
2A48C
  8
0
 10
5322.5016163624959518
 20
295.4951533076452961
 30
0.0
 11
5322.5222905295959208
 21
295.4832085096604146
 31
0.0
  0
ARC
  5
2A48D
  8
0
 10
5322.7009026058130985
 20
295.0530599881345779
 30
0.0
 40
0.5000000081275383
 50
117.9483636986329032
 51
147.3658453122303911
  0
ARC
  5
2A48E
  8
0
 10
5322.4735949170189997
 20
295.4814946068324275
 30
0.0
 40
0.015
 50
89.9999999999478888
 51
117.9483636986374933
  0
ARC
  5
2A48F
  8
0
 10
5322.496613673196407
 20
295.486494606832423
 30
0.0
 40
0.01
 50
59.9822067427563397
 51
90.0
  0
ARC
  5
2A490
  8
0
 10
5322.3353009642323741
 20
295.2875636901092093
 30
0.0
 40
0.0656548135231346
 50
147.6484241639286097
 51
175.0658488231395893
  0
ARC
  5
2A491
  8
0
 10
5322.5422905295972669
 20
295.535617580732378
 30
0.0
 40
0.02
 50
84.0025217563464537
 51
180.000000000032486
  0
LINE
  5
2A492
  8
0
 10
5322.4665647824313055
 20
295.4947451618277796
 30
0.0
 11
5322.4665647824313055
 21
292.3618575661370187
 31
0.0
  0
LINE
  5
2A493
  8
0
 10
5322.5016163624959518
 20
295.4951533076452961
 30
0.0
 11
5322.5016163624959518
 21
292.3614494203193885
 31
0.0
  0
ARC
  5
2A494
  8
0
 10
5322.4920098857173798
 20
293.9161205981731086
 30
0.0
 40
0.4503331643126183
 50
1.549944918567713
 51
83.3211488817548229
  0
ARC
  5
2A495
  8
0
 10
5322.5423013159497714
 20
294.3434956845233046
 30
0.0
 40
0.0200107905019936
 50
84.0216482109781566
 51
179.9631083798686859
  0
LINE
  5
2A496
  8
0
 10
5325.2504688611961683
 20
292.0651731012322898
 30
0.0
 11
5325.8816905295961988
 21
292.054155086032381
 31
0.0
  0
LINE
  5
2A497
  8
0
 10
5323.9416905295965989
 20
293.0291550860324037
 30
0.0
 11
5325.1816905295963807
 21
293.0291550860324037
 31
0.0
  0
LINE
  5
2A498
  8
0
 10
5323.1072226192345624
 20
293.4201625862323795
 30
0.0
 11
5323.8466905295963443
 21
293.4201625862323795
 31
0.0
  0
LINE
  5
2A499
  8
0
 10
5322.9406457490949833
 20
293.251426586532375
 30
0.0
 11
5322.9406457490949833
 21
292.7411725915322904
 31
0.0
  0
LINE
  5
2A49A
  8
0
 10
5322.4735949170189997
 20
292.3601081211323844
 30
0.0
 11
5322.496613673196407
 21
292.3601081211323844
 31
0.0
  0
ARC
  5
2A49B
  8
0
 10
5325.2516905295960896
 20
292.1351624398942022
 30
0.0
 40
0.07
 50
180.0
 51
269.0000000005455263
  0
ARC
  5
2A49C
  8
0
 10
5323.9416905295965989
 20
293.0591550860323764
 30
0.0
 40
0.03
 50
180.0
 51
270.0
  0
ARC
  5
2A49D
  8
0
 10
5323.8466905295963443
 20
293.450162586232409
 30
0.0
 40
0.03
 50
270.0
 51
0.0
  0
LINE
  5
2A49E
  8
0
 10
5323.8766905295960896
 20
293.5741550860324196
 30
0.0
 11
5323.9116905295959441
 21
293.5741550860324196
 31
0.0
  0
ARC
  5
2A49F
  8
0
 10
5323.1104118982757427
 20
293.250423432752882
 30
0.0
 40
0.169769112987963
 50
91.0764206475565032
 51
179.6614412879445126
  0
ARC
  5
2A4A0
  8
0
 10
5322.498145747327726
 20
292.7411725931331716
 30
0.0
 40
0.4425000017682184
 50
275.9974782337507122
 51
359.9999997927250774
  0
LINE
  5
2A4A1
  8
0
 10
5322.5016163624959518
 20
292.3614494203193885
 30
0.0
 11
5322.5222905295959208
 21
292.3733942183043268
 31
0.0
  0
ARC
  5
2A4A2
  8
0
 10
5322.7009026058130985
 20
292.8035427398301067
 30
0.0
 40
0.5000000081275383
 50
212.6341546877696089
 51
242.0516363013670968
  0
ARC
  5
2A4A3
  8
0
 10
5322.4735949170189997
 20
292.375108121132314
 30
0.0
 40
0.015
 50
242.0516363013624925
 51
270.0000000000521254
  0
ARC
  5
2A4A4
  8
0
 10
5322.496613673196407
 20
292.3701081211323753
 30
0.0
 40
0.01
 50
270.0
 51
300.0177932572436248
  0
ARC
  5
2A4A5
  8
0
 10
5322.3353009642323741
 20
292.569039037855589
 30
0.0
 40
0.0656548135231346
 50
184.9341511768604107
 51
212.3515758360713903
  0
ARC
  5
2A4A6
  8
0
 10
5322.5422905295972669
 20
292.3209851472323066
 30
0.0
 40
0.02
 50
179.9999999999674003
 51
275.9974782436535179
  0
ARC
  5
2A4A7
  8
0
 10
5322.4920098857173798
 20
293.9404821297915191
 30
0.0
 40
0.4503331643126183
 50
276.6788511182451771
 51
358.4500550814323105
  0
ARC
  5
2A4A8
  8
0
 10
5322.5423013159497714
 20
293.5131070434414937
 30
0.0
 40
0.0200107905019936
 50
180.0368916201312004
 51
275.978351789021815
  0
ENDSEC
  0
EOF
