  0
SECTION
  2
HEADER
  9
$ACADVER
  1
AC1009
  9
$INSBASE
 10
344.9151037495710739
 20
15.6056228840987892
 30
0.0
  9
$EXTMIN
 10
341.7733433528418914
 20
12.4802811389390307
 30
-0.0000000000112498
  9
$EXTMAX
 10
348.0557510677479058
 20
18.7306778874204802
 30
0.0000000000002956
  9
$LIMMIN
 10
0.0
 20
0.0
  9
$LIMMAX
 10
11.6929133858000007
 20
8.2677165353999982
  9
$ORTHOMODE
 70
     0
  9
$REGENMODE
 70
     1
  9
$FILLMODE
 70
     1
  9
$QTEXTMODE
 70
     0
  9
$MIRRTEXT
 70
     0
  9
$DRAGMODE
 70
     2
  9
$LTSCALE
 40
0.6431102362
  9
$OSMODE
 70
  4095
  9
$ATTMODE
 70
     1
  9
$TEXTSIZE
 40
0.2
  9
$TRACEWID
 40
0.05
  9
$TEXTSTYLE
  7
STANDARD
  9
$CLAYER
  8
0
  9
$CELTYPE
  6
BYLAYER
  9
$CECOLOR
 62
   256
  9
$DIMSCALE
 40
1.0
  9
$DIMASZ
 40
0.1875
  9
$DIMEXO
 40
0.0625
  9
$DIMDLI
 40
0.4443307087
  9
$DIMRND
 40
0.0
  9
$DIMDLE
 40
0.0
  9
$DIMEXE
 40
0.125
  9
$DIMTP
 40
0.01
  9
$DIMTM
 40
0.01
  9
$DIMTXT
 40
0.15625
  9
$DIMCEN
 40
0.1052362205
  9
$DIMTSZ
 40
0.0
  9
$DIMTOL
 70
     1
  9
$DIMLIM
 70
     0
  9
$DIMTIH
 70
     1
  9
$DIMTOH
 70
     1
  9
$DIMSE1
 70
     0
  9
$DIMSE2
 70
     0
  9
$DIMTAD
 70
     0
  9
$DIMZIN
 70
     0
  9
$DIMBLK
  1

  9
$DIMASO
 70
     1
  9
$DIMSHO
 70
     1
  9
$DIMPOST
  1
\X
  9
$DIMAPOST
  1

  9
$DIMALT
 70
     1
  9
$DIMALTD
 70
     2
  9
$DIMALTF
 40
25.3999999999999986
  9
$DIMLFAC
 40
1.0
  9
$DIMTOFL
 70
     0
  9
$DIMTVP
 40
0.0
  9
$DIMTIX
 70
     0
  9
$DIMSOXD
 70
     0
  9
$DIMSAH
 70
     0
  9
$DIMBLK1
  1

  9
$DIMBLK2
  1

  9
$DIMSTYLE
  2
STANDARD
  9
$DIMCLRD
 70
     0
  9
$DIMCLRE
 70
     0
  9
$DIMCLRT
 70
     0
  9
$DIMTFAC
 40
1.0
  9
$DIMGAP
 40
0.09
  9
$LUNITS
 70
     2
  9
$LUPREC
 70
     4
  9
$SKETCHINC
 40
0.1
  9
$FILLETRAD
 40
0.0
  9
$AUNITS
 70
     0
  9
$AUPREC
 70
     0
  9
$MENU
  1
.
  9
$ELEVATION
 40
0.0
  9
$PELEVATION
 40
0.0
  9
$THICKNESS
 40
0.0
  9
$LIMCHECK
 70
     0
  9
$BLIPMODE
 70
     0
  9
$CHAMFERA
 40
0.0
  9
$CHAMFERB
 40
0.0
  9
$SKPOLY
 70
     0
  9
$TDCREATE
 40
2458018.639108797069639
  9
$TDUPDATE
 40
2460201.7611226858571172
  9
$TDINDWG
 40
0.4315967593
  9
$TDUSRTIMER
 40
0.4315967593
  9
$USRTIMER
 70
     1
  9
$ANGBASE
 50
0.0
  9
$ANGDIR
 70
     0
  9
$PDMODE
 70
     0
  9
$PDSIZE
 40
0.3125
  9
$PLINEWID
 40
0.0
  9
$COORDS
 70
     1
  9
$SPLFRAME
 70
     0
  9
$SPLINETYPE
 70
     6
  9
$SPLINESEGS
 70
     8
  9
$ATTDIA
 70
     1
  9
$ATTREQ
 70
     1
  9
$HANDLING
 70
     1
  9
$HANDSEED
  5
BE8C
  9
$SURFTAB1
 70
     6
  9
$SURFTAB2
 70
     6
  9
$SURFTYPE
 70
     6
  9
$SURFU
 70
     6
  9
$SURFV
 70
     6
  9
$UCSNAME
  2

  9
$UCSORG
 10
0.0
 20
0.0
 30
0.0
  9
$UCSXDIR
 10
1.0
 20
0.0
 30
0.0
  9
$UCSYDIR
 10
0.0
 20
1.0
 30
0.0
  9
$PUCSNAME
  2

  9
$PUCSORG
 10
0.0
 20
0.0
 30
0.0
  9
$PUCSXDIR
 10
1.0
 20
0.0
 30
0.0
  9
$PUCSYDIR
 10
0.0
 20
1.0
 30
0.0
  9
$USERI1
 70
     0
  9
$USERI2
 70
     0
  9
$USERI3
 70
     0
  9
$USERI4
 70
     0
  9
$USERI5
 70
     0
  9
$USERR1
 40
0.0
  9
$USERR2
 40
0.0
  9
$USERR3
 40
0.0
  9
$USERR4
 40
0.0
  9
$USERR5
 40
0.0
  9
$WORLDVIEW
 70
     1
  9
$SHADEDGE
 70
     3
  9
$SHADEDIF
 70
    70
  9
$TILEMODE
 70
     1
  9
$MAXACTVP
 70
    64
  9
$PLIMCHECK
 70
     0
  9
$PEXTMIN
 10
1.0000000000000000E+20
 20
1.0000000000000000E+20
 30
1.0000000000000000E+20
  9
$PEXTMAX
 10
-1.0000000000000000E+20
 20
-1.0000000000000000E+20
 30
-1.0000000000000000E+20
  9
$PLIMMIN
 10
0.0
 20
0.0
  9
$PLIMMAX
 10
12.0
 20
9.0
  9
$UNITMODE
 70
     0
  9
$VISRETAIN
 70
     1
  9
$PLINEGEN
 70
     0
  9
$PSLTSCALE
 70
     1
  0
ENDSEC
  0
SECTION
  2
TABLES
  0
TABLE
  2
VPORT
 70
     1
  0
VPORT
  2
*ACTIVE
 70
     0
 10
0.0
 20
0.0
 11
1.0
 21
1.0
 12
249.5902862125572028
 22
8.5691475019569161
 13
0.0
 23
0.0
 14
1.0
 24
1.0
 15
0.0
 25
0.0
 16
-0.0000000000000142
 26
0.0
 36
39.3282560748450578
 17
95.3242609977377526
 27
7.0363320112228394
 37
0.0
 40
6.2999375417322998
 41
2.5251322751322749
 42
50.0
 43
0.0
 44
0.0
 50
0.0
 51
0.0
 71
     0
 72
   100
 73
     1
 74
     1
 75
     0
 76
     0
 77
     0
 78
     0
  0
ENDTAB
  0
TABLE
  2
LTYPE
 70
     2
  0
LTYPE
  2
CONTINUOUS
 70
     0
  3
Solid line
 72
    65
 73
     0
 40
0.0
  0
LTYPE
  2
PHANTOM2
 70
     0
  3
___ _ _ ___ _ _ ___ _ _ ___ _ _
 72
    65
 73
     6
 40
1.25
 49
0.625
 49
-0.125
 49
0.125
 49
-0.125
 49
0.125
 49
-0.125
  0
ENDTAB
  0
TABLE
  2
LAYER
 70
     2
  0
LAYER
  2
0
 70
     0
 62
   255
  6
CONTINUOUS
  0
LAYER
  2
DEFPOINTS
 70
     0
 62
     7
  6
CONTINUOUS
  0
ENDTAB
  0
TABLE
  2
STYLE
 70
     1
  0
STYLE
  2
STANDARD
 70
     0
 40
0.0
 41
0.8
 50
0.0
 71
     0
 42
0.2
  3
txt
  4

  0
ENDTAB
  0
TABLE
  2
VIEW
 70
     0
  0
ENDTAB
  0
TABLE
  2
UCS
 70
     0
  0
ENDTAB
  0
TABLE
  2
APPID
 70
    10
  0
APPID
  2
ACAD
 70
     0
  0
APPID
  2
ACAD_MLEADERVER
 70
     0
  0
APPID
  2
ACAD_DSTYLE_DIMJAG
 70
     0
  0
APPID
  2
ACAD_DSTYLE_DIMTALN
 70
     0
  0
APPID
  2
ACAD_NAV_VCDISPLAY
 70
     0
  0
APPID
  2
ACAD_EXEMPT_FROM_CAD_STANDARDS
 70
     0
  0
APPID
  2
ACAECLAYERSTANDARD
 70
     0
  0
APPID
  2
ACCMTRANSPARENCY
 70
     0
  0
APPID
  2
DCO15
 70
     0
  0
APPID
  2
ACDBATTR
 70
     0
  0
ENDTAB
  0
TABLE
  2
DIMSTYLE
 70
     1
  0
DIMSTYLE
  2
STANDARD
 70
     0
  3

  4

  5

  6

  7

 40
1.0
 41
0.1875
 42
0.0625
 43
0.38
 44
0.125
 45
0.0
 46
0.0
 47
0.01
 48
0.01
140
0.15625
141
0.09
142
0.0
143
25.3999999999999986
144
1.0
145
0.0
146
1.0
147
0.09
 71
     1
 72
     0
 73
     1
 74
     1
 75
     0
 76
     0
 77
     0
 78
     4
170
     0
171
     2
172
     0
173
     0
174
     0
175
     0
176
     0
177
     0
178
     0
  0
ENDTAB
  0
ENDSEC
  0
SECTION
  2
BLOCKS
  0
BLOCK
  8
0
  2
$MODEL_SPACE
 70
     0
 10
0.0
 20
0.0
 30
0.0
  3
$MODEL_SPACE
  1

  0
ENDBLK
  5
21
  8
0
  0
BLOCK
 67
     1
  8
0
  2
$PAPER_SPACE
 70
     0
 10
0.0
 20
0.0
 30
0.0
  3
$PAPER_SPACE
  1

  0
ENDBLK
  5
1D
 67
     1
  8
0
  0
BLOCK
  8
0
  2
_FILLED
 70
     0
 10
0.0
 20
0.0
 30
0.0
  3
_FILLED
  1

  0
SOLID
  5
A58D
  8
0
  6
BYBLOCK
 62
     0
 10
0.0
 20
0.0
 30
0.0
 11
-1.0
 21
0.1666666667
 31
0.0
 12
-1.0
 22
-0.1666666667
 32
0.0
 13
-1.0
 23
-0.1666666667
 33
0.0
  0
ENDBLK
  5
A58E
  8
0
  6
BYBLOCK
 62
     0
  0
ENDSEC
  0
SECTION
  2
ENTITIES
  0
ATTDEF
  5
7A6E
  8
DEFPOINTS
 10
344.9142305920266836
 20
15.6094804479218308
 30
0.0
 40
0.001
  1
P32707-JST
  3

  2
MODELNUMBER
 70
     0
1001
ACDBATTR
1070
     0
1070
     1
  0
ATTDEF
  5
7A6F
  8
DEFPOINTS
 10
344.9142305920266836
 20
15.6078137812551692
 30
0.0
 40
0.001
  1
002
  3

  2
TRADENAME
 70
     0
1001
ACDBATTR
1070
     0
1070
     1
  0
ATTDEF
  5
7A70
  8
DEFPOINTS
 10
344.9142305920266836
 20
15.6061471145885005
 30
0.0
 40
0.001
  1
VALVE TRIM
  3

  2
PRODUCT
 70
     0
1001
ACDBATTR
1070
     0
1070
     1
  0
LINE
  5
BD43
  8
0
 10
344.4749163052624112
 20
16.7936228840987916
 30
0.0
 11
344.4749163052624112
 21
16.3649011851422799
 31
0.0
  0
LINE
  5
BD44
  8
0
 10
344.5340567845710211
 20
16.7936228840987916
 30
0.0
 11
344.5340567845710211
 21
16.350869848998709
 31
0.0
  0
LINE
  5
BD45
  8
0
 10
344.7085775893648929
 20
16.7936228840987916
 30
0.0
 11
344.7085775893648929
 21
16.3787716279987805
 31
0.0
  0
ARC
  5
BD46
  8
0
 10
344.9151037495710739
 20
16.7936228840987916
 30
0.0
 40
0.2065261602061463
 50
90.0
 51
180.0
  0
ARC
  5
BD47
  8
0
 10
344.9151037495710739
 20
16.7936228840987916
 30
0.0
 40
0.3810469650000017
 50
90.0
 51
180.0
  0
ARC
  5
BD48
  8
0
 10
344.9151037495710739
 20
16.7936228840987916
 30
0.0
 40
0.4401874443086147
 50
90.0
 51
180.0
  0
LINE
  5
BD49
  8
0
 10
344.1559163052623944
 20
16.0459011851422808
 30
0.0
 11
343.7271044526710284
 21
16.0459011851422808
 31
0.0
  0
LINE
  5
BD4A
  8
0
 10
344.1698567845710954
 20
15.9866698489987193
 30
0.0
 11
343.7271041165417955
 21
15.9866698489987193
 31
0.0
  0
LINE
  5
BD4B
  8
0
 10
344.1426775893648937
 20
15.8128716279987795
 30
0.0
 11
343.7271044526710284
 21
15.8128716279987795
 31
0.0
  0
ARC
  5
BD4C
  8
0
 10
344.1559163052623944
 20
16.3649011851422799
 30
0.0
 40
0.319
 50
270.0
 51
0.0
  0
ARC
  5
BD4D
  8
0
 10
344.1698567845710954
 20
16.350869848998709
 30
0.0
 40
0.3642
 50
270.0
 51
0.0
  0
ARC
  5
BD4E
  8
0
 10
344.1426775893648937
 20
16.3787716279987805
 30
0.0
 40
0.5659
 50
270.0
 51
0.0
  0
ARC
  5
BD4F
  8
0
 10
343.7283412486178236
 20
15.6051117238516692
 30
0.0
 40
0.2077635854413222
 50
90.3410780876521784
 51
179.8590351899304096
  0
ARC
  5
BD50
  8
0
 10
343.7271041165417955
 20
15.60562322012807
 30
0.0
 40
0.3810466288707896
 50
89.9999494581888513
 51
180.0000505267821893
  0
ARC
  5
BD51
  8
0
 10
343.7272592573431211
 20
15.6055589587040906
 30
0.0
 40
0.4403422536493875
 50
90.0201426378407064
 51
179.9916822532883032
  0
LINE
  5
BD52
  8
0
 10
344.4749163052624112
 20
14.4176228840987903
 30
0.0
 11
344.4749163052624112
 21
14.8463445830552896
 31
0.0
  0
LINE
  5
BD53
  8
0
 10
344.5340567845710211
 20
14.4176228840987903
 30
0.0
 11
344.5340567845710211
 21
14.8603759191988498
 31
0.0
  0
LINE
  5
BD54
  8
0
 10
344.7085775893648929
 20
14.4176228840987903
 30
0.0
 11
344.7085775893648929
 21
14.8324741401987907
 31
0.0
  0
ARC
  5
BD55
  8
0
 10
344.9151037495710739
 20
14.4176228840987903
 30
0.0
 40
0.2065261602061463
 50
180.0
 51
270.0
  0
ARC
  5
BD56
  8
0
 10
344.9151037495710739
 20
14.4176228840987903
 30
0.0
 40
0.3810469650000017
 50
180.0
 51
270.0
  0
ARC
  5
BD57
  8
0
 10
344.9151037495710739
 20
14.4176228840987903
 30
0.0
 40
0.4401874443086147
 50
180.0
 51
270.0
  0
LINE
  5
BD58
  8
0
 10
344.1559163052623944
 20
15.1653445830552993
 30
0.0
 11
343.7271044526710284
 21
15.1653445830552993
 31
0.0
  0
LINE
  5
BD59
  8
0
 10
344.1698567845710954
 20
15.2245759191988608
 30
0.0
 11
343.7271041165417955
 21
15.2245759191988608
 31
0.0
  0
LINE
  5
BD5A
  8
0
 10
344.1426775893648937
 20
15.3983741401987793
 30
0.0
 11
343.7271044526710284
 21
15.3983741401987793
 31
0.0
  0
ARC
  5
BD5B
  8
0
 10
344.1559163052623944
 20
14.8463445830552896
 30
0.0
 40
0.319
 50
0.0
 51
90.0
  0
ARC
  5
BD5C
  8
0
 10
344.1698567845710954
 20
14.8603759191988498
 30
0.0
 40
0.3642
 50
0.0
 51
90.0
  0
ARC
  5
BD5D
  8
0
 10
344.1426775893648937
 20
14.8324741401987907
 30
0.0
 40
0.5659
 50
0.0
 51
90.0
  0
ARC
  5
BD5E
  8
0
 10
343.7283412486178236
 20
15.6061340443459002
 30
0.0
 40
0.2077635854413222
 50
180.1409648100695051
 51
269.6589219123445105
  0
ARC
  5
BD5F
  8
0
 10
343.7271041165417955
 20
15.6056225480694994
 30
0.0
 40
0.3810466288707896
 50
179.999949473217697
 51
270.0000505418111061
  0
ARC
  5
BD60
  8
0
 10
343.7272592573431211
 20
15.60568680949347
 30
0.0
 40
0.4403422536493875
 50
180.0083177467116116
 51
269.9798573621592936
  0
LINE
  5
BD61
  8
0
 10
345.3552911938796797
 20
16.7936228840987916
 30
0.0
 11
345.3552911938796797
 21
16.3649011851422799
 31
0.0
  0
LINE
  5
BD62
  8
0
 10
345.2961507145711266
 20
16.7936228840987916
 30
0.0
 11
345.2961507145711266
 21
16.350869848998709
 31
0.0
  0
LINE
  5
BD63
  8
0
 10
345.121629909777198
 20
16.7936228840987916
 30
0.0
 11
345.121629909777198
 21
16.3787716279987805
 31
0.0
  0
ARC
  5
BD64
  8
0
 10
344.9151037495710739
 20
16.7936228840987916
 30
0.0
 40
0.2065261602061463
 50
0.0
 51
90.0
  0
ARC
  5
BD65
  8
0
 10
344.9151037495710739
 20
16.7936228840987916
 30
0.0
 40
0.3810469650000017
 50
0.0
 51
90.0
  0
ARC
  5
BD66
  8
0
 10
344.9151037495710739
 20
16.7936228840987916
 30
0.0
 40
0.4401874443086147
 50
0.0
 51
90.0
  0
LINE
  5
BD67
  8
0
 10
345.6742911938796965
 20
16.0459011851422808
 30
0.0
 11
346.1031030464710057
 21
16.0459011851422808
 31
0.0
  0
LINE
  5
BD68
  8
0
 10
345.6603507145711092
 20
15.9866698489987193
 30
0.0
 11
346.1031033826002954
 21
15.9866698489987193
 31
0.0
  0
LINE
  5
BD69
  8
0
 10
345.6875299097771972
 20
15.8128716279987795
 30
0.0
 11
346.1031030464710057
 21
15.8128716279987795
 31
0.0
  0
ARC
  5
BD6A
  8
0
 10
345.6742911938796965
 20
16.3649011851422799
 30
0.0
 40
0.319
 50
180.0
 51
270.0
  0
ARC
  5
BD6B
  8
0
 10
345.6603507145711092
 20
16.350869848998709
 30
0.0
 40
0.3642
 50
180.0
 51
270.0
  0
ARC
  5
BD6C
  8
0
 10
345.6875299097771972
 20
16.3787716279987805
 30
0.0
 40
0.5659
 50
180.0
 51
270.0
  0
ARC
  5
BD6D
  8
0
 10
346.1018662505243242
 20
15.6051117238516692
 30
0.0
 40
0.2077635854413222
 50
0.1409648100695433
 51
89.6589219123445531
  0
ARC
  5
BD6E
  8
0
 10
346.1031033826002954
 20
15.60562322012807
 30
0.0
 40
0.3810466288707896
 50
359.9999494732177823
 51
90.0000505418111629
  0
ARC
  5
BD6F
  8
0
 10
346.1029482417990266
 20
15.6055589587040906
 30
0.0
 40
0.4403422536493875
 50
0.008317746711689
 51
89.9798573621592936
  0
LINE
  5
BD70
  8
0
 10
345.3552911938796797
 20
14.4176228840987903
 30
0.0
 11
345.3552911938796797
 21
14.8463445830552896
 31
0.0
  0
LINE
  5
BD71
  8
0
 10
345.2961507145711266
 20
14.4176228840987903
 30
0.0
 11
345.2961507145711266
 21
14.8603759191988498
 31
0.0
  0
LINE
  5
BD72
  8
0
 10
345.121629909777198
 20
14.4176228840987903
 30
0.0
 11
345.121629909777198
 21
14.8324741401987907
 31
0.0
  0
ARC
  5
BD73
  8
0
 10
344.9151037495710739
 20
14.4176228840987903
 30
0.0
 40
0.2065261602061463
 50
270.0
 51
0.0
  0
ARC
  5
BD74
  8
0
 10
344.9151037495710739
 20
14.4176228840987903
 30
0.0
 40
0.3810469650000017
 50
270.0
 51
0.0
  0
ARC
  5
BD75
  8
0
 10
344.9151037495710739
 20
14.4176228840987903
 30
0.0
 40
0.4401874443086147
 50
270.0
 51
0.0
  0
LINE
  5
BD76
  8
0
 10
345.6742911938796965
 20
15.1653445830552993
 30
0.0
 11
346.1031030464710057
 21
15.1653445830552993
 31
0.0
  0
LINE
  5
BD77
  8
0
 10
345.6603507145711092
 20
15.2245759191988608
 30
0.0
 11
346.1031033826002954
 21
15.2245759191988608
 31
0.0
  0
LINE
  5
BD78
  8
0
 10
345.6875299097771972
 20
15.3983741401987793
 30
0.0
 11
346.1031030464710057
 21
15.3983741401987793
 31
0.0
  0
ARC
  5
BD79
  8
0
 10
345.6742911938796965
 20
14.8463445830552896
 30
0.0
 40
0.319
 50
90.0
 51
180.0
  0
ARC
  5
BD7A
  8
0
 10
345.6603507145711092
 20
14.8603759191988498
 30
0.0
 40
0.3642
 50
90.0
 51
180.0
  0
ARC
  5
BD7B
  8
0
 10
345.6875299097771972
 20
14.8324741401987907
 30
0.0
 40
0.5659
 50
90.0
 51
180.0
  0
ARC
  5
BD7C
  8
0
 10
346.1018662505243242
 20
15.6061340443459002
 30
0.0
 40
0.2077635854413222
 50
270.3410780876521926
 51
359.8590351899304096
  0
ARC
  5
BD7D
  8
0
 10
346.1031033826002954
 20
15.6056225480694994
 30
0.0
 40
0.3810466288707896
 50
269.9999494581887802
 51
0.0000505267822385
  0
ARC
  5
BD7E
  8
0
 10
346.1029482417990266
 20
15.60568680949347
 30
0.0
 40
0.4403422536493875
 50
270.0201426378407064
 51
359.9916822532882748
  0
ARC
  5
BD7F
  8
0
 10
344.9151037495710739
 20
15.6056228840987892
 30
0.0
 40
0.9307838747999999
 50
118.2240868539214063
 51
151.7695654475188007
  0
ARC
  5
BD80
  8
0
 10
344.9151037495710739
 20
15.6056228840987892
 30
0.0
 40
0.9307838747999999
 50
208.230434552481114
 51
241.7759131460784943
  0
ARC
  5
BD81
  8
0
 10
344.9151037495710739
 20
15.6056228840987892
 30
0.0
 40
0.9307838747999999
 50
298.2240868539212215
 51
331.7695654475188007
  0
ARC
  5
BD82
  8
0
 10
344.9151037495710739
 20
15.6056228840987892
 30
0.0
 40
0.9307838747999999
 50
28.2304345524811104
 51
61.7759131460787287
  0
CIRCLE
  5
BD83
  8
0
 10
344.9151037495710739
 20
15.6056228840987892
 30
0.0
 40
3.125
  0
CIRCLE
  5
BD84
  8
0
 10
344.9151037495710739
 20
15.6056228840987892
 30
0.0
 40
3.0990279548481561
  0
ENDSEC
  0
EOF
